  0
SECTION
  2
HEADER
  9
$ACADVER
  1
AC1015
  9
$ACADMAINTVER
 70
    20
  9
$DWGCODEPAGE
  3
ANSI_1252
  9
$INSBASE
 10
0.0
 20
0.0
 30
0.0
  9
$EXTMIN
 10
-497.9383003341673
 20
-439.032
 30
0.0
  9
$EXTMAX
 10
498.1575
 20
439.3215
 30
0.0
  9
$LIMMIN
 10
0.0
 20
0.0
  9
$LIMMAX
 10
12.0
 20
9.0
  9
$ORTHOMODE
 70
     0
  9
$REGENMODE
 70
     1
  9
$FILLMODE
 70
     1
  9
$QTEXTMODE
 70
     0
  9
$MIRRTEXT
 70
     1
  9
$LTSCALE
 40
1.0
  9
$ATTMODE
 70
     1
  9
$TEXTSIZE
 40
0.2
  9
$TRACEWID
 40
0.05
  9
$TEXTSTYLE
  7
Standard
  9
$CLAYER
  8
0
  9
$CELTYPE
  6
ByLayer
  9
$CECOLOR
 62
   256
  9
$CELTSCALE
 40
1.0
  9
$DISPSILH
 70
     0
  9
$DIMSCALE
 40
1.0
  9
$DIMASZ
 40
0.18
  9
$DIMEXO
 40
0.0625
  9
$DIMDLI
 40
0.38
  9
$DIMRND
 40
0.0
  9
$DIMDLE
 40
0.0
  9
$DIMEXE
 40
0.18
  9
$DIMTP
 40
0.0
  9
$DIMTM
 40
0.0
  9
$DIMTXT
 40
0.18
  9
$DIMCEN
 40
0.09
  9
$DIMTSZ
 40
0.0
  9
$DIMTOL
 70
     0
  9
$DIMLIM
 70
     0
  9
$DIMTIH
 70
     1
  9
$DIMTOH
 70
     1
  9
$DIMSE1
 70
     0
  9
$DIMSE2
 70
     0
  9
$DIMTAD
 70
     0
  9
$DIMZIN
 70
     0
  9
$DIMBLK
  1

  9
$DIMASO
 70
     1
  9
$DIMSHO
 70
     1
  9
$DIMPOST
  1

  9
$DIMAPOST
  1

  9
$DIMALT
 70
     0
  9
$DIMALTD
 70
     2
  9
$DIMALTF
 40
25.4
  9
$DIMLFAC
 40
1.0
  9
$DIMTOFL
 70
     0
  9
$DIMTVP
 40
0.0
  9
$DIMTIX
 70
     0
  9
$DIMSOXD
 70
     0
  9
$DIMSAH
 70
     0
  9
$DIMBLK1
  1

  9
$DIMBLK2
  1

  9
$DIMSTYLE
  2
Standard
  9
$DIMCLRD
 70
     0
  9
$DIMCLRE
 70
     0
  9
$DIMCLRT
 70
     0
  9
$DIMTFAC
 40
1.0
  9
$DIMGAP
 40
0.09
  9
$DIMJUST
 70
     0
  9
$DIMSD1
 70
     0
  9
$DIMSD2
 70
     0
  9
$DIMTOLJ
 70
     1
  9
$DIMTZIN
 70
     0
  9
$DIMALTZ
 70
     0
  9
$DIMALTTZ
 70
     0
  9
$DIMUPT
 70
     0
  9
$DIMDEC
 70
     4
  9
$DIMTDEC
 70
     4
  9
$DIMALTU
 70
     2
  9
$DIMALTTD
 70
     2
  9
$DIMTXSTY
  7
Standard
  9
$DIMAUNIT
 70
     0
  9
$DIMADEC
 70
     0
  9
$DIMALTRND
 40
0.0
  9
$DIMAZIN
 70
     0
  9
$DIMDSEP
 70
    46
  9
$DIMATFIT
 70
     3
  9
$DIMFRAC
 70
     0
  9
$DIMLDRBLK
  1

  9
$DIMLUNIT
 70
     2
  9
$DIMLWD
 70
    -2
  9
$DIMLWE
 70
    -2
  9
$DIMTMOVE
 70
     0
  9
$LUNITS
 70
     2
  9
$LUPREC
 70
     4
  9
$SKETCHINC
 40
0.1
  9
$FILLETRAD
 40
0.5
  9
$AUNITS
 70
     0
  9
$AUPREC
 70
     0
  9
$MENU
  1
.
  9
$ELEVATION
 40
0.0
  9
$PELEVATION
 40
0.0
  9
$THICKNESS
 40
0.0
  9
$LIMCHECK
 70
     0
  9
$CHAMFERA
 40
0.0
  9
$CHAMFERB
 40
0.0
  9
$CHAMFERC
 40
0.0
  9
$CHAMFERD
 40
0.0
  9
$SKPOLY
 70
     0
  9
$TDCREATE
 40
2457648.624239931
  9
$TDUCREATE
 40
2457648.540906598
  9
$TDUPDATE
 40
2459809.495918658
  9
$TDUUPDATE
 40
2459809.412585324
  9
$TDINDWG
 40
0.0027489583
  9
$TDUSRTIMER
 40
0.0027437153
  9
$USRTIMER
 70
     1
  9
$ANGBASE
 50
0.0
  9
$ANGDIR
 70
     0
  9
$PDMODE
 70
     0
  9
$PDSIZE
 40
0.0
  9
$PLINEWID
 40
0.0
  9
$SPLFRAME
 70
     0
  9
$SPLINETYPE
 70
     6
  9
$SPLINESEGS
 70
     8
  9
$HANDSEED
  5
140
  9
$SURFTAB1
 70
     6
  9
$SURFTAB2
 70
     6
  9
$SURFTYPE
 70
     6
  9
$SURFU
 70
     6
  9
$SURFV
 70
     6
  9
$UCSBASE
  2

  9
$UCSNAME
  2

  9
$UCSORG
 10
0.0
 20
0.0
 30
0.0
  9
$UCSXDIR
 10
1.0
 20
0.0
 30
0.0
  9
$UCSYDIR
 10
0.0
 20
1.0
 30
0.0
  9
$UCSORTHOREF
  2

  9
$UCSORTHOVIEW
 70
     0
  9
$UCSORGTOP
 10
0.0
 20
0.0
 30
0.0
  9
$UCSORGBOTTOM
 10
0.0
 20
0.0
 30
0.0
  9
$UCSORGLEFT
 10
0.0
 20
0.0
 30
0.0
  9
$UCSORGRIGHT
 10
0.0
 20
0.0
 30
0.0
  9
$UCSORGFRONT
 10
0.0
 20
0.0
 30
0.0
  9
$UCSORGBACK
 10
0.0
 20
0.0
 30
0.0
  9
$PUCSBASE
  2

  9
$PUCSNAME
  2

  9
$PUCSORG
 10
0.0
 20
0.0
 30
0.0
  9
$PUCSXDIR
 10
1.0
 20
0.0
 30
0.0
  9
$PUCSYDIR
 10
0.0
 20
1.0
 30
0.0
  9
$PUCSORTHOREF
  2

  9
$PUCSORTHOVIEW
 70
     0
  9
$PUCSORGTOP
 10
0.0
 20
0.0
 30
0.0
  9
$PUCSORGBOTTOM
 10
0.0
 20
0.0
 30
0.0
  9
$PUCSORGLEFT
 10
0.0
 20
0.0
 30
0.0
  9
$PUCSORGRIGHT
 10
0.0
 20
0.0
 30
0.0
  9
$PUCSORGFRONT
 10
0.0
 20
0.0
 30
0.0
  9
$PUCSORGBACK
 10
0.0
 20
0.0
 30
0.0
  9
$USERI1
 70
     0
  9
$USERI2
 70
     0
  9
$USERI3
 70
     0
  9
$USERI4
 70
     0
  9
$USERI5
 70
     0
  9
$USERR1
 40
0.0
  9
$USERR2
 40
0.0
  9
$USERR3
 40
0.0
  9
$USERR4
 40
0.0
  9
$USERR5
 40
0.0
  9
$WORLDVIEW
 70
     1
  9
$SHADEDGE
 70
     3
  9
$SHADEDIF
 70
    70
  9
$TILEMODE
 70
     1
  9
$MAXACTVP
 70
    64
  9
$PINSBASE
 10
0.0
 20
0.0
 30
0.0
  9
$PLIMCHECK
 70
     0
  9
$PEXTMIN
 10
1.000000000000000E+20
 20
1.000000000000000E+20
 30
1.000000000000000E+20
  9
$PEXTMAX
 10
-1.000000000000000E+20
 20
-1.000000000000000E+20
 30
-1.000000000000000E+20
  9
$PLIMMIN
 10
0.0
 20
0.0
  9
$PLIMMAX
 10
12.0
 20
9.0
  9
$UNITMODE
 70
     0
  9
$VISRETAIN
 70
     1
  9
$PLINEGEN
 70
     0
  9
$PSLTSCALE
 70
     1
  9
$TREEDEPTH
 70
  3020
  9
$CMLSTYLE
  2
Standard
  9
$CMLJUST
 70
     0
  9
$CMLSCALE
 40
1.0
  9
$PROXYGRAPHICS
 70
     1
  9
$MEASUREMENT
 70
     0
  9
$CELWEIGHT
370
    -1
  9
$ENDCAPS
280
     0
  9
$JOINSTYLE
280
     0
  9
$LWDISPLAY
290
     0
  9
$INSUNITS
 70
     4
  9
$HYPERLINKBASE
  1

  9
$STYLESHEET
  1

  9
$XEDIT
290
     1
  9
$CEPSNTYPE
380
     0
  9
$PSTYLEMODE
290
     1
  9
$FINGERPRINTGUID
  2
{4E52BE1D-7033-4F05-A6CC-8D7BFCCF53BF}
  9
$VERSIONGUID
  2
{9CEED7CB-BEFC-45E0-A7C7-37EDF511CAE4}
  9
$EXTNAMES
290
     1
  9
$PSVPSCALE
 40
0.0
  9
$OLESTARTUP
290
     0
  0
ENDSEC
  0
SECTION
  2
CLASSES
  0
CLASS
  1
ACDBDICTIONARYWDFLT
  2
AcDbDictionaryWithDefault
  3
ObjectDBX Classes
 90
        0
280
     0
281
     0
  0
CLASS
  1
VISUALSTYLE
  2
AcDbVisualStyle
  3
ObjectDBX Classes
 90
     4095
280
     0
281
     0
  0
CLASS
  1
MATERIAL
  2
AcDbMaterial
  3
ObjectDBX Classes
 90
     1153
280
     0
281
     0
  0
CLASS
  1
SCALE
  2
AcDbScale
  3
ObjectDBX Classes
 90
     1153
280
     0
281
     0
  0
CLASS
  1
TABLESTYLE
  2
AcDbTableStyle
  3
ObjectDBX Classes
 90
     4095
280
     0
281
     0
  0
CLASS
  1
MLEADERSTYLE
  2
AcDbMLeaderStyle
  3
ACDB_MLEADERSTYLE_CLASS
 90
     4095
280
     0
281
     0
  0
CLASS
  1
SUN
  2
AcDbSun
  3
SCENEOE
 90
    33921
280
     0
281
     0
  0
CLASS
  1
DICTIONARYVAR
  2
AcDbDictionaryVar
  3
ObjectDBX Classes
 90
        0
280
     0
281
     0
  0
CLASS
  1
CELLSTYLEMAP
  2
AcDbCellStyleMap
  3
ObjectDBX Classes
 90
     1152
280
     0
281
     0
  0
CLASS
  1
ACDBPLACEHOLDER
  2
AcDbPlaceHolder
  3
ObjectDBX Classes
 90
        0
280
     0
281
     0
  0
CLASS
  1
LAYOUT
  2
AcDbLayout
  3
ObjectDBX Classes
 90
        0
280
     0
281
     0
  0
ENDSEC
  0
SECTION
  2
TABLES
  0
TABLE
  2
VPORT
  5
8
330
0
100
AcDbSymbolTable
 70
     1
  0
VPORT
  5
29
330
8
100
AcDbSymbolTableRecord
100
AcDbViewportTableRecord
  2
*Active
 70
     0
 10
0.0
 20
0.0
 11
1.0
 21
1.0
 12
193.8876292734762
 22
-56.52651551528876
 13
0.0
 23
0.0
 14
0.5
 24
0.5
 15
0.5
 25
0.5
 16
0.0
 26
0.0
 36
1.0
 17
0.0
 27
0.0
 37
0.0
 40
294.5087279619748
 41
1.747305389221556
 42
50.0
 43
0.0
 44
0.0
 50
0.0
 51
0.0
 71
     0
 72
   100
 73
     1
 74
     3
 75
     0
 76
     0
 77
     0
 78
     0
281
     0
 65
     1
110
0.0
120
0.0
130
0.0
111
1.0
121
0.0
131
0.0
112
0.0
122
1.0
132
0.0
 79
     0
146
0.0
1001
ACAD_NAV_VCDISPLAY
1070
     3
  0
ENDTAB
  0
TABLE
  2
LTYPE
  5
5
330
0
100
AcDbSymbolTable
 70
     1
  0
LTYPE
  5
14
330
5
100
AcDbSymbolTableRecord
100
AcDbLinetypeTableRecord
  2
ByBlock
 70
     0
  3

 72
    65
 73
     0
 40
0.0
  0
LTYPE
  5
15
330
5
100
AcDbSymbolTableRecord
100
AcDbLinetypeTableRecord
  2
ByLayer
 70
     0
  3

 72
    65
 73
     0
 40
0.0
  0
LTYPE
  5
16
330
5
100
AcDbSymbolTableRecord
100
AcDbLinetypeTableRecord
  2
Continuous
 70
     0
  3
Solid line
 72
    65
 73
     0
 40
0.0
  0
ENDTAB
  0
TABLE
  2
LAYER
  5
2
330
0
100
AcDbSymbolTable
 70
     2
  0
LAYER
  5
10
102
{ACAD_XDICTIONARY
360
105
102
}
330
2
100
AcDbSymbolTableRecord
100
AcDbLayerTableRecord
  2
0
 70
     0
 62
     7
  6
Continuous
370
    -3
390
F
  0
LAYER
  5
6F
102
{ACAD_XDICTIONARY
360
107
102
}
330
2
100
AcDbSymbolTableRecord
100
AcDbLayerTableRecord
  2
Layer 1
 70
     0
 62
     7
  6
Continuous
370
    -3
390
F
  0
ENDTAB
  0
TABLE
  2
STYLE
  5
3
330
0
100
AcDbSymbolTable
 70
     1
  0
STYLE
  5
11
330
3
100
AcDbSymbolTableRecord
100
AcDbTextStyleTableRecord
  2
Standard
 70
     0
 40
0.0
 41
1.0
 50
0.0
 71
     0
 42
0.2
  3
txt
  4

  0
ENDTAB
  0
TABLE
  2
VIEW
  5
6
330
0
100
AcDbSymbolTable
 70
     0
  0
ENDTAB
  0
TABLE
  2
UCS
  5
7
330
0
100
AcDbSymbolTable
 70
     0
  0
ENDTAB
  0
TABLE
  2
APPID
  5
9
330
0
100
AcDbSymbolTable
 70
     4
  0
APPID
  5
12
330
9
100
AcDbSymbolTableRecord
100
AcDbRegAppTableRecord
  2
ACAD
 70
     0
  0
APPID
  5
6E
330
9
100
AcDbSymbolTableRecord
100
AcDbRegAppTableRecord
  2
ODA
 70
     0
  0
APPID
  5
F7
330
9
100
AcDbSymbolTableRecord
100
AcDbRegAppTableRecord
  2
ACAD_MLEADERVER
 70
     0
  0
APPID
  5
109
330
9
100
AcDbSymbolTableRecord
100
AcDbRegAppTableRecord
  2
ACAD_NAV_VCDISPLAY
 70
     0
  0
ENDTAB
  0
TABLE
  2
DIMSTYLE
  5
A
330
0
100
AcDbSymbolTable
 70
     1
100
AcDbDimStyleTable
 71
     0
  0
DIMSTYLE
105
27
330
A
100
AcDbSymbolTableRecord
100
AcDbDimStyleTableRecord
  2
Standard
 70
     0
340
11
  0
ENDTAB
  0
TABLE
  2
BLOCK_RECORD
  5
1
330
0
100
AcDbSymbolTable
 70
     1
  0
BLOCK_RECORD
  5
1F
330
1
100
AcDbSymbolTableRecord
100
AcDbBlockTableRecord
  2
*Model_Space
340
22
  0
BLOCK_RECORD
  5
1B
330
1
100
AcDbSymbolTableRecord
100
AcDbBlockTableRecord
  2
*Paper_Space
340
1E
  0
BLOCK_RECORD
  5
23
330
1
100
AcDbSymbolTableRecord
100
AcDbBlockTableRecord
  2
*Paper_Space0
340
26
  0
ENDTAB
  0
ENDSEC
  0
SECTION
  2
BLOCKS
  0
BLOCK
  5
20
330
1F
100
AcDbEntity
  8
0
100
AcDbBlockBegin
  2
*Model_Space
 70
     0
 10
0.0
 20
0.0
 30
0.0
  3
*Model_Space
  1
*Model_Space
  0
ENDBLK
  5
21
330
1F
100
AcDbEntity
  8
0
100
AcDbBlockEnd
  0
BLOCK
  5
1C
330
1B
100
AcDbEntity
 67
     1
  8
0
100
AcDbBlockBegin
  2
*Paper_Space
 70
     0
 10
0.0
 20
0.0
 30
0.0
  3
*Paper_Space
  1
*Paper_Space
  0
ENDBLK
  5
1D
330
1B
100
AcDbEntity
 67
     1
  8
0
100
AcDbBlockEnd
  0
BLOCK
  5
24
330
23
100
AcDbEntity
 67
     1
  8
0
100
AcDbBlockBegin
  2
*Paper_Space0
 70
     0
 10
0.0
 20
0.0
 30
0.0
  3
*Paper_Space0
  1
*Paper_Space0
  0
ENDBLK
  5
25
330
23
100
AcDbEntity
 67
     1
  8
0
100
AcDbBlockEnd
  0
ENDSEC
  0
SECTION
  2
ENTITIES
  0
SPLINE
  5
70
330
1F
100
AcDbEntity
  8
Layer 1
 62
   250
100
AcDbSpline
210
0.0
220
0.0
230
1.0
 70
    11
 71
     3
 72
    20
 73
    16
 74
     0
 42
0.0000000001
 43
0.0000000001
 40
0.0
 40
0.0
 40
0.0
 40
0.0
 40
0.2
 40
0.2
 40
0.2
 40
0.3
 40
0.4
 40
0.4
 40
0.4
 40
0.5
 40
0.6
 40
0.6
 40
0.6
 40
0.8
 40
1.0
 40
1.0
 40
1.0
 40
1.0
 10
351.2197
 20
-393.802
 30
0.0
 10
351.2197
 20
-393.802
 30
0.0
 10
407.694
 20
-361.9815
 30
0.0
 10
407.694
 20
-361.9815
 30
0.0
 10
407.694
 20
-361.9815
 30
0.0
 10
407.694
 20
-361.9815
 30
0.0
 10
442.4777999999998
 20
-413.8859999999998
 30
0.0
 10
442.4777999999998
 20
-413.8859999999998
 30
0.0
 10
442.4777999999998
 20
-413.8859999999998
 30
0.0
 10
442.4777999999998
 20
-413.8859999999998
 30
0.0
 10
368.0683
 20
-413.8859999999998
 30
0.0
 10
368.0683
 20
-413.8859999999998
 30
0.0
 10
368.0683
 20
-413.8859999999998
 30
0.0
 10
368.0683
 20
-413.8859999999998
 30
0.0
 10
351.2197
 20
-393.802
 30
0.0
 10
351.2197
 20
-393.802
 30
0.0
  0
SPLINE
  5
71
330
1F
100
AcDbEntity
  8
Layer 1
 62
   250
100
AcDbSpline
210
0.0
220
0.0
230
1.0
 70
     9
 71
     3
 72
    72
 73
    68
 74
     0
 42
0.0000000001
 43
0.0000000001
 40
0.0
 40
0.0
 40
0.0
 40
0.0
 40
0.0555555555555556
 40
0.0555555555555556
 40
0.0555555555555556
 40
0.0833333333333334
 40
0.1111111111111111
 40
0.1111111111111111
 40
0.1111111111111111
 40
0.1388888888888889
 40
0.1666666666666667
 40
0.1666666666666667
 40
0.1666666666666667
 40
0.1944444444444444
 40
0.2222222222222222
 40
0.2222222222222222
 40
0.2222222222222222
 40
0.25
 40
0.2777777777777778
 40
0.2777777777777778
 40
0.2777777777777778
 40
0.3055555555555556
 40
0.3333333333333333
 40
0.3333333333333333
 40
0.3333333333333333
 40
0.3611111111111111
 40
0.3888888888888889
 40
0.3888888888888889
 40
0.3888888888888889
 40
0.4166666666666666
 40
0.4444444444444445
 40
0.4444444444444445
 40
0.4444444444444445
 40
0.4722222222222224
 40
0.5
 40
0.5
 40
0.5
 40
0.5277777777777778
 40
0.5555555555555556
 40
0.5555555555555556
 40
0.5555555555555556
 40
0.5833333333333334
 40
0.6111111111111112
 40
0.6111111111111112
 40
0.6111111111111112
 40
0.638888888888889
 40
0.6666666666666666
 40
0.6666666666666666
 40
0.6666666666666666
 40
0.6944444444444446
 40
0.7222222222222224
 40
0.7222222222222224
 40
0.7222222222222224
 40
0.75
 40
0.7777777777777778
 40
0.7777777777777778
 40
0.7777777777777778
 40
0.8055555555555555
 40
0.8333333333333332
 40
0.8333333333333332
 40
0.8333333333333332
 40
0.8611111111111108
 40
0.8888888888888889
 40
0.8888888888888889
 40
0.8888888888888889
 40
0.9444444444444444
 40
1.0
 40
1.0
 40
1.0
 40
1.0
 10
1.56
 20
439.3215
 30
0.0
 10
1.56
 20
439.3215
 30
0.0
 10
-0.8792999999999999
 20
439.3215
 30
0.0
 10
-0.8792999999999999
 20
439.3215
 30
0.0
 10
-0.8792999999999999
 20
439.3215
 30
0.0
 10
-8.4435
 20
439.0971
 30
0.0
 10
-14.5016
 20
432.8885999999998
 30
0.0
 10
-14.4949
 20
425.2709
 30
0.0
 10
-14.4949
 20
425.2709
 30
0.0
 10
-14.4949
 20
425.2709
 30
0.0
 10
-14.4949
 20
424.9381
 30
0.0
 10
-14.4949
 20
424.9381
 30
0.0
 10
-14.4949
 20
424.9381
 30
0.0
 10
-77.6774
 20
421.7735
 30
0.0
 10
-118.7727
 20
398.3444
 30
0.0
 10
-136.6794
 20
355.1126
 30
0.0
 10
-136.6794
 20
355.1126
 30
0.0
 10
-165.8387
 20
284.7234
 30
0.0
 10
-121.4572
 20
180.2602
 30
0.0
 10
-76.9718
 20
105.0915
 30
0.0
 10
-76.9718
 20
105.0915
 30
0.0
 10
-76.9718
 20
105.0915
 30
0.0
 10
-355.8915
 20
-294.4384
 30
0.0
 10
-355.8915
 20
-294.4384
 30
0.0
 10
-355.8915
 20
-294.4384
 30
0.0
 10
-355.8915
 20
-294.4384
 30
0.0
 10
-403.494
 20
-294.4384
 30
0.0
 10
-403.494
 20
-294.4384
 30
0.0
 10
-403.494
 20
-294.4384
 30
0.0
 10
-403.494
 20
-294.4384
 30
0.0
 10
-497.9459
 20
-439.032
 30
0.0
 10
-497.9459
 20
-439.032
 30
0.0
 10
-497.9459
 20
-439.032
 30
0.0
 10
-497.9459
 20
-439.032
 30
0.0
 10
498.1575
 20
-439.032
 30
0.0
 10
498.1575
 20
-439.032
 30
0.0
 10
498.1575
 20
-439.032
 30
0.0
 10
498.1575
 20
-439.032
 30
0.0
 10
403.7077
 20
-294.4384
 30
0.0
 10
403.7077
 20
-294.4384
 30
0.0
 10
403.7077
 20
-294.4384
 30
0.0
 10
403.7077
 20
-294.4384
 30
0.0
 10
356.1025
 20
-294.4384
 30
0.0
 10
356.1025
 20
-294.4384
 30
0.0
 10
356.1025
 20
-294.4384
 30
0.0
 10
356.1025
 20
-294.4384
 30
0.0
 10
77.86599999999999
 20
104.1184
 30
0.0
 10
77.86599999999999
 20
104.1184
 30
0.0
 10
77.86599999999999
 20
104.1184
 30
0.0
 10
84.24750000000001
 20
115.3752
 30
0.0
 10
90.4498
 20
126.9431
 30
0.0
 10
96.1719
 20
138.3873
 30
0.0
 10
96.1719
 20
138.3873
 30
0.0
 10
125.2865
 20
196.6246
 30
0.0
 10
156.4866
 20
279.1005
 30
0.0
 10
139.8207
 20
341.3132
 30
0.0
 10
139.8207
 20
341.3132
 30
0.0
 10
130.0877
 20
377.6521
 30
0.0
 10
100.3593
 20
420.5715
 30
0.0
 10
15.184
 20
424.9516999999998
 30
0.0
 10
15.184
 20
424.9516999999998
 30
0.0
 10
15.184
 20
424.9516999999998
 30
0.0
 10
15.1806
 20
425.3047999999997
 30
0.0
 10
15.1806
 20
425.3047999999997
 30
0.0
 10
15.1806
 20
425.3047999999997
 30
0.0
 10
15.1739
 20
432.9162
 30
0.0
 10
9.115099999999999
 20
439.1009
 30
0.0
 10
1.56
 20
439.3215
 30
0.0
  0
SPLINE
  5
72
330
1F
100
AcDbEntity
  8
Layer 1
 62
   250
100
AcDbSpline
210
0.0
220
0.0
230
1.0
 70
    11
 71
     3
 72
    20
 73
    16
 74
     0
 42
0.0000000001
 43
0.0000000001
 40
0.0
 40
0.0
 40
0.0
 40
0.0
 40
0.2
 40
0.2
 40
0.2
 40
0.3
 40
0.4
 40
0.4
 40
0.4
 40
0.5
 40
0.6
 40
0.6
 40
0.6
 40
0.8
 40
1.0
 40
1.0
 40
1.0
 40
1.0
 10
288.9526
 20
-319.585
 30
0.0
 10
288.9526
 20
-319.585
 30
0.0
 10
379.2803
 20
-319.585
 30
0.0
 10
379.2803
 20
-319.585
 30
0.0
 10
379.2803
 20
-319.585
 30
0.0
 10
379.2803
 20
-319.585
 30
0.0
 10
398.8725
 20
-348.8157
 30
0.0
 10
398.8725
 20
-348.8157
 30
0.0
 10
398.8725
 20
-348.8157
 30
0.0
 10
398.8725
 20
-348.8157
 30
0.0
 10
340.8905
 20
-381.4904
 30
0.0
 10
340.8905
 20
-381.4904
 30
0.0
 10
340.8905
 20
-381.4904
 30
0.0
 10
340.8905
 20
-381.4904
 30
0.0
 10
288.9526
 20
-319.585
 30
0.0
 10
288.9526
 20
-319.585
 30
0.0
  0
SPLINE
  5
73
330
1F
100
AcDbEntity
  8
Layer 1
 62
   250
100
AcDbSpline
210
0.0
220
0.0
230
1.0
 70
    11
 71
     3
 72
    20
 73
    16
 74
     0
 42
0.0000000001
 43
0.0000000001
 40
0.0
 40
0.0
 40
0.0
 40
0.0
 40
0.2
 40
0.2
 40
0.2
 40
0.3
 40
0.4
 40
0.4
 40
0.4
 40
0.5
 40
0.6
 40
0.6
 40
0.6
 40
0.8
 40
1.0
 40
1.0
 40
1.0
 40
1.0
 10
258.7053
 20
-413.8859999999998
 30
0.0
 10
258.7053
 20
-413.8859999999998
 30
0.0
 10
237.1506
 20
-388.193
 30
0.0
 10
237.1506
 20
-388.193
 30
0.0
 10
237.1506
 20
-388.193
 30
0.0
 10
237.1506
 20
-388.193
 30
0.0
 10
289.007
 20
-358.9757
 30
0.0
 10
289.007
 20
-358.9757
 30
0.0
 10
289.007
 20
-358.9757
 30
0.0
 10
289.007
 20
-358.9757
 30
0.0
 10
335.0706
 20
-413.8859999999998
 30
0.0
 10
335.0706
 20
-413.8859999999998
 30
0.0
 10
335.0706
 20
-413.8859999999998
 30
0.0
 10
335.0706
 20
-413.8859999999998
 30
0.0
 10
258.7053
 20
-413.8859999999998
 30
0.0
 10
258.7053
 20
-413.8859999999998
 30
0.0
  0
SPLINE
  5
74
330
1F
100
AcDbEntity
  8
Layer 1
 62
   250
100
AcDbSpline
210
0.0
220
0.0
230
1.0
 70
    11
 71
     3
 72
    20
 73
    16
 74
     0
 42
0.0000000001
 43
0.0000000001
 40
0.0
 40
0.0
 40
0.0
 40
0.0
 40
0.2
 40
0.2
 40
0.2
 40
0.3
 40
0.4
 40
0.4
 40
0.4
 40
0.5
 40
0.6
 40
0.6
 40
0.6
 40
0.8
 40
1.0
 40
1.0
 40
1.0
 40
1.0
 10
179.5931
 20
-319.585
 30
0.0
 10
179.5931
 20
-319.585
 30
0.0
 10
255.955
 20
-319.585
 30
0.0
 10
255.955
 20
-319.585
 30
0.0
 10
255.955
 20
-319.585
 30
0.0
 10
255.955
 20
-319.585
 30
0.0
 10
278.6778
 20
-346.6643
 30
0.0
 10
278.6778
 20
-346.6643
 30
0.0
 10
278.6778
 20
-346.6643
 30
0.0
 10
278.6778
 20
-346.6643
 30
0.0
 10
226.8214
 20
-375.8811
 30
0.0
 10
226.8214
 20
-375.8811
 30
0.0
 10
226.8214
 20
-375.8811
 30
0.0
 10
226.8214
 20
-375.8811
 30
0.0
 10
179.5931
 20
-319.585
 30
0.0
 10
179.5931
 20
-319.585
 30
0.0
  0
SPLINE
  5
75
330
1F
100
AcDbEntity
  8
Layer 1
 62
   250
100
AcDbSpline
210
0.0
220
0.0
230
1.0
 70
    11
 71
     3
 72
    20
 73
    16
 74
     0
 42
0.0000000001
 43
0.0000000001
 40
0.0
 40
0.0
 40
0.0
 40
0.0
 40
0.2
 40
0.2
 40
0.2
 40
0.3
 40
0.4
 40
0.4
 40
0.4
 40
0.5
 40
0.6
 40
0.6
 40
0.6
 40
0.8
 40
1.0
 40
1.0
 40
1.0
 40
1.0
 10
149.3424
 20
-413.8859999999998
 30
0.0
 10
149.3424
 20
-413.8859999999998
 30
0.0
 10
125.6179
 20
-385.6072
 30
0.0
 10
125.6179
 20
-385.6072
 30
0.0
 10
125.6179
 20
-385.6072
 30
0.0
 10
125.6179
 20
-385.6072
 30
0.0
 10
177.4695
 20
-356.3897
 30
0.0
 10
177.4695
 20
-356.3897
 30
0.0
 10
177.4695
 20
-356.3897
 30
0.0
 10
177.4695
 20
-356.3897
 30
0.0
 10
225.7077
 20
-413.8859999999998
 30
0.0
 10
225.7077
 20
-413.8859999999998
 30
0.0
 10
225.7077
 20
-413.8859999999998
 30
0.0
 10
225.7077
 20
-413.8859999999998
 30
0.0
 10
149.3424
 20
-413.8859999999998
 30
0.0
 10
149.3424
 20
-413.8859999999998
 30
0.0
  0
SPLINE
  5
76
330
1F
100
AcDbEntity
  8
Layer 1
 62
   250
100
AcDbSpline
210
0.0
220
0.0
230
1.0
 70
    11
 71
     3
 72
    20
 73
    16
 74
     0
 42
0.0000000001
 43
0.0000000001
 40
0.0
 40
0.0
 40
0.0
 40
0.0
 40
0.2
 40
0.2
 40
0.2
 40
0.3
 40
0.4
 40
0.4
 40
0.4
 40
0.5
 40
0.6
 40
0.6
 40
0.6
 40
0.8
 40
1.0
 40
1.0
 40
1.0
 40
1.0
 10
39.9849
 20
-413.8859999999998
 30
0.0
 10
39.9849
 20
-413.8859999999998
 30
0.0
 10
17.3856
 20
-386.9476
 30
0.0
 10
17.3856
 20
-386.9476
 30
0.0
 10
17.3856
 20
-386.9476
 30
0.0
 10
17.3856
 20
-386.9476
 30
0.0
 10
69.2373
 20
-357.7303
 30
0.0
 10
69.2373
 20
-357.7303
 30
0.0
 10
69.2373
 20
-357.7303
 30
0.0
 10
69.2373
 20
-357.7303
 30
0.0
 10
116.3474
 20
-413.8859999999998
 30
0.0
 10
116.3474
 20
-413.8859999999998
 30
0.0
 10
116.3474
 20
-413.8859999999998
 30
0.0
 10
116.3474
 20
-413.8859999999998
 30
0.0
 10
39.9849
 20
-413.8859999999998
 30
0.0
 10
39.9849
 20
-413.8859999999998
 30
0.0
  0
SPLINE
  5
77
330
1F
100
AcDbEntity
  8
Layer 1
 62
   250
100
AcDbSpline
210
0.0
220
0.0
230
1.0
 70
    11
 71
     3
 72
    20
 73
    16
 74
     0
 42
0.0000000001
 43
0.0000000001
 40
0.0
 40
0.0
 40
0.0
 40
0.0
 40
0.2
 40
0.2
 40
0.2
 40
0.3
 40
0.4
 40
0.4
 40
0.4
 40
0.5
 40
0.6
 40
0.6
 40
0.6
 40
0.8
 40
1.0
 40
1.0
 40
1.0
 40
1.0
 10
-39.126
 20
-319.585
 30
0.0
 10
-39.126
 20
-319.585
 30
0.0
 10
37.2331
 20
-319.585
 30
0.0
 10
37.2331
 20
-319.585
 30
0.0
 10
37.2331
 20
-319.585
 30
0.0
 10
37.2331
 20
-319.585
 30
0.0
 10
58.9074
 20
-345.4188
 30
0.0
 10
58.9074
 20
-345.4188
 30
0.0
 10
58.9074
 20
-345.4188
 30
0.0
 10
58.9074
 20
-345.4188
 30
0.0
 10
7.056499999999998
 20
-374.6356
 30
0.0
 10
7.056499999999998
 20
-374.6356
 30
0.0
 10
7.056499999999998
 20
-374.6356
 30
0.0
 10
7.056499999999998
 20
-374.6356
 30
0.0
 10
-39.126
 20
-319.585
 30
0.0
 10
-39.126
 20
-319.585
 30
0.0
  0
SPLINE
  5
78
330
1F
100
AcDbEntity
  8
Layer 1
 62
   250
100
AcDbSpline
210
0.0
220
0.0
230
1.0
 70
    11
 71
     3
 72
    20
 73
    16
 74
     0
 42
0.0000000001
 43
0.0000000001
 40
0.0
 40
0.0
 40
0.0
 40
0.0
 40
0.2
 40
0.2
 40
0.2
 40
0.3
 40
0.4
 40
0.4
 40
0.4
 40
0.5
 40
0.6
 40
0.6
 40
0.6
 40
0.8
 40
1.0
 40
1.0
 40
1.0
 40
1.0
 10
-69.3767
 20
-413.8859999999998
 30
0.0
 10
-69.3767
 20
-413.8859999999998
 30
0.0
 10
-91.9719
 20
-386.9513
 30
0.0
 10
-91.9719
 20
-386.9513
 30
0.0
 10
-91.9719
 20
-386.9513
 30
0.0
 10
-91.9719
 20
-386.9513
 30
0.0
 10
-40.12089999999999
 20
-357.7303
 30
0.0
 10
-40.12089999999999
 20
-357.7303
 30
0.0
 10
-40.12089999999999
 20
-357.7303
 30
0.0
 10
-40.12089999999999
 20
-357.7303
 30
0.0
 10
6.9892
 20
-413.8859999999998
 30
0.0
 10
6.9892
 20
-413.8859999999998
 30
0.0
 10
6.9892
 20
-413.8859999999998
 30
0.0
 10
6.9892
 20
-413.8859999999998
 30
0.0
 10
-69.3767
 20
-413.8859999999998
 30
0.0
 10
-69.3767
 20
-413.8859999999998
 30
0.0
  0
SPLINE
  5
79
330
1F
100
AcDbEntity
  8
Layer 1
 62
   250
100
AcDbSpline
210
0.0
220
0.0
230
1.0
 70
    11
 71
     3
 72
    20
 73
    16
 74
     0
 42
0.0000000001
 43
0.0000000001
 40
0.0
 40
0.0
 40
0.0
 40
0.0
 40
0.2
 40
0.2
 40
0.2
 40
0.3
 40
0.4
 40
0.4
 40
0.4
 40
0.5
 40
0.6
 40
0.6
 40
0.6
 40
0.8
 40
1.0
 40
1.0
 40
1.0
 40
1.0
 10
-148.4876
 20
-319.585
 30
0.0
 10
-148.4876
 20
-319.585
 30
0.0
 10
-72.12439999999998
 20
-319.585
 30
0.0
 10
-72.12439999999998
 20
-319.585
 30
0.0
 10
-72.12439999999998
 20
-319.585
 30
0.0
 10
-72.12439999999998
 20
-319.585
 30
0.0
 10
-50.4535
 20
-345.4188
 30
0.0
 10
-50.4535
 20
-345.4188
 30
0.0
 10
-50.4535
 20
-345.4188
 30
0.0
 10
-50.4535
 20
-345.4188
 30
0.0
 10
-102.3011
 20
-374.6356
 30
0.0
 10
-102.3011
 20
-374.6356
 30
0.0
 10
-102.3011
 20
-374.6356
 30
0.0
 10
-102.3011
 20
-374.6356
 30
0.0
 10
-148.4876
 20
-319.585
 30
0.0
 10
-148.4876
 20
-319.585
 30
0.0
  0
SPLINE
  5
7A
330
1F
100
AcDbEntity
  8
Layer 1
 62
   250
100
AcDbSpline
210
0.0
220
0.0
230
1.0
 70
    11
 71
     3
 72
    20
 73
    16
 74
     0
 42
0.0000000001
 43
0.0000000001
 40
0.0
 40
0.0
 40
0.0
 40
0.0
 40
0.2
 40
0.2
 40
0.2
 40
0.3
 40
0.4
 40
0.4
 40
0.4
 40
0.5
 40
0.6
 40
0.6
 40
0.6
 40
0.8
 40
1.0
 40
1.0
 40
1.0
 40
1.0
 10
-178.7349
 20
-413.8859999999998
 30
0.0
 10
-178.7349
 20
-413.8859999999998
 30
0.0
 10
-200.0194
 20
-388.514
 30
0.0
 10
-200.0194
 20
-388.514
 30
0.0
 10
-200.0194
 20
-388.514
 30
0.0
 10
-200.0194
 20
-388.514
 30
0.0
 10
-148.1698
 20
-359.297
 30
0.0
 10
-148.1698
 20
-359.297
 30
0.0
 10
-148.1698
 20
-359.297
 30
0.0
 10
-148.1698
 20
-359.297
 30
0.0
 10
-102.3758
 20
-413.8859999999998
 30
0.0
 10
-102.3758
 20
-413.8859999999998
 30
0.0
 10
-102.3758
 20
-413.8859999999998
 30
0.0
 10
-102.3758
 20
-413.8859999999998
 30
0.0
 10
-178.7349
 20
-413.8859999999998
 30
0.0
 10
-178.7349
 20
-413.8859999999998
 30
0.0
  0
SPLINE
  5
7B
330
1F
100
AcDbEntity
  8
Layer 1
 62
   250
100
AcDbSpline
210
0.0
220
0.0
230
1.0
 70
    11
 71
     3
 72
    20
 73
    16
 74
     0
 42
0.0000000001
 43
0.0000000001
 40
0.0
 40
0.0
 40
0.0
 40
0.0
 40
0.2
 40
0.2
 40
0.2
 40
0.3
 40
0.4
 40
0.4
 40
0.4
 40
0.5
 40
0.6
 40
0.6
 40
0.6
 40
0.8
 40
1.0
 40
1.0
 40
1.0
 40
1.0
 10
-257.8458
 20
-319.585
 30
0.0
 10
-257.8458
 20
-319.585
 30
0.0
 10
-181.486
 20
-319.585
 30
0.0
 10
-181.486
 20
-319.585
 30
0.0
 10
-181.486
 20
-319.585
 30
0.0
 10
-181.486
 20
-319.585
 30
0.0
 10
-158.5003
 20
-346.9848
 30
0.0
 10
-158.5003
 20
-346.9848
 30
0.0
 10
-158.5003
 20
-346.9848
 30
0.0
 10
-158.5003
 20
-346.9848
 30
0.0
 10
-210.3486
 20
-376.202
 30
0.0
 10
-210.3486
 20
-376.202
 30
0.0
 10
-210.3486
 20
-376.202
 30
0.0
 10
-210.3486
 20
-376.202
 30
0.0
 10
-257.8458
 20
-319.585
 30
0.0
 10
-257.8458
 20
-319.585
 30
0.0
  0
SPLINE
  5
7C
330
1F
100
AcDbEntity
  8
Layer 1
 62
   250
100
AcDbSpline
210
0.0
220
0.0
230
1.0
 70
    11
 71
     3
 72
    20
 73
    16
 74
     0
 42
0.0000000001
 43
0.0000000001
 40
0.0
 40
0.0
 40
0.0
 40
0.0
 40
0.2
 40
0.2
 40
0.2
 40
0.3
 40
0.4
 40
0.4
 40
0.4
 40
0.5
 40
0.6
 40
0.6
 40
0.6
 40
0.8
 40
1.0
 40
1.0
 40
1.0
 40
1.0
 10
-288.0965
 20
-413.8859999999998
 30
0.0
 10
-288.0965
 20
-413.8859999999998
 30
0.0
 10
-310.693
 20
-386.9513
 30
0.0
 10
-310.693
 20
-386.9513
 30
0.0
 10
-310.693
 20
-386.9513
 30
0.0
 10
-310.693
 20
-386.9513
 30
0.0
 10
-258.8421
 20
-357.7303
 30
0.0
 10
-258.8421
 20
-357.7303
 30
0.0
 10
-258.8421
 20
-357.7303
 30
0.0
 10
-258.8421
 20
-357.7303
 30
0.0
 10
-211.7326
 20
-413.8859999999998
 30
0.0
 10
-211.7326
 20
-413.8859999999998
 30
0.0
 10
-211.7326
 20
-413.8859999999998
 30
0.0
 10
-211.7326
 20
-413.8859999999998
 30
0.0
 10
-288.0965
 20
-413.8859999999998
 30
0.0
 10
-288.0965
 20
-413.8859999999998
 30
0.0
  0
SPLINE
  5
7D
330
1F
100
AcDbEntity
  8
Layer 1
 62
   250
100
AcDbSpline
210
0.0
220
0.0
230
1.0
 70
    11
 71
     3
 72
    20
 73
    16
 74
     0
 42
0.0000000001
 43
0.0000000001
 40
0.0
 40
0.0
 40
0.0
 40
0.0
 40
0.2
 40
0.2
 40
0.2
 40
0.3
 40
0.4
 40
0.4
 40
0.4
 40
0.5
 40
0.6
 40
0.6
 40
0.6
 40
0.8
 40
1.0
 40
1.0
 40
1.0
 40
1.0
 10
-367.2074
 20
-319.585
 30
0.0
 10
-367.2074
 20
-319.585
 30
0.0
 10
-290.8442
 20
-319.585
 30
0.0
 10
-290.8442
 20
-319.585
 30
0.0
 10
-290.8442
 20
-319.585
 30
0.0
 10
-290.8442
 20
-319.585
 30
0.0
 10
-269.1712
 20
-345.4188
 30
0.0
 10
-269.1712
 20
-345.4188
 30
0.0
 10
-269.1712
 20
-345.4188
 30
0.0
 10
-269.1712
 20
-345.4188
 30
0.0
 10
-321.0222
 20
-374.6356
 30
0.0
 10
-321.0222
 20
-374.6356
 30
0.0
 10
-321.0222
 20
-374.6356
 30
0.0
 10
-321.0222
 20
-374.6356
 30
0.0
 10
-367.2074
 20
-319.585
 30
0.0
 10
-367.2074
 20
-319.585
 30
0.0
  0
SPLINE
  5
7E
330
1F
100
AcDbEntity
  8
Layer 1
 62
   250
100
AcDbSpline
210
0.0
220
0.0
230
1.0
 70
    11
 71
     3
 72
    20
 73
    16
 74
     0
 42
0.0000000001
 43
0.0000000001
 40
0.0
 40
0.0
 40
0.0
 40
0.0
 40
0.2
 40
0.2
 40
0.2
 40
0.3
 40
0.4
 40
0.4
 40
0.4
 40
0.5
 40
0.6
 40
0.6
 40
0.6
 40
0.8
 40
1.0
 40
1.0
 40
1.0
 40
1.0
 10
-442.2672
 20
-413.8859999999998
 30
0.0
 10
-442.2672
 20
-413.8859999999998
 30
0.0
 10
-439.2362
 20
-408.8587
 30
0.0
 10
-439.2362
 20
-408.8587
 30
0.0
 10
-439.2362
 20
-408.8587
 30
0.0
 10
-439.2362
 20
-408.8587
 30
0.0
 10
-361.7202
 20
-365.4598
 30
0.0
 10
-361.7202
 20
-365.4598
 30
0.0
 10
-361.7202
 20
-365.4598
 30
0.0
 10
-361.7202
 20
-365.4598
 30
0.0
 10
-321.0935
 20
-413.8859999999998
 30
0.0
 10
-321.0935
 20
-413.8859999999998
 30
0.0
 10
-321.0935
 20
-413.8859999999998
 30
0.0
 10
-321.0935
 20
-413.8859999999998
 30
0.0
 10
-442.2672
 20
-413.8859999999998
 30
0.0
 10
-442.2672
 20
-413.8859999999998
 30
0.0
  0
SPLINE
  5
7F
330
1F
100
AcDbEntity
  8
Layer 1
 62
   250
100
AcDbSpline
210
0.0
220
0.0
230
1.0
 70
    11
 71
     3
 72
    16
 73
    12
 74
     0
 42
0.0000000001
 43
0.0000000001
 40
0.0
 40
0.0
 40
0.0
 40
0.0
 40
0.25
 40
0.25
 40
0.25
 40
0.375
 40
0.5
 40
0.5
 40
0.5
 40
0.75
 40
1.0
 40
1.0
 40
1.0
 40
1.0
 10
-391.5852
 20
-329.8612
 30
0.0
 10
-391.5852
 20
-329.8612
 30
0.0
 10
-372.2097
 20
-352.9541
 30
0.0
 10
-372.2097
 20
-352.9541
 30
0.0
 10
-372.2097
 20
-352.9541
 30
0.0
 10
-372.2097
 20
-352.9541
 30
0.0
 10
-422.6651
 20
-381.3879
 30
0.0
 10
-422.6651
 20
-381.3879
 30
0.0
 10
-422.6651
 20
-381.3879
 30
0.0
 10
-422.6651
 20
-381.3879
 30
0.0
 10
-391.5852
 20
-329.8612
 30
0.0
 10
-391.5852
 20
-329.8612
 30
0.0
  0
SPLINE
  5
80
330
1F
100
AcDbEntity
  8
Layer 1
 62
   250
100
AcDbSpline
210
0.0
220
0.0
230
1.0
 70
    11
 71
     3
 72
    20
 73
    16
 74
     0
 42
0.0000000001
 43
0.0000000001
 40
0.0
 40
0.0
 40
0.0
 40
0.0
 40
0.2
 40
0.2
 40
0.2
 40
0.3
 40
0.4
 40
0.4
 40
0.4
 40
0.5
 40
0.6
 40
0.6
 40
0.6
 40
0.8
 40
1.0
 40
1.0
 40
1.0
 40
1.0
 10
167.1404
 20
-344.0748
 30
0.0
 10
167.1404
 20
-344.0748
 30
0.0
 10
115.2921
 20
-373.2952
 30
0.0
 10
115.2921
 20
-373.2952
 30
0.0
 10
115.2921
 20
-373.2952
 30
0.0
 10
115.2921
 20
-373.2952
 30
0.0
 10
70.2315
 20
-319.585
 30
0.0
 10
70.2315
 20
-319.585
 30
0.0
 10
70.2315
 20
-319.585
 30
0.0
 10
70.2315
 20
-319.585
 30
0.0
 10
146.5947
 20
-319.585
 30
0.0
 10
146.5947
 20
-319.585
 30
0.0
 10
146.5947
 20
-319.585
 30
0.0
 10
146.5947
 20
-319.585
 30
0.0
 10
167.1404
 20
-344.0748
 30
0.0
 10
167.1404
 20
-344.0748
 30
0.0
  0
SPLINE
  5
81
330
1F
100
AcDbEntity
  8
Layer 1
 62
   250
100
AcDbSpline
210
0.0
220
0.0
230
1.0
 70
     9
 71
     3
 72
    20
 73
    16
 74
     0
 42
0.0000000001
 43
0.0000000001
 40
0.0
 40
0.0
 40
0.0
 40
0.0
 40
0.2
 40
0.2
 40
0.2
 40
0.3
 40
0.4
 40
0.4
 40
0.4
 40
0.5
 40
0.6
 40
0.6
 40
0.6
 40
0.8
 40
1.0
 40
1.0
 40
1.0
 40
1.0
 10
4.205599999999998
 20
15.301
 30
0.0
 10
84.5898
 20
15.301
 30
0.0
 10
149.7553
 20
-49.8645
 30
0.0
 10
149.7553
 20
-130.2487
 30
0.0
 10
149.7553
 20
-130.2487
 30
0.0
 10
149.7553
 20
-210.6363
 30
0.0
 10
84.5898
 20
-275.8011
 30
0.0
 10
4.205599999999998
 20
-275.8011
 30
0.0
 10
4.205599999999998
 20
-275.8011
 30
0.0
 10
-76.17799999999999
 20
-275.8011
 30
0.0
 10
-141.3434
 20
-210.6363
 30
0.0
 10
-141.3434
 20
-130.2487
 30
0.0
 10
-141.3434
 20
-130.2487
 30
0.0
 10
-141.3434
 20
-49.8645
 30
0.0
 10
-76.17799999999999
 20
15.301
 30
0.0
 10
4.205599999999998
 20
15.301
 30
0.0
  0
SPLINE
  5
82
330
1F
100
AcDbEntity
  8
Layer 1
 62
   250
100
AcDbSpline
210
0.0
220
0.0
230
1.0
 70
     9
 71
     3
 72
    36
 73
    32
 74
     0
 42
0.0000000001
 43
0.0000000001
 40
0.0
 40
0.0
 40
0.0
 40
0.0
 40
0.1111111111111111
 40
0.1111111111111111
 40
0.1111111111111111
 40
0.1666666666666666
 40
0.2222222222222222
 40
0.2222222222222222
 40
0.2222222222222222
 40
0.2777777777777778
 40
0.3333333333333333
 40
0.3333333333333333
 40
0.3333333333333333
 40
0.3888888888888888
 40
0.4444444444444445
 40
0.4444444444444445
 40
0.4444444444444445
 40
0.5
 40
0.5555555555555556
 40
0.5555555555555556
 40
0.5555555555555556
 40
0.6111111111111112
 40
0.6666666666666666
 40
0.6666666666666666
 40
0.6666666666666666
 40
0.7222222222222224
 40
0.7777777777777778
 40
0.7777777777777778
 40
0.7777777777777778
 40
0.8888888888888889
 40
1.0
 40
1.0
 40
1.0
 40
1.0
 10
-98.731
 20
339.3981
 30
0.0
 10
-87.4355
 20
366.6709
 30
0.0
 10
-59.75249999999999
 20
381.2445
 30
0.0
 10
-14.4528
 20
383.8115
 30
0.0
 10
-14.4528
 20
383.8115
 30
0.0
 10
-14.4528
 20
383.8115
 30
0.0
 10
-14.389
 20
324.4103
 30
0.0
 10
-14.389
 20
324.4103
 30
0.0
 10
-14.389
 20
324.4103
 30
0.0
 10
-14.389
 20
324.4103
 30
0.0
 10
-62.6916
 20
250.4626
 30
0.0
 10
-62.6916
 20
250.4626
 30
0.0
 10
-62.6916
 20
250.4626
 30
0.0
 10
-62.6916
 20
250.4626
 30
0.0
 10
-15.3771
 20
250.4626
 30
0.0
 10
-15.3771
 20
250.4626
 30
0.0
 10
-15.3771
 20
250.4626
 30
0.0
 10
-15.3771
 20
250.4626
 30
0.0
 10
-15.3207
 20
193.407
 30
0.0
 10
-15.3207
 20
193.407
 30
0.0
 10
-15.3207
 20
193.407
 30
0.0
 10
-15.3207
 20
193.407
 30
0.0
 10
-51.0429
 20
142.2351
 30
0.0
 10
-51.0429
 20
142.2351
 30
0.0
 10
-51.0429
 20
142.2351
 30
0.0
 10
-56.8669
 20
152.7612
 30
0.0
 10
-62.6176
 20
163.7804
 30
0.0
 10
-68.0959
 20
175.1724
 30
0.0
 10
-68.0959
 20
175.1724
 30
0.0
 10
-102.2732
 20
246.259
 30
0.0
 10
-113.1531
 20
304.5804
 30
0.0
 10
-98.731
 20
339.3981
 30
0.0
  0
SPLINE
  5
83
330
1F
100
AcDbEntity
  8
Layer 1
 62
   250
100
AcDbSpline
210
0.0
220
0.0
230
1.0
 70
     9
 71
     3
 72
    32
 73
    28
 74
     0
 42
0.0000000001
 43
0.0000000001
 40
0.0
 40
0.0
 40
0.0
 40
0.0
 40
0.125
 40
0.125
 40
0.125
 40
0.1875
 40
0.25
 40
0.25
 40
0.25
 40
0.3125
 40
0.375
 40
0.375
 40
0.375
 40
0.4375
 40
0.5
 40
0.5
 40
0.5
 40
0.5625
 40
0.625
 40
0.625
 40
0.625
 40
0.6875
 40
0.75
 40
0.75
 40
0.75
 40
0.875
 40
1.0
 40
1.0
 40
1.0
 40
1.0
 10
98.04149999999999
 20
337.3269
 30
0.0
 10
116.4031
 20
287.5146
 30
0.0
 10
85.2852
 20
205.9901
 30
0.0
 10
51.47120000000001
 20
141.9234
 30
0.0
 10
51.47120000000001
 20
141.9234
 30
0.0
 10
51.47120000000001
 20
141.9234
 30
0.0
 10
19.3435
 20
187.9443
 30
0.0
 10
19.3435
 20
187.9443
 30
0.0
 10
19.3435
 20
187.9443
 30
0.0
 10
19.3435
 20
187.9443
 30
0.0
 10
19.2803
 20
250.4626
 30
0.0
 10
19.2803
 20
250.4626
 30
0.0
 10
19.2803
 20
250.4626
 30
0.0
 10
19.2803
 20
250.4626
 30
0.0
 10
64.23090000000001
 20
250.4626
 30
0.0
 10
64.23090000000001
 20
250.4626
 30
0.0
 10
64.23090000000001
 20
250.4626
 30
0.0
 10
64.23090000000001
 20
250.4626
 30
0.0
 10
15.2865
 20
325.3882
 30
0.0
 10
15.2865
 20
325.3882
 30
0.0
 10
15.2865
 20
325.3882
 30
0.0
 10
15.2865
 20
325.3882
 30
0.0
 10
15.2268
 20
383.8183
 30
0.0
 10
15.2268
 20
383.8183
 30
0.0
 10
15.2268
 20
383.8183
 30
0.0
 10
60.2976
 20
381.1902
 30
0.0
 10
87.49299999999998
 20
365.9443
 30
0.0
 10
98.04149999999999
 20
337.3269
 30
0.0
  0
SPLINE
  5
84
330
1F
100
AcDbEntity
  8
Layer 1
 62
   250
100
AcDbSpline
210
0.0
220
0.0
230
1.0
 70
     9
 71
     3
 72
   340
 73
   336
 74
     0
 42
0.0000000001
 43
0.0000000001
 40
0.0
 40
0.0
 40
0.0
 40
0.0
 40
0.0117647058823529
 40
0.0117647058823529
 40
0.0117647058823529
 40
0.0176470588235294
 40
0.0235294117647059
 40
0.0235294117647059
 40
0.0235294117647059
 40
0.0294117647058824
 40
0.0352941176470588
 40
0.0352941176470588
 40
0.0352941176470588
 40
0.0411764705882353
 40
0.0470588235294118
 40
0.0470588235294118
 40
0.0470588235294118
 40
0.0529411764705883
 40
0.0588235294117647
 40
0.0588235294117647
 40
0.0588235294117647
 40
0.0647058823529412
 40
0.0705882352941176
 40
0.0705882352941176
 40
0.0705882352941176
 40
0.0764705882352941
 40
0.0823529411764706
 40
0.0823529411764706
 40
0.0823529411764706
 40
0.0882352941176471
 40
0.0941176470588235
 40
0.0941176470588235
 40
0.0941176470588235
 40
0.1
 40
0.1058823529411765
 40
0.1058823529411765
 40
0.1058823529411765
 40
0.1117647058823529
 40
0.1176470588235294
 40
0.1176470588235294
 40
0.1176470588235294
 40
0.1235294117647059
 40
0.1294117647058824
 40
0.1294117647058824
 40
0.1294117647058824
 40
0.1352941176470588
 40
0.1411764705882353
 40
0.1411764705882353
 40
0.1411764705882353
 40
0.1470588235294117
 40
0.1529411764705882
 40
0.1529411764705882
 40
0.1529411764705882
 40
0.1588235294117647
 40
0.1647058823529412
 40
0.1647058823529412
 40
0.1647058823529412
 40
0.1705882352941177
 40
0.1764705882352941
 40
0.1764705882352941
 40
0.1764705882352941
 40
0.1823529411764706
 40
0.1882352941176471
 40
0.1882352941176471
 40
0.1882352941176471
 40
0.1941176470588235
 40
0.2
 40
0.2
 40
0.2
 40
0.2058823529411764
 40
0.2117647058823529
 40
0.2117647058823529
 40
0.2117647058823529
 40
0.2176470588235294
 40
0.2235294117647059
 40
0.2235294117647059
 40
0.2235294117647059
 40
0.2294117647058823
 40
0.2352941176470588
 40
0.2352941176470588
 40
0.2352941176470588
 40
0.2411764705882353
 40
0.2470588235294118
 40
0.2470588235294118
 40
0.2470588235294118
 40
0.2529411764705882
 40
0.2588235294117647
 40
0.2588235294117647
 40
0.2588235294117647
 40
0.2647058823529411
 40
0.2705882352941176
 40
0.2705882352941176
 40
0.2705882352941176
 40
0.2764705882352941
 40
0.2823529411764706
 40
0.2823529411764706
 40
0.2823529411764706
 40
0.288235294117647
 40
0.2941176470588235
 40
0.2941176470588235
 40
0.2941176470588235
 40
0.3
 40
0.3058823529411765
 40
0.3058823529411765
 40
0.3058823529411765
 40
0.3117647058823529
 40
0.3176470588235294
 40
0.3176470588235294
 40
0.3176470588235294
 40
0.3235294117647058
 40
0.3294117647058823
 40
0.3294117647058823
 40
0.3294117647058823
 40
0.3352941176470588
 40
0.3411764705882353
 40
0.3411764705882353
 40
0.3411764705882353
 40
0.3470588235294118
 40
0.3529411764705883
 40
0.3529411764705883
 40
0.3529411764705883
 40
0.3588235294117648
 40
0.3647058823529412
 40
0.3647058823529412
 40
0.3647058823529412
 40
0.3705882352941177
 40
0.3764705882352941
 40
0.3764705882352941
 40
0.3764705882352941
 40
0.3823529411764706
 40
0.3882352941176471
 40
0.3882352941176471
 40
0.3882352941176471
 40
0.3941176470588235
 40
0.4
 40
0.4
 40
0.4
 40
0.4058823529411766
 40
0.4117647058823529
 40
0.4117647058823529
 40
0.4117647058823529
 40
0.4176470588235295
 40
0.4235294117647059
 40
0.4235294117647059
 40
0.4235294117647059
 40
0.4294117647058825
 40
0.4352941176470588
 40
0.4352941176470588
 40
0.4352941176470588
 40
0.4411764705882355
 40
0.4470588235294118
 40
0.4470588235294118
 40
0.4470588235294118
 40
0.4529411764705884
 40
0.4588235294117647
 40
0.4588235294117647
 40
0.4588235294117647
 40
0.4647058823529413
 40
0.4705882352941176
 40
0.4705882352941176
 40
0.4705882352941176
 40
0.4764705882352942
 40
0.4823529411764706
 40
0.4823529411764706
 40
0.4823529411764706
 40
0.4882352941176471
 40
0.4941176470588238
 40
0.4941176470588238
 40
0.4941176470588238
 40
0.5
 40
0.5058823529411765
 40
0.5058823529411765
 40
0.5058823529411765
 40
0.5117647058823529
 40
0.5176470588235295
 40
0.5176470588235295
 40
0.5176470588235295
 40
0.5235294117647059
 40
0.5294117647058824
 40
0.5294117647058824
 40
0.5294117647058824
 40
0.5352941176470588
 40
0.5411764705882353
 40
0.5411764705882353
 40
0.5411764705882353
 40
0.5470588235294118
 40
0.5529411764705883
 40
0.5529411764705883
 40
0.5529411764705883
 40
0.5588235294117647
 40
0.5647058823529412
 40
0.5647058823529412
 40
0.5647058823529412
 40
0.5705882352941176
 40
0.5764705882352941
 40
0.5764705882352941
 40
0.5764705882352941
 40
0.5823529411764705
 40
0.5882352941176471
 40
0.5882352941176471
 40
0.5882352941176471
 40
0.5941176470588237
 40
0.6
 40
0.6
 40
0.6
 40
0.6058823529411767
 40
0.611764705882353
 40
0.611764705882353
 40
0.611764705882353
 40
0.6176470588235296
 40
0.6235294117647059
 40
0.6235294117647059
 40
0.6235294117647059
 40
0.6294117647058825
 40
0.6352941176470588
 40
0.6352941176470588
 40
0.6352941176470588
 40
0.6411764705882354
 40
0.6470588235294118
 40
0.6470588235294118
 40
0.6470588235294118
 40
0.6529411764705883
 40
0.6588235294117647
 40
0.6588235294117647
 40
0.6588235294117647
 40
0.6647058823529412
 40
0.6705882352941176
 40
0.6705882352941176
 40
0.6705882352941176
 40
0.6764705882352942
 40
0.6823529411764708
 40
0.6823529411764708
 40
0.6823529411764708
 40
0.6882352941176471
 40
0.6941176470588237
 40
0.6941176470588237
 40
0.6941176470588237
 40
0.7
 40
0.7058823529411767
 40
0.7058823529411767
 40
0.7058823529411767
 40
0.7117647058823531
 40
0.7176470588235296
 40
0.7176470588235296
 40
0.7176470588235296
 40
0.7235294117647059
 40
0.7294117647058825
 40
0.7294117647058825
 40
0.7294117647058825
 40
0.7352941176470589
 40
0.7411764705882355
 40
0.7411764705882355
 40
0.7411764705882355
 40
0.7470588235294118
 40
0.7529411764705884
 40
0.7529411764705884
 40
0.7529411764705884
 40
0.7588235294117647
 40
0.7647058823529413
 40
0.7647058823529413
 40
0.7647058823529413
 40
0.7705882352941176
 40
0.7764705882352942
 40
0.7764705882352942
 40
0.7764705882352942
 40
0.7823529411764705
 40
0.788235294117647
 40
0.788235294117647
 40
0.788235294117647
 40
0.7941176470588235
 40
0.8
 40
0.8
 40
0.8
 40
0.8058823529411764
 40
0.8117647058823528
 40
0.8117647058823528
 40
0.8117647058823528
 40
0.8176470588235293
 40
0.8235294117647057
 40
0.8235294117647057
 40
0.8235294117647057
 40
0.8294117647058822
 40
0.8352941176470588
 40
0.8352941176470588
 40
0.8352941176470588
 40
0.8411764705882353
 40
0.8470588235294117
 40
0.8470588235294117
 40
0.8470588235294117
 40
0.8529411764705882
 40
0.8588235294117646
 40
0.8588235294117646
 40
0.8588235294117646
 40
0.8647058823529413
 40
0.8705882352941177
 40
0.8705882352941177
 40
0.8705882352941177
 40
0.8764705882352942
 40
0.8823529411764706
 40
0.8823529411764706
 40
0.8823529411764706
 40
0.8882352941176471
 40
0.8941176470588235
 40
0.8941176470588235
 40
0.8941176470588235
 40
0.9
 40
0.9058823529411764
 40
0.9058823529411764
 40
0.9058823529411764
 40
0.9117647058823528
 40
0.9176470588235291
 40
0.9176470588235291
 40
0.9176470588235291
 40
0.9235294117647059
 40
0.9294117647058824
 40
0.9294117647058824
 40
0.9294117647058824
 40
0.9352941176470588
 40
0.9411764705882351
 40
0.9411764705882351
 40
0.9411764705882351
 40
0.9470588235294115
 40
0.9529411764705882
 40
0.9529411764705882
 40
0.9529411764705882
 40
0.9588235294117646
 40
0.9647058823529411
 40
0.9647058823529411
 40
0.9647058823529411
 40
0.9705882352941175
 40
0.976470588235294
 40
0.976470588235294
 40
0.976470588235294
 40
0.9882352941176467
 40
1.0
 40
1.0
 40
1.0
 40
1.0
 10
-86.75769999999998
 20
-233.2987
 30
0.0
 10
-86.75769999999998
 20
-233.2987
 30
0.0
 10
-83.12789999999997
 20
-234.2338
 30
0.0
 10
-83.12789999999997
 20
-234.2338
 30
0.0
 10
-83.12789999999997
 20
-234.2338
 30
0.0
 10
-78.2703
 20
-235.4827
 30
0.0
 10
-74.1216
 20
-238.6398
 30
0.0
 10
-71.62390000000002
 20
-242.9929
 30
0.0
 10
-71.62390000000002
 20
-242.9929
 30
0.0
 10
-71.62390000000002
 20
-242.9929
 30
0.0
 10
-69.7611
 20
-246.2458
 30
0.0
 10
-69.7611
 20
-246.2458
 30
0.0
 10
-69.7611
 20
-246.2458
 30
0.0
 10
-66.28610000000001
 20
-252.3027
 30
0.0
 10
-59.7137
 20
-255.9047
 30
0.0
 10
-52.7434
 20
-255.5733
 30
0.0
 10
-52.7434
 20
-255.5733
 30
0.0
 10
-52.7434
 20
-255.5733
 30
0.0
 10
-48.9968
 20
-255.3933
 30
0.0
 10
-48.9968
 20
-255.3933
 30
0.0
 10
-48.9968
 20
-255.3933
 30
0.0
 10
-43.98369999999999
 20
-255.1536
 30
0.0
 10
-39.0907
 20
-256.9525
 30
0.0
 10
-35.4215
 20
-260.3746
 30
0.0
 10
-35.4215
 20
-260.3746
 30
0.0
 10
-35.4215
 20
-260.3746
 30
0.0
 10
-32.6806
 20
-262.9355
 30
0.0
 10
-32.6806
 20
-262.9355
 30
0.0
 10
-32.6806
 20
-262.9355
 30
0.0
 10
-27.5792
 20
-267.698
 30
0.0
 10
-20.2347
 20
-269.2043
 30
0.0
 10
-13.6691
 20
-266.8301
 30
0.0
 10
-13.6691
 20
-266.8301
 30
0.0
 10
-13.6691
 20
-266.8301
 30
0.0
 10
-10.1452
 20
-265.5534
 30
0.0
 10
-10.1452
 20
-265.5534
 30
0.0
 10
-10.1452
 20
-265.5534
 30
0.0
 10
-5.4248
 20
-263.8495
 30
0.0
 10
-0.2181
 20
-264.1246
 30
0.0
 10
4.2979
 20
-266.3154
 30
0.0
 10
4.2979
 20
-266.3154
 30
0.0
 10
4.2979
 20
-266.3154
 30
0.0
 10
7.670399999999998
 20
-267.952
 30
0.0
 10
7.670399999999998
 20
-267.952
 30
0.0
 10
7.670399999999998
 20
-267.952
 30
0.0
 10
13.9494
 20
-270.9998
 30
0.0
 10
21.4107
 20
-270.2732
 30
0.0
 10
26.9848
 20
-266.0682
 30
0.0
 10
26.9848
 20
-266.0682
 30
0.0
 10
26.9848
 20
-266.0682
 30
0.0
 10
29.9762
 20
-263.8142
 30
0.0
 10
29.9762
 20
-263.8142
 30
0.0
 10
29.9762
 20
-263.8142
 30
0.0
 10
33.9836
 20
-260.7908
 30
0.0
 10
39.043
 20
-259.5168
 30
0.0
 10
43.9991
 20
-260.2829
 30
0.0
 10
43.9991
 20
-260.2829
 30
0.0
 10
43.9991
 20
-260.2829
 30
0.0
 10
47.707
 20
-260.8506
 30
0.0
 10
47.707
 20
-260.8506
 30
0.0
 10
47.707
 20
-260.8506
 30
0.0
 10
54.6073
 20
-261.9127
 30
0.0
 10
61.522
 20
-259.0197
 30
0.0
 10
65.60680000000001
 20
-253.3614
 30
0.0
 10
65.60680000000001
 20
-253.3614
 30
0.0
 10
65.60680000000001
 20
-253.3614
 30
0.0
 10
67.8017
 20
-250.3204
 30
0.0
 10
67.8017
 20
-250.3204
 30
0.0
 10
67.8017
 20
-250.3204
 30
0.0
 10
70.7395
 20
-246.2526
 30
0.0
 10
75.1991
 20
-243.547
 30
0.0
 10
80.1627
 20
-242.8129
 30
0.0
 10
80.1627
 20
-242.8129
 30
0.0
 10
80.1627
 20
-242.8129
 30
0.0
 10
83.87059999999998
 20
-242.2662
 30
0.0
 10
83.87059999999998
 20
-242.2662
 30
0.0
 10
83.87059999999998
 20
-242.2662
 30
0.0
 10
90.7778
 20
-241.2469
 30
0.0
 10
96.53120000000001
 20
-236.4456
 30
0.0
 10
98.7681
 20
-229.8305
 30
0.0
 10
98.7681
 20
-229.8305
 30
0.0
 10
98.7681
 20
-229.8305
 30
0.0
 10
99.97150000000001
 20
-226.2781
 30
0.0
 10
99.97150000000001
 20
-226.2781
 30
0.0
 10
99.97150000000001
 20
-226.2781
 30
0.0
 10
101.5796
 20
-221.5264
 30
0.0
 10
105.0403
 20
-217.6243
 30
0.0
 10
109.5666
 20
-215.462
 30
0.0
 10
109.5666
 20
-215.462
 30
0.0
 10
109.5666
 20
-215.462
 30
0.0
 10
112.9499
 20
-213.8464
 30
0.0
 10
112.9499
 20
-213.8464
 30
0.0
 10
112.9499
 20
-213.8464
 30
0.0
 10
119.2506
 20
-210.8373
 30
0.0
 10
123.332
 20
-204.5508
 30
0.0
 10
123.5228
 20
-197.573
 30
0.0
 10
123.5228
 20
-197.573
 30
0.0
 10
123.5228
 20
-197.573
 30
0.0
 10
123.6247
 20
-193.8264
 30
0.0
 10
123.6247
 20
-193.8264
 30
0.0
 10
123.6247
 20
-193.8264
 30
0.0
 10
123.7626
 20
-188.8099
 30
0.0
 10
125.918
 20
-184.0616
 30
0.0
 10
129.6083
 20
-180.6606
 30
0.0
 10
129.6083
 20
-180.6606
 30
0.0
 10
129.6083
 20
-180.6606
 30
0.0
 10
132.3634
 20
-178.1167
 30
0.0
 10
132.3634
 20
-178.1167
 30
0.0
 10
132.3634
 20
-178.1167
 30
0.0
 10
137.4927
 20
-173.3861
 30
0.0
 10
139.5422
 20
-166.1753
 30
0.0
 10
137.6693
 20
-159.4515
 30
0.0
 10
137.6693
 20
-159.4515
 30
0.0
 10
137.6693
 20
-159.4515
 30
0.0
 10
136.6601
 20
-155.8394
 30
0.0
 10
136.6601
 20
-155.8394
 30
0.0
 10
136.6601
 20
-155.8394
 30
0.0
 10
135.3128
 20
-151.0062
 30
0.0
 10
135.9756
 20
-145.8341
 30
0.0
 10
138.4944
 20
-141.4953
 30
0.0
 10
138.4944
 20
-141.4953
 30
0.0
 10
138.4944
 20
-141.4953
 30
0.0
 10
140.3816
 20
-138.2567
 30
0.0
 10
140.3816
 20
-138.2567
 30
0.0
 10
140.3816
 20
-138.2567
 30
0.0
 10
143.8885
 20
-132.2208
 30
0.0
 10
143.7228
 20
-124.7275
 30
0.0
 10
139.9477
 20
-118.854
 30
0.0
 10
139.9477
 20
-118.854
 30
0.0
 10
139.9477
 20
-118.854
 30
0.0
 10
137.9192
 20
-115.7002
 30
0.0
 10
137.9192
 20
-115.7002
 30
0.0
 10
137.9192
 20
-115.7002
 30
0.0
 10
135.2068
 20
-111.4809
 30
0.0
 10
134.3138
 20
-106.3408
 30
0.0
 10
135.4466
 20
-101.4546
 30
0.0
 10
135.4466
 20
-101.4546
 30
0.0
 10
135.4466
 20
-101.4546
 30
0.0
 10
136.2934
 20
-97.80039999999999
 30
0.0
 10
136.2934
 20
-97.80039999999999
 30
0.0
 10
136.2934
 20
-97.80039999999999
 30
0.0
 10
137.8669
 20
-90.99850000000001
 30
0.0
 10
135.4995
 20
-83.8896
 30
0.0
 10
130.1618
 20
-79.38849999999998
 30
0.0
 10
130.1618
 20
-79.38849999999998
 30
0.0
 10
130.1618
 20
-79.38849999999998
 30
0.0
 10
127.2939
 20
-76.97230000000002
 30
0.0
 10
127.2939
 20
-76.97230000000002
 30
0.0
 10
127.2939
 20
-76.97230000000002
 30
0.0
 10
123.459
 20
-73.74039999999998
 30
0.0
 10
121.0917
 20
-69.09130000000001
 30
0.0
 10
120.7324
 20
-64.0883
 30
0.0
 10
120.7324
 20
-64.0883
 30
0.0
 10
120.7324
 20
-64.0883
 30
0.0
 10
120.4642
 20
-60.34909999999999
 30
0.0
 10
120.4642
 20
-60.34909999999999
 30
0.0
 10
120.4642
 20
-60.34909999999999
 30
0.0
 10
119.963
 20
-53.3856
 30
0.0
 10
115.6025
 20
-47.2893
 30
0.0
 10
109.1747
 20
-44.56199999999999
 30
0.0
 10
109.1747
 20
-44.56199999999999
 30
0.0
 10
109.1747
 20
-44.56199999999999
 30
0.0
 10
105.7249
 20
-43.09849999999999
 30
0.0
 10
105.7249
 20
-43.09849999999999
 30
0.0
 10
105.7249
 20
-43.09849999999999
 30
0.0
 10
101.107
 20
-41.13999999999999
 30
0.0
 10
97.4731
 20
-37.3975
 30
0.0
 10
95.65649999999999
 20
-32.7191
 30
0.0
 10
95.65649999999999
 20
-32.7191
 30
0.0
 10
95.65649999999999
 20
-32.7191
 30
0.0
 10
94.29489999999999
 20
-29.2238
 30
0.0
 10
94.29489999999999
 20
-29.2238
 30
0.0
 10
94.29489999999999
 20
-29.2238
 30
0.0
 10
91.7652
 20
-22.7179
 30
0.0
 10
85.80339999999997
 20
-18.1781
 30
0.0
 10
78.8575
 20
-17.4691
 30
0.0
 10
78.8575
 20
-17.4691
 30
0.0
 10
78.8575
 20
-17.4691
 30
0.0
 10
75.1285
 20
-17.0841
 30
0.0
 10
75.1285
 20
-17.0841
 30
0.0
 10
75.1285
 20
-17.0841
 30
0.0
 10
70.13639999999999
 20
-16.5761
 30
0.0
 10
65.5647
 20
-14.0682
 30
0.0
 10
62.4462
 20
-10.1348
 30
0.0
 10
62.4462
 20
-10.1348
 30
0.0
 10
62.4462
 20
-10.1348
 30
0.0
 10
60.1176
 20
-7.198999999999998
 30
0.0
 10
60.1176
 20
-7.198999999999998
 30
0.0
 10
60.1176
 20
-7.198999999999998
 30
0.0
 10
55.7822
 20
-1.724099999999999
 30
0.0
 10
48.7474
 20
0.8544999999999999
 30
0.0
 10
41.8999
 20
-0.5105
 30
0.0
 10
41.8999
 20
-0.5105
 30
0.0
 10
41.8999
 20
-0.5105
 30
0.0
 10
38.224
 20
-1.248099999999998
 30
0.0
 10
38.224
 20
-1.248099999999998
 30
0.0
 10
38.224
 20
-1.248099999999998
 30
0.0
 10
33.3032
 20
-2.232099999999999
 30
0.0
 10
28.1949
 20
-1.184199999999999
 30
0.0
 10
24.0565
 20
1.6551
 30
0.0
 10
24.0565
 20
1.6551
 30
0.0
 10
24.0565
 20
1.6551
 30
0.0
 10
20.9666
 20
3.7753
 30
0.0
 10
20.9666
 20
3.7753
 30
0.0
 10
20.9666
 20
3.7753
 30
0.0
 10
15.2091
 20
7.7263
 30
0.0
 10
7.7267
 20
8.121499999999999
 30
0.0
 10
1.5883
 20
4.7953
 30
0.0
 10
1.5883
 20
4.7953
 30
0.0
 10
1.5883
 20
4.7953
 30
0.0
 10
-1.710099999999999
 20
3.0099
 30
0.0
 10
-1.710099999999999
 20
3.0099
 30
0.0
 10
-1.710099999999999
 20
3.0099
 30
0.0
 10
-6.120199999999998
 20
0.6181
 30
0.0
 10
-11.3126
 20
0.1135
 30
0.0
 10
-16.1037
 20
1.6062
 30
0.0
 10
-16.1037
 20
1.6062
 30
0.0
 10
-16.1037
 20
1.6062
 30
0.0
 10
-19.6806
 20
2.723999999999998
 30
0.0
 10
-19.6806
 20
2.723999999999998
 30
0.0
 10
-19.6806
 20
2.723999999999998
 30
0.0
 10
-26.3446
 20
4.8021
 30
0.0
 10
-33.6117
 20
2.971199999999998
 30
0.0
 10
-38.5012
 20
-2.0141
 30
0.0
 10
-38.5012
 20
-2.0141
 30
0.0
 10
-38.5012
 20
-2.0141
 30
0.0
 10
-41.1226
 20
-4.694499999999998
 30
0.0
 10
-41.1226
 20
-4.694499999999998
 30
0.0
 10
-41.1226
 20
-4.694499999999998
 30
0.0
 10
-44.6363
 20
-8.2788
 30
0.0
 10
-49.445
 20
-10.2897
 30
0.0
 10
-54.465
 20
-10.2761
 30
0.0
 10
-54.465
 20
-10.2761
 30
0.0
 10
-54.465
 20
-10.2761
 30
0.0
 10
-58.21159999999999
 20
-10.2652
 30
0.0
 10
-58.21159999999999
 20
-10.2652
 30
0.0
 10
-58.21159999999999
 20
-10.2652
 30
0.0
 10
-65.19280000000001
 20
-10.2442
 30
0.0
 10
-71.5994
 20
-14.1354
 30
0.0
 10
-74.7987
 20
-20.3404
 30
0.0
 10
-74.7987
 20
-20.3404
 30
0.0
 10
-74.7987
 20
-20.3404
 30
0.0
 10
-76.5168
 20
-23.6707
 30
0.0
 10
-76.5168
 20
-23.6707
 30
0.0
 10
-76.5168
 20
-23.6707
 30
0.0
 10
-78.81359999999998
 20
-28.1297
 30
0.0
 10
-82.8176
 20
-31.4743
 30
0.0
 10
-87.61879999999997
 20
-32.9385
 30
0.0
 10
-87.61879999999997
 20
-32.9385
 30
0.0
 10
-87.61879999999997
 20
-32.9385
 30
0.0
 10
-91.20310000000001
 20
-34.0318
 30
0.0
 10
-91.20310000000001
 20
-34.0318
 30
0.0
 10
-91.20310000000001
 20
-34.0318
 30
0.0
 10
-97.8808
 20
-36.0671
 30
0.0
 10
-102.8552
 20
-41.6765
 30
0.0
 10
-104.083
 20
-48.54829999999999
 30
0.0
 10
-104.083
 20
-48.54829999999999
 30
0.0
 10
-104.083
 20
-48.54829999999999
 30
0.0
 10
-104.7424
 20
-52.2386
 30
0.0
 10
-104.7424
 20
-52.2386
 30
0.0
 10
-104.7424
 20
-52.2386
 30
0.0
 10
-105.6246
 20
-57.1777
 30
0.0
 10
-108.4646
 20
-61.5518
 30
0.0
 10
-112.62
 20
-64.36399999999999
 30
0.0
 10
-112.62
 20
-64.36399999999999
 30
0.0
 10
-112.62
 20
-64.36399999999999
 30
0.0
 10
-115.7249
 20
-66.4665
 30
0.0
 10
-115.7249
 20
-66.4665
 30
0.0
 10
-115.7249
 20
-66.4665
 30
0.0
 10
-121.5034
 20
-70.38219999999999
 30
0.0
 10
-124.6042
 20
-77.20449999999998
 30
0.0
 10
-123.7506
 20
-84.13339999999998
 30
0.0
 10
-123.7506
 20
-84.13339999999998
 30
0.0
 10
-123.7506
 20
-84.13339999999998
 30
0.0
 10
-123.2949
 20
-87.85490000000001
 30
0.0
 10
-123.2949
 20
-87.85490000000001
 30
0.0
 10
-123.2949
 20
-87.85490000000001
 30
0.0
 10
-122.681
 20
-92.8368
 30
0.0
 10
-124.1064
 20
-97.8527
 30
0.0
 10
-127.2466
 20
-101.765
 30
0.0
 10
-127.2466
 20
-101.765
 30
0.0
 10
-127.2466
 20
-101.765
 30
0.0
 10
-129.5922
 20
-104.6899
 30
0.0
 10
-129.5922
 20
-104.6899
 30
0.0
 10
-129.5922
 20
-104.6899
 30
0.0
 10
-133.9629
 20
-110.137
 30
0.0
 10
-134.9123
 20
-117.5698
 30
0.0
 10
-132.058
 20
-123.9371
 30
0.0
 10
-132.058
 20
-123.9371
 30
0.0
 10
-132.058
 20
-123.9371
 30
0.0
 10
-130.524
 20
-127.3591
 30
0.0
 10
-130.524
 20
-127.3591
 30
0.0
 10
-130.524
 20
-127.3591
 30
0.0
 10
-128.4669
 20
-131.9383
 30
0.0
 10
-128.3542
 20
-137.1524
 30
0.0
 10
-130.1993
 20
-141.8159
 30
0.0
 10
-130.1993
 20
-141.8159
 30
0.0
 10
-130.1993
 20
-141.8159
 30
0.0
 10
-131.582
 20
-145.3017
 30
0.0
 10
-131.582
 20
-145.3017
 30
0.0
 10
-131.582
 20
-145.3017
 30
0.0
 10
-134.1504
 20
-151.7926
 30
0.0
 10
-132.8696
 20
-159.1765
 30
0.0
 10
-128.2625
 20
-164.4219
 30
0.0
 10
-128.2625
 20
-164.4219
 30
0.0
 10
-128.2625
 20
-164.4219
 30
0.0
 10
-125.7858
 20
-167.2374
 30
0.0
 10
-125.7858
 20
-167.2374
 30
0.0
 10
-125.7858
 20
-167.2374
 30
0.0
 10
-122.4732
 20
-171.0085
 30
0.0
 10
-120.8257
 20
-175.9578
 30
0.0
 10
-121.2175
 20
-180.9567
 30
0.0
 10
-121.2175
 20
-180.9567
 30
0.0
 10
-121.2175
 20
-180.9567
 30
0.0
 10
-121.5102
 20
-184.6965
 30
0.0
 10
-121.5102
 20
-184.6965
 30
0.0
 10
-121.5102
 20
-184.6965
 30
0.0
 10
-122.0535
 20
-191.6567
 30
0.0
 10
-118.6525
 20
-198.335
 30
0.0
 10
-112.7015
 20
-201.9892
 30
0.0
 10
-112.7015
 20
-201.9892
 30
0.0
 10
-112.7015
 20
-201.9892
 30
0.0
 10
-109.505
 20
-203.9512
 30
0.0
 10
-109.505
 20
-203.9512
 30
0.0
 10
-109.505
 20
-203.9512
 30
0.0
 10
-105.2294
 20
-206.5759
 30
0.0
 10
-102.1992
 20
-210.8196
 30
0.0
 10
-101.095
 20
-215.7126
 30
0.0
 10
-101.095
 20
-215.7126
 30
0.0
 10
-101.095
 20
-215.7126
 30
0.0
 10
-100.2733
 20
-219.3709
 30
0.0
 10
-100.2733
 20
-219.3709
 30
0.0
 10
-100.2733
 20
-219.3709
 30
0.0
 10
-98.7419
 20
-226.183
 30
0.0
 10
-93.5209
 20
-231.5629
 30
0.0
 10
-86.75769999999998
 20
-233.2987
 30
0.0
  0
SPLINE
  5
85
330
1F
100
AcDbEntity
  8
Layer 1
 62
     7
100
AcDbSpline
210
0.0
220
0.0
230
1.0
 70
     9
 71
     3
 72
   188
 73
   184
 74
     0
 42
0.0000000001
 43
0.0000000001
 40
0.0
 40
0.0
 40
0.0
 40
0.0
 40
0.0212765957446809
 40
0.0212765957446809
 40
0.0212765957446809
 40
0.0319148936170213
 40
0.0425531914893617
 40
0.0425531914893617
 40
0.0425531914893617
 40
0.0531914893617021
 40
0.0638297872340425
 40
0.0638297872340425
 40
0.0638297872340425
 40
0.074468085106383
 40
0.0851063829787234
 40
0.0851063829787234
 40
0.0851063829787234
 40
0.0957446808510639
 40
0.1063829787234043
 40
0.1063829787234043
 40
0.1063829787234043
 40
0.1170212765957447
 40
0.1276595744680851
 40
0.1276595744680851
 40
0.1276595744680851
 40
0.1382978723404255
 40
0.148936170212766
 40
0.148936170212766
 40
0.148936170212766
 40
0.1595744680851064
 40
0.1702127659574468
 40
0.1702127659574468
 40
0.1702127659574468
 40
0.1808510638297872
 40
0.1914893617021277
 40
0.1914893617021277
 40
0.1914893617021277
 40
0.2021276595744681
 40
0.2127659574468085
 40
0.2127659574468085
 40
0.2127659574468085
 40
0.223404255319149
 40
0.2340425531914894
 40
0.2340425531914894
 40
0.2340425531914894
 40
0.2446808510638298
 40
0.2553191489361702
 40
0.2553191489361702
 40
0.2553191489361702
 40
0.2659574468085106
 40
0.2765957446808511
 40
0.2765957446808511
 40
0.2765957446808511
 40
0.2872340425531915
 40
0.2978723404255319
 40
0.2978723404255319
 40
0.2978723404255319
 40
0.3085106382978723
 40
0.3191489361702128
 40
0.3191489361702128
 40
0.3191489361702128
 40
0.3297872340425532
 40
0.3404255319148936
 40
0.3404255319148936
 40
0.3404255319148936
 40
0.351063829787234
 40
0.3617021276595745
 40
0.3617021276595745
 40
0.3617021276595745
 40
0.3723404255319149
 40
0.3829787234042553
 40
0.3829787234042553
 40
0.3829787234042553
 40
0.3936170212765957
 40
0.4042553191489361
 40
0.4042553191489361
 40
0.4042553191489361
 40
0.4148936170212766
 40
0.4255319148936171
 40
0.4255319148936171
 40
0.4255319148936171
 40
0.4361702127659576
 40
0.446808510638298
 40
0.446808510638298
 40
0.446808510638298
 40
0.4574468085106383
 40
0.4680851063829787
 40
0.4680851063829787
 40
0.4680851063829787
 40
0.4787234042553191
 40
0.4893617021276598
 40
0.4893617021276598
 40
0.4893617021276598
 40
0.5
 40
0.5106382978723404
 40
0.5106382978723404
 40
0.5106382978723404
 40
0.5212765957446808
 40
0.5319148936170213
 40
0.5319148936170213
 40
0.5319148936170213
 40
0.5425531914893618
 40
0.5531914893617022
 40
0.5531914893617022
 40
0.5531914893617022
 40
0.5638297872340427
 40
0.5744680851063829
 40
0.5744680851063829
 40
0.5744680851063829
 40
0.5851063829787233
 40
0.5957446808510638
 40
0.5957446808510638
 40
0.5957446808510638
 40
0.6063829787234045
 40
0.6170212765957447
 40
0.6170212765957447
 40
0.6170212765957447
 40
0.6276595744680851
 40
0.6382978723404256
 40
0.6382978723404256
 40
0.6382978723404256
 40
0.6489361702127661
 40
0.6595744680851065
 40
0.6595744680851065
 40
0.6595744680851065
 40
0.670212765957447
 40
0.6808510638297874
 40
0.6808510638297874
 40
0.6808510638297874
 40
0.6914893617021276
 40
0.7021276595744681
 40
0.7021276595744681
 40
0.7021276595744681
 40
0.7127659574468086
 40
0.7234042553191493
 40
0.7234042553191493
 40
0.7234042553191493
 40
0.7340425531914894
 40
0.7446808510638298
 40
0.7446808510638298
 40
0.7446808510638298
 40
0.7553191489361703
 40
0.7659574468085106
 40
0.7659574468085106
 40
0.7659574468085106
 40
0.7765957446808513
 40
0.7872340425531915
 40
0.7872340425531915
 40
0.7872340425531915
 40
0.7978723404255321
 40
0.8085106382978722
 40
0.8085106382978722
 40
0.8085106382978722
 40
0.8191489361702124
 40
0.8297872340425531
 40
0.8297872340425531
 40
0.8297872340425531
 40
0.8404255319148937
 40
0.851063829787234
 40
0.851063829787234
 40
0.851063829787234
 40
0.8617021276595744
 40
0.8723404255319149
 40
0.8723404255319149
 40
0.8723404255319149
 40
0.8829787234042553
 40
0.8936170212765956
 40
0.8936170212765956
 40
0.8936170212765956
 40
0.9042553191489359
 40
0.9148936170212763
 40
0.9148936170212763
 40
0.9148936170212763
 40
0.925531914893617
 40
0.9361702127659576
 40
0.9361702127659576
 40
0.9361702127659576
 40
0.9468085106382979
 40
0.9574468085106383
 40
0.9574468085106383
 40
0.9574468085106383
 40
0.9787234042553192
 40
1.0
 40
1.0
 40
1.0
 40
1.0
 10
80.60349999999997
 20
-132.1603
 30
0.0
 10
77.9115
 20
-126.4036
 30
0.0
 10
74.2817
 20
-121.5385
 30
0.0
 10
69.7099
 20
-117.5732
 30
0.0
 10
69.7099
 20
-117.5732
 30
0.0
 10
60.9576
 20
-109.9353
 30
0.0
 10
50.47299999999999
 20
-106.1221
 30
0.0
 10
38.2525
 20
-106.1221
 30
0.0
 10
38.2525
 20
-106.1221
 30
0.0
 10
31.2326
 20
-106.2063
 30
0.0
 10
24.688
 20
-107.572
 30
0.0
 10
18.6277
 20
-110.2144
 30
0.0
 10
18.6277
 20
-110.2144
 30
0.0
 10
13.3572
 20
-112.4928
 30
0.0
 10
8.8731
 20
-115.6221
 30
0.0
 10
5.028
 20
-119.4428
 30
0.0
 10
5.028
 20
-119.4428
 30
0.0
 10
3.0735
 20
-116.0384
 30
0.0
 10
0.7944
 20
-112.9872
 30
0.0
 10
-1.8833
 20
-110.3625
 30
0.0
 10
-1.8833
 20
-110.3625
 30
0.0
 10
-9.6583
 20
-102.7286
 30
0.0
 10
-18.9614
 20
-98.9114
 30
0.0
 10
-29.8019
 20
-98.9114
 30
0.0
 10
-29.8019
 20
-98.9114
 30
0.0
 10
-36.032
 20
-98.99560000000001
 30
0.0
 10
-41.84239999999999
 20
-100.3613
 30
0.0
 10
-47.2182
 20
-103.0071
 30
0.0
 10
-47.2182
 20
-103.0071
 30
0.0
 10
-48.0583
 20
-103.4125
 30
0.0
 10
-48.80600000000001
 20
-103.9313
 30
0.0
 10
-49.6032
 20
-104.3863
 30
0.0
 10
-49.6032
 20
-104.3863
 30
0.0
 10
-49.6032
 20
-104.3863
 30
0.0
 10
-49.6032
 20
-88.1938
 30
0.0
 10
-49.6032
 20
-88.1938
 30
0.0
 10
-49.6032
 20
-88.1938
 30
0.0
 10
-49.6032
 20
-88.1938
 30
0.0
 10
-7.026799999999998
 20
-88.1938
 30
0.0
 10
-7.026799999999998
 20
-88.1938
 30
0.0
 10
-7.026799999999998
 20
-88.1938
 30
0.0
 10
-7.026799999999998
 20
-88.1938
 30
0.0
 10
-7.026799999999998
 20
-78.4996
 30
0.0
 10
-7.026799999999998
 20
-78.4996
 30
0.0
 10
-7.026799999999998
 20
-78.4996
 30
0.0
 10
-7.026799999999998
 20
-78.4996
 30
0.0
 10
-60.4764
 20
-78.4996
 30
0.0
 10
-60.4764
 20
-78.4996
 30
0.0
 10
-60.4764
 20
-78.4996
 30
0.0
 10
-60.4764
 20
-78.4996
 30
0.0
 10
-60.4764
 20
-113.5094
 30
0.0
 10
-60.4764
 20
-113.5094
 30
0.0
 10
-60.4764
 20
-113.5094
 30
0.0
 10
-60.5891
 20
-113.6466
 30
0.0
 10
-60.67669999999999
 20
-113.8123
 30
0.0
 10
-60.7867
 20
-113.9468
 30
0.0
 10
-60.7867
 20
-113.9468
 30
0.0
 10
-60.7867
 20
-113.9468
 30
0.0
 10
-51.95969999999999
 20
-116.9701
 30
0.0
 10
-51.95969999999999
 20
-116.9701
 30
0.0
 10
-51.95969999999999
 20
-116.9701
 30
0.0
 10
-45.9273
 20
-110.7964
 30
0.0
 10
-38.5508
 20
-107.6746
 30
0.0
 10
-29.8019
 20
-107.6746
 30
0.0
 10
-29.8019
 20
-107.6746
 30
0.0
 10
-20.6686
 20
-107.7622
 30
0.0
 10
-13.024
 20
-111.068
 30
0.0
 10
-6.874699999999998
 20
-117.5942
 30
0.0
 10
-6.874699999999998
 20
-117.5942
 30
0.0
 10
-4.370099999999998
 20
-120.2468
 30
0.0
 10
-2.366099999999998
 20
-123.239
 30
0.0
 10
-0.8354
 20
-126.5482
 30
0.0
 10
-0.8354
 20
-126.5482
 30
0.0
 10
1.274599999999999
 20
-131.1023
 30
0.0
 10
2.4386
 20
-136.292
 30
0.0
 10
2.703399999999998
 20
-142.0875
 30
0.0
 10
2.703399999999998
 20
-142.0875
 30
0.0
 10
3.849699999999998
 20
-137.0852
 30
0.0
 10
5.9801
 20
-132.6052
 30
0.0
 10
9.105999999999999
 20
-128.6507
 30
0.0
 10
9.105999999999999
 20
-128.6507
 30
0.0
 10
10.1606
 20
-127.3136
 30
0.0
 10
11.2825
 20
-126.0185
 30
0.0
 10
12.5633
 20
-124.8016
 30
0.0
 10
12.5633
 20
-124.8016
 30
0.0
 10
19.4881
 20
-118.1905
 30
0.0
 10
28.0537
 20
-114.8853
 30
0.0
 10
38.2525
 20
-114.8853
 30
0.0
 10
38.2525
 20
-114.8853
 30
0.0
 10
48.5463
 20
-114.9695
 30
0.0
 10
57.16149999999998
 20
-118.2754
 30
0.0
 10
64.08629999999999
 20
-124.8016
 30
0.0
 10
64.08629999999999
 20
-124.8016
 30
0.0
 10
71.35339999999998
 20
-131.6279
 30
0.0
 10
74.9839
 20
-140.6274
 30
0.0
 10
74.9839
 20
-151.8034
 30
0.0
 10
74.9839
 20
-151.8034
 30
0.0
 10
74.9839
 20
-162.21
 30
0.0
 10
71.35339999999998
 20
-170.889
 30
0.0
 10
64.08629999999999
 20
-177.8417
 30
0.0
 10
64.08629999999999
 20
-177.8417
 30
0.0
 10
57.2076
 20
-184.4527
 30
0.0
 10
48.6204
 20
-187.7586
 30
0.0
 10
38.3231
 20
-187.7586
 30
0.0
 10
38.3231
 20
-187.7586
 30
0.0
 10
28.0292
 20
-187.7586
 30
0.0
 10
19.4426
 20
-184.4527
 30
0.0
 10
12.5633
 20
-177.8417
 30
0.0
 10
12.5633
 20
-177.8417
 30
0.0
 10
9.522299999999999
 20
-174.9351
 30
0.0
 10
7.158299999999998
 20
-171.672
 30
0.0
 10
5.3913
 20
-168.1019
 30
0.0
 10
5.3913
 20
-168.1019
 30
0.0
 10
3.292199999999998
 20
-163.8575
 30
0.0
 10
2.0895
 20
-159.148
 30
0.0
 10
1.782499999999999
 20
-153.9691
 30
0.0
 10
1.782499999999999
 20
-153.9691
 30
0.0
 10
0.6043
 20
-159.3211
 30
0.0
 10
-1.621799999999999
 20
-164.1115
 30
0.0
 10
-4.927699999999998
 20
-168.3206
 30
0.0
 10
-4.927699999999998
 20
-168.3206
 30
0.0
 10
-5.544999999999999
 20
-169.107
 30
0.0
 10
-6.179999999999998
 20
-169.8832
 30
0.0
 10
-6.874699999999998
 20
-170.6309
 30
0.0
 10
-6.874699999999998
 20
-170.6309
 30
0.0
 10
-12.9819
 20
-177.2454
 30
0.0
 10
-20.6014
 20
-180.5513
 30
0.0
 10
-29.7388
 20
-180.5513
 30
0.0
 10
-29.7388
 20
-180.5513
 30
0.0
 10
-38.8788
 20
-180.5513
 30
0.0
 10
-46.4991
 20
-177.2454
 30
0.0
 10
-52.6022
 20
-170.6309
 30
0.0
 10
-52.6022
 20
-170.6309
 30
0.0
 10
-57.1882
 20
-165.6891
 30
0.0
 10
-60.10899999999999
 20
-159.7693
 30
0.0
 10
-61.4319
 20
-152.9077
 30
0.0
 10
-61.4319
 20
-152.9077
 30
0.0
 10
-61.4319
 20
-152.9077
 30
0.0
 10
-70.3506
 20
-152.3393
 30
0.0
 10
-70.3506
 20
-152.3393
 30
0.0
 10
-70.3506
 20
-152.3393
 30
0.0
 10
-69.539
 20
-157.2397
 30
0.0
 10
-68.0715
 20
-161.9635
 30
0.0
 10
-65.789
 20
-166.4721
 30
0.0
 10
-65.789
 20
-166.4721
 30
0.0
 10
-62.0315
 20
-173.9823
 30
0.0
 10
-56.7787
 20
-179.7187
 30
0.0
 10
-50.0372
 20
-183.684
 30
0.0
 10
-50.0372
 20
-183.684
 30
0.0
 10
-43.71879999999999
 20
-187.4374
 30
0.0
 10
-36.9529
 20
-189.3144
 30
0.0
 10
-29.7388
 20
-189.3144
 30
0.0
 10
-29.7388
 20
-189.3144
 30
0.0
 10
-23.635
 20
-189.3144
 30
0.0
 10
-17.8076
 20
-187.9488
 30
0.0
 10
-12.2579
 20
-185.2188
 30
0.0
 10
-12.2579
 20
-185.2188
 30
0.0
 10
-7.7568
 20
-183.0103
 30
0.0
 10
-3.894099999999999
 20
-179.9971
 30
0.0
 10
-0.5427
 20
-176.3422
 30
0.0
 10
-0.5427
 20
-176.3422
 30
0.0
 10
3.5285
 20
-182.52
 30
0.0
 10
8.805799999999997
 20
-187.4265
 30
0.0
 10
15.4522
 20
-190.8947
 30
0.0
 10
15.4522
 20
-190.8947
 30
0.0
 10
22.572
 20
-194.6481
 30
0.0
 10
30.1949
 20
-196.5252
 30
0.0
 10
38.3231
 20
-196.5252
 30
0.0
 10
38.3231
 20
-196.5252
 30
0.0
 10
45.2024
 20
-196.5252
 30
0.0
 10
51.7673
 20
-195.1561
 30
0.0
 10
58.0226
 20
-192.4295
 30
0.0
 10
58.0226
 20
-192.4295
 30
0.0
 10
65.9599
 20
-188.9756
 30
0.0
 10
72.3096
 20
-183.7505
 30
0.0
 10
77.06870000000002
 20
-176.7551
 30
0.0
 10
77.06870000000002
 20
-176.7551
 30
0.0
 10
82.31480000000003
 20
-168.9909
 30
0.0
 10
84.9355
 20
-160.718
 30
0.0
 10
84.9355
 20
-151.9304
 30
0.0
 10
84.9355
 20
-151.9304
 30
0.0
 10
84.9355
 20
-144.8922
 30
0.0
 10
83.48969999999999
 20
-138.3028
 30
0.0
 10
80.60349999999997
 20
-132.1603
 30
0.0
  0
SPLINE
  5
94
330
1F
100
AcDbEntity
  8
Layer 1
 62
     7
100
AcDbSpline
210
0.0
220
0.0
230
1.0
 70
    11
 71
     3
 72
   268
 73
   264
 74
     0
 42
0.0000000001
 43
0.0000000001
 40
0.0
 40
0.0
 40
0.0
 40
0.0
 40
0.0149253731343284
 40
0.0149253731343284
 40
0.0149253731343284
 40
0.0223880597014926
 40
0.0298507462686567
 40
0.0298507462686567
 40
0.0298507462686567
 40
0.0373134328358209
 40
0.0447761194029851
 40
0.0447761194029851
 40
0.0447761194029851
 40
0.0522388059701493
 40
0.0597014925373134
 40
0.0597014925373134
 40
0.0597014925373134
 40
0.0671641791044776
 40
0.0746268656716418
 40
0.0746268656716418
 40
0.0746268656716418
 40
0.082089552238806
 40
0.0895522388059701
 40
0.0895522388059701
 40
0.0895522388059701
 40
0.0970149253731343
 40
0.1044776119402985
 40
0.1044776119402985
 40
0.1044776119402985
 40
0.1119402985074627
 40
0.1194029850746269
 40
0.1194029850746269
 40
0.1194029850746269
 40
0.1268656716417911
 40
0.1343283582089552
 40
0.1343283582089552
 40
0.1343283582089552
 40
0.1417910447761194
 40
0.1492537313432836
 40
0.1492537313432836
 40
0.1492537313432836
 40
0.1567164179104477
 40
0.1641791044776119
 40
0.1641791044776119
 40
0.1641791044776119
 40
0.1716417910447761
 40
0.1791044776119403
 40
0.1791044776119403
 40
0.1791044776119403
 40
0.1865671641791045
 40
0.1940298507462687
 40
0.1940298507462687
 40
0.1940298507462687
 40
0.2014925373134328
 40
0.208955223880597
 40
0.208955223880597
 40
0.208955223880597
 40
0.2164179104477612
 40
0.2238805970149254
 40
0.2238805970149254
 40
0.2238805970149254
 40
0.2313432835820896
 40
0.2388059701492537
 40
0.2388059701492537
 40
0.2388059701492537
 40
0.2462686567164179
 40
0.2537313432835821
 40
0.2537313432835821
 40
0.2537313432835821
 40
0.2611940298507462
 40
0.2686567164179104
 40
0.2686567164179104
 40
0.2686567164179104
 40
0.2761194029850746
 40
0.2835820895522388
 40
0.2835820895522388
 40
0.2835820895522388
 40
0.2910447761194029
 40
0.2985074626865671
 40
0.2985074626865671
 40
0.2985074626865671
 40
0.3059701492537313
 40
0.3134328358208955
 40
0.3134328358208955
 40
0.3134328358208955
 40
0.3208955223880597
 40
0.3283582089552239
 40
0.3283582089552239
 40
0.3283582089552239
 40
0.335820895522388
 40
0.3432835820895522
 40
0.3432835820895522
 40
0.3432835820895522
 40
0.3507462686567164
 40
0.3582089552238806
 40
0.3582089552238806
 40
0.3582089552238806
 40
0.3656716417910448
 40
0.373134328358209
 40
0.373134328358209
 40
0.373134328358209
 40
0.3805970149253731
 40
0.3880597014925373
 40
0.3880597014925373
 40
0.3880597014925373
 40
0.3955223880597015
 40
0.4029850746268659
 40
0.4029850746268659
 40
0.4029850746268659
 40
0.41044776119403
 40
0.417910447761194
 40
0.417910447761194
 40
0.417910447761194
 40
0.4253731343283583
 40
0.4328358208955226
 40
0.4328358208955226
 40
0.4328358208955226
 40
0.4402985074626866
 40
0.4477611940298508
 40
0.4477611940298508
 40
0.4477611940298508
 40
0.4552238805970151
 40
0.4626865671641793
 40
0.4626865671641793
 40
0.4626865671641793
 40
0.4701492537313433
 40
0.4776119402985075
 40
0.4776119402985075
 40
0.4776119402985075
 40
0.4850746268656718
 40
0.4925373134328358
 40
0.4925373134328358
 40
0.4925373134328358
 40
0.5
 40
0.5074626865671644
 40
0.5074626865671644
 40
0.5074626865671644
 40
0.5149253731343286
 40
0.5223880597014925
 40
0.5223880597014925
 40
0.5223880597014925
 40
0.5298507462686568
 40
0.5373134328358209
 40
0.5373134328358209
 40
0.5373134328358209
 40
0.5447761194029851
 40
0.5522388059701493
 40
0.5522388059701493
 40
0.5522388059701493
 40
0.5597014925373136
 40
0.5671641791044776
 40
0.5671641791044776
 40
0.5671641791044776
 40
0.5746268656716418
 40
0.582089552238806
 40
0.582089552238806
 40
0.582089552238806
 40
0.5895522388059702
 40
0.5970149253731343
 40
0.5970149253731343
 40
0.5970149253731343
 40
0.6044776119402985
 40
0.6119402985074628
 40
0.6119402985074628
 40
0.6119402985074628
 40
0.6194029850746269
 40
0.6268656716417911
 40
0.6268656716417911
 40
0.6268656716417911
 40
0.6343283582089552
 40
0.6417910447761194
 40
0.6417910447761194
 40
0.6417910447761194
 40
0.6492537313432836
 40
0.6567164179104478
 40
0.6567164179104478
 40
0.6567164179104478
 40
0.6641791044776121
 40
0.6716417910447762
 40
0.6716417910447762
 40
0.6716417910447762
 40
0.6791044776119404
 40
0.6865671641791045
 40
0.6865671641791045
 40
0.6865671641791045
 40
0.6940298507462687
 40
0.7014925373134329
 40
0.7014925373134329
 40
0.7014925373134329
 40
0.7089552238805971
 40
0.7164179104477612
 40
0.7164179104477612
 40
0.7164179104477612
 40
0.7238805970149254
 40
0.7313432835820896
 40
0.7313432835820896
 40
0.7313432835820896
 40
0.7388059701492537
 40
0.746268656716418
 40
0.746268656716418
 40
0.746268656716418
 40
0.7537313432835822
 40
0.7611940298507463
 40
0.7611940298507463
 40
0.7611940298507463
 40
0.7686567164179105
 40
0.7761194029850747
 40
0.7761194029850747
 40
0.7761194029850747
 40
0.7835820895522387
 40
0.791044776119403
 40
0.791044776119403
 40
0.791044776119403
 40
0.7985074626865673
 40
0.8059701492537312
 40
0.8059701492537312
 40
0.8059701492537312
 40
0.8134328358208955
 40
0.8208955223880597
 40
0.8208955223880597
 40
0.8208955223880597
 40
0.8283582089552238
 40
0.8358208955223879
 40
0.8358208955223879
 40
0.8358208955223879
 40
0.8432835820895521
 40
0.8507462686567164
 40
0.8507462686567164
 40
0.8507462686567164
 40
0.8582089552238805
 40
0.8656716417910445
 40
0.8656716417910445
 40
0.8656716417910445
 40
0.8731343283582088
 40
0.8805970149253731
 40
0.8805970149253731
 40
0.8805970149253731
 40
0.8880597014925372
 40
0.8955223880597015
 40
0.8955223880597015
 40
0.8955223880597015
 40
0.9029850746268655
 40
0.9104477611940298
 40
0.9104477611940298
 40
0.9104477611940298
 40
0.9179104477611939
 40
0.9253731343283584
 40
0.9253731343283584
 40
0.9253731343283584
 40
0.9328358208955224
 40
0.9402985074626863
 40
0.9402985074626863
 40
0.9402985074626863
 40
0.9477611940298508
 40
0.9552238805970148
 40
0.9552238805970148
 40
0.9552238805970148
 40
0.9626865671641787
 40
0.9701492537313431
 40
0.9701492537313431
 40
0.9701492537313431
 40
0.9850746268656715
 40
1.0
 40
1.0
 40
1.0
 40
1.0
 10
-96.34669999999999
 20
-111.2405
 30
0.0
 10
-96.34669999999999
 20
-111.2405
 30
0.0
 10
-94.86830000000001
 20
-110.158
 30
0.0
 10
-94.86830000000001
 20
-110.158
 30
0.0
 10
-94.86830000000001
 20
-110.158
 30
0.0
 10
-94.86830000000001
 20
-110.158
 30
0.0
 10
-93.6228
 20
-111.4986
 30
0.0
 10
-93.6228
 20
-111.4986
 30
0.0
 10
-93.6228
 20
-111.4986
 30
0.0
 10
-93.6228
 20
-111.4986
 30
0.0
 10
-91.96510000000001
 20
-110.7156
 30
0.0
 10
-91.96510000000001
 20
-110.7156
 30
0.0
 10
-91.96510000000001
 20
-110.7156
 30
0.0
 10
-91.96510000000001
 20
-110.7156
 30
0.0
 10
-90.9946
 20
-112.2707
 30
0.0
 10
-90.9946
 20
-112.2707
 30
0.0
 10
-90.9946
 20
-112.2707
 30
0.0
 10
-90.9946
 20
-112.2707
 30
0.0
 10
-89.2201
 20
-111.8157
 30
0.0
 10
-89.2201
 20
-111.8157
 30
0.0
 10
-89.2201
 20
-111.8157
 30
0.0
 10
-89.2201
 20
-111.8157
 30
0.0
 10
-88.5607
 20
-113.523
 30
0.0
 10
-88.5607
 20
-113.523
 30
0.0
 10
-88.5607
 20
-113.523
 30
0.0
 10
-88.5607
 20
-113.523
 30
0.0
 10
-86.73329999999998
 20
-113.4137
 30
0.0
 10
-86.73329999999998
 20
-113.4137
 30
0.0
 10
-86.73329999999998
 20
-113.4137
 30
0.0
 10
-86.73329999999998
 20
-113.4137
 30
0.0
 10
-86.40869999999997
 20
-115.2167
 30
0.0
 10
-86.40869999999997
 20
-115.2167
 30
0.0
 10
-86.40869999999997
 20
-115.2167
 30
0.0
 10
-86.40869999999997
 20
-115.2167
 30
0.0
 10
-84.5954
 20
-115.453
 30
0.0
 10
-84.5954
 20
-115.453
 30
0.0
 10
-84.5954
 20
-115.453
 30
0.0
 10
-84.5954
 20
-115.453
 30
0.0
 10
-84.6165
 20
-117.2839
 30
0.0
 10
-84.6165
 20
-117.2839
 30
0.0
 10
-84.6165
 20
-117.2839
 30
0.0
 10
-84.6165
 20
-117.2839
 30
0.0
 10
-82.88070000000002
 20
-117.8625
 30
0.0
 10
-82.88070000000002
 20
-117.8625
 30
0.0
 10
-82.88070000000002
 20
-117.8625
 30
0.0
 10
-82.88070000000002
 20
-117.8625
 30
0.0
 10
-83.24809999999997
 20
-119.6546
 30
0.0
 10
-83.24809999999997
 20
-119.6546
 30
0.0
 10
-83.24809999999997
 20
-119.6546
 30
0.0
 10
-83.24809999999997
 20
-119.6546
 30
0.0
 10
-81.64950000000002
 20
-120.5504
 30
0.0
 10
-81.64950000000002
 20
-120.5504
 30
0.0
 10
-81.64950000000002
 20
-120.5504
 30
0.0
 10
-81.64950000000002
 20
-120.5504
 30
0.0
 10
-82.3517
 20
-122.2441
 30
0.0
 10
-82.3517
 20
-122.2441
 30
0.0
 10
-82.3517
 20
-122.2441
 30
0.0
 10
-82.3517
 20
-122.2441
 30
0.0
 10
-80.9548
 20
-123.4257
 30
0.0
 10
-80.9548
 20
-123.4257
 30
0.0
 10
-80.9548
 20
-123.4257
 30
0.0
 10
-80.9548
 20
-123.4257
 30
0.0
 10
-81.96389999999999
 20
-124.9537
 30
0.0
 10
-81.96389999999999
 20
-124.9537
 30
0.0
 10
-81.96389999999999
 20
-124.9537
 30
0.0
 10
-81.96389999999999
 20
-124.9537
 30
0.0
 10
-80.8135
 20
-126.3785
 30
0.0
 10
-80.8135
 20
-126.3785
 30
0.0
 10
-80.8135
 20
-126.3785
 30
0.0
 10
-80.8135
 20
-126.3785
 30
0.0
 10
-82.09430000000002
 20
-127.6871
 30
0.0
 10
-82.09430000000002
 20
-127.6871
 30
0.0
 10
-82.09430000000002
 20
-127.6871
 30
0.0
 10
-82.09430000000002
 20
-127.6871
 30
0.0
 10
-81.23319999999997
 20
-129.3034
 30
0.0
 10
-81.23319999999997
 20
-129.3034
 30
0.0
 10
-81.23319999999997
 20
-129.3034
 30
0.0
 10
-81.23319999999997
 20
-129.3034
 30
0.0
 10
-82.7401
 20
-130.3471
 30
0.0
 10
-82.7401
 20
-130.3471
 30
0.0
 10
-82.7401
 20
-130.3471
 30
0.0
 10
-82.7401
 20
-130.3471
 30
0.0
 10
-82.20019999999998
 20
-132.0972
 30
0.0
 10
-82.20019999999998
 20
-132.0972
 30
0.0
 10
-82.20019999999998
 20
-132.0972
 30
0.0
 10
-82.20019999999998
 20
-132.0972
 30
0.0
 10
-83.8756
 20
-132.8381
 30
0.0
 10
-83.8756
 20
-132.8381
 30
0.0
 10
-83.8756
 20
-132.8381
 30
0.0
 10
-83.8756
 20
-132.8381
 30
0.0
 10
-83.678
 20
-134.6581
 30
0.0
 10
-83.678
 20
-134.6581
 30
0.0
 10
-83.678
 20
-134.6581
 30
0.0
 10
-83.678
 20
-134.6581
 30
0.0
 10
-85.46330000000002
 20
-135.0676
 30
0.0
 10
-85.46330000000002
 20
-135.0676
 30
0.0
 10
-85.46330000000002
 20
-135.0676
 30
0.0
 10
-85.46330000000002
 20
-135.0676
 30
0.0
 10
-85.61480000000001
 20
-136.891
 30
0.0
 10
-85.61480000000001
 20
-136.891
 30
0.0
 10
-85.61480000000001
 20
-136.891
 30
0.0
 10
-85.61480000000001
 20
-136.891
 30
0.0
 10
-87.44559999999998
 20
-136.9548
 30
0.0
 10
-87.44559999999998
 20
-136.9548
 30
0.0
 10
-87.44559999999998
 20
-136.9548
 30
0.0
 10
-87.44559999999998
 20
-136.9548
 30
0.0
 10
-87.94
 20
-138.7185
 30
0.0
 10
-87.94
 20
-138.7185
 30
0.0
 10
-87.94
 20
-138.7185
 30
0.0
 10
-87.94
 20
-138.7185
 30
0.0
 10
-89.7499
 20
-138.4366
 30
0.0
 10
-89.7499
 20
-138.4366
 30
0.0
 10
-89.7499
 20
-138.4366
 30
0.0
 10
-89.7499
 20
-138.4366
 30
0.0
 10
-90.5682
 20
-140.0733
 30
0.0
 10
-90.5682
 20
-140.0733
 30
0.0
 10
-90.5682
 20
-140.0733
 30
0.0
 10
-90.5682
 20
-140.0733
 30
0.0
 10
-92.2897
 20
-139.4526
 30
0.0
 10
-92.2897
 20
-139.4526
 30
0.0
 10
-92.2897
 20
-139.4526
 30
0.0
 10
-92.2897
 20
-139.4526
 30
0.0
 10
-93.4041
 20
-140.9059
 30
0.0
 10
-93.4041
 20
-140.9059
 30
0.0
 10
-93.4041
 20
-140.9059
 30
0.0
 10
-93.4041
 20
-140.9059
 30
0.0
 10
-94.97759999999999
 20
-139.9714
 30
0.0
 10
-94.97759999999999
 20
-139.9714
 30
0.0
 10
-94.97759999999999
 20
-139.9714
 30
0.0
 10
-94.97759999999999
 20
-139.9714
 30
0.0
 10
-96.34669999999999
 20
-141.1884
 30
0.0
 10
-96.34669999999999
 20
-141.1884
 30
0.0
 10
-96.34669999999999
 20
-141.1884
 30
0.0
 10
-96.34669999999999
 20
-141.1884
 30
0.0
 10
-97.71510000000001
 20
-139.9714
 30
0.0
 10
-97.71510000000001
 20
-139.9714
 30
0.0
 10
-97.71510000000001
 20
-139.9714
 30
0.0
 10
-97.71510000000001
 20
-139.9714
 30
0.0
 10
-99.2885
 20
-140.9059
 30
0.0
 10
-99.2885
 20
-140.9059
 30
0.0
 10
-99.2885
 20
-140.9059
 30
0.0
 10
-99.2885
 20
-140.9059
 30
0.0
 10
-100.4036
 20
-139.4526
 30
0.0
 10
-100.4036
 20
-139.4526
 30
0.0
 10
-100.4036
 20
-139.4526
 30
0.0
 10
-100.4036
 20
-139.4526
 30
0.0
 10
-102.1252
 20
-140.0733
 30
0.0
 10
-102.1252
 20
-140.0733
 30
0.0
 10
-102.1252
 20
-140.0733
 30
0.0
 10
-102.1252
 20
-140.0733
 30
0.0
 10
-102.9435
 20
-138.4366
 30
0.0
 10
-102.9435
 20
-138.4366
 30
0.0
 10
-102.9435
 20
-138.4366
 30
0.0
 10
-102.9435
 20
-138.4366
 30
0.0
 10
-104.7533
 20
-138.7185
 30
0.0
 10
-104.7533
 20
-138.7185
 30
0.0
 10
-104.7533
 20
-138.7185
 30
0.0
 10
-104.7533
 20
-138.7185
 30
0.0
 10
-105.247
 20
-136.9548
 30
0.0
 10
-105.247
 20
-136.9548
 30
0.0
 10
-105.247
 20
-136.9548
 30
0.0
 10
-105.247
 20
-136.9548
 30
0.0
 10
-107.0779
 20
-136.891
 30
0.0
 10
-107.0779
 20
-136.891
 30
0.0
 10
-107.0779
 20
-136.891
 30
0.0
 10
-107.0779
 20
-136.891
 30
0.0
 10
-107.23
 20
-135.0676
 30
0.0
 10
-107.23
 20
-135.0676
 30
0.0
 10
-107.23
 20
-135.0676
 30
0.0
 10
-107.23
 20
-135.0676
 30
0.0
 10
-109.0147
 20
-134.6581
 30
0.0
 10
-109.0147
 20
-134.6581
 30
0.0
 10
-109.0147
 20
-134.6581
 30
0.0
 10
-109.0147
 20
-134.6581
 30
0.0
 10
-108.8171
 20
-132.8381
 30
0.0
 10
-108.8171
 20
-132.8381
 30
0.0
 10
-108.8171
 20
-132.8381
 30
0.0
 10
-108.8171
 20
-132.8381
 30
0.0
 10
-110.4931
 20
-132.0972
 30
0.0
 10
-110.4931
 20
-132.0972
 30
0.0
 10
-110.4931
 20
-132.0972
 30
0.0
 10
-110.4931
 20
-132.0972
 30
0.0
 10
-109.9532
 20
-130.3471
 30
0.0
 10
-109.9532
 20
-130.3471
 30
0.0
 10
-109.9532
 20
-130.3471
 30
0.0
 10
-109.9532
 20
-130.3471
 30
0.0
 10
-111.4595
 20
-129.3034
 30
0.0
 10
-111.4595
 20
-129.3034
 30
0.0
 10
-111.4595
 20
-129.3034
 30
0.0
 10
-111.4595
 20
-129.3034
 30
0.0
 10
-110.599
 20
-127.6871
 30
0.0
 10
-110.599
 20
-127.6871
 30
0.0
 10
-110.599
 20
-127.6871
 30
0.0
 10
-110.599
 20
-127.6871
 30
0.0
 10
-111.8791
 20
-126.3785
 30
0.0
 10
-111.8791
 20
-126.3785
 30
0.0
 10
-111.8791
 20
-126.3785
 30
0.0
 10
-111.8791
 20
-126.3785
 30
0.0
 10
-110.7294
 20
-124.9537
 30
0.0
 10
-110.7294
 20
-124.9537
 30
0.0
 10
-110.7294
 20
-124.9537
 30
0.0
 10
-110.7294
 20
-124.9537
 30
0.0
 10
-111.7379
 20
-123.4257
 30
0.0
 10
-111.7379
 20
-123.4257
 30
0.0
 10
-111.7379
 20
-123.4257
 30
0.0
 10
-111.7379
 20
-123.4257
 30
0.0
 10
-110.3376
 20
-122.2441
 30
0.0
 10
-110.3376
 20
-122.2441
 30
0.0
 10
-110.3376
 20
-122.2441
 30
0.0
 10
-110.3376
 20
-122.2441
 30
0.0
 10
-111.0432
 20
-120.5504
 30
0.0
 10
-111.0432
 20
-120.5504
 30
0.0
 10
-111.0432
 20
-120.5504
 30
0.0
 10
-111.0432
 20
-120.5504
 30
0.0
 10
-109.4452
 20
-119.6546
 30
0.0
 10
-109.4452
 20
-119.6546
 30
0.0
 10
-109.4452
 20
-119.6546
 30
0.0
 10
-109.4452
 20
-119.6546
 30
0.0
 10
-109.8119
 20
-117.8625
 30
0.0
 10
-109.8119
 20
-117.8625
 30
0.0
 10
-109.8119
 20
-117.8625
 30
0.0
 10
-109.8119
 20
-117.8625
 30
0.0
 10
-108.0762
 20
-117.2839
 30
0.0
 10
-108.0762
 20
-117.2839
 30
0.0
 10
-108.0762
 20
-117.2839
 30
0.0
 10
-108.0762
 20
-117.2839
 30
0.0
 10
-108.0972
 20
-115.453
 30
0.0
 10
-108.0972
 20
-115.453
 30
0.0
 10
-108.0972
 20
-115.453
 30
0.0
 10
-108.0972
 20
-115.453
 30
0.0
 10
-106.2847
 20
-115.2167
 30
0.0
 10
-106.2847
 20
-115.2167
 30
0.0
 10
-106.2847
 20
-115.2167
 30
0.0
 10
-106.2847
 20
-115.2167
 30
0.0
 10
-105.9594
 20
-113.4137
 30
0.0
 10
-105.9594
 20
-113.4137
 30
0.0
 10
-105.9594
 20
-113.4137
 30
0.0
 10
-105.9594
 20
-113.4137
 30
0.0
 10
-104.1319
 20
-113.523
 30
0.0
 10
-104.1319
 20
-113.523
 30
0.0
 10
-104.1319
 20
-113.523
 30
0.0
 10
-104.1319
 20
-113.523
 30
0.0
 10
-103.4725
 20
-111.8157
 30
0.0
 10
-103.4725
 20
-111.8157
 30
0.0
 10
-103.4725
 20
-111.8157
 30
0.0
 10
-103.4725
 20
-111.8157
 30
0.0
 10
-101.698
 20
-112.2707
 30
0.0
 10
-101.698
 20
-112.2707
 30
0.0
 10
-101.698
 20
-112.2707
 30
0.0
 10
-101.698
 20
-112.2707
 30
0.0
 10
-100.7283
 20
-110.7156
 30
0.0
 10
-100.7283
 20
-110.7156
 30
0.0
 10
-100.7283
 20
-110.7156
 30
0.0
 10
-100.7283
 20
-110.7156
 30
0.0
 10
-99.0699
 20
-111.4986
 30
0.0
 10
-99.0699
 20
-111.4986
 30
0.0
 10
-99.0699
 20
-111.4986
 30
0.0
 10
-99.0699
 20
-111.4986
 30
0.0
 10
-97.82510000000002
 20
-110.158
 30
0.0
 10
-97.82510000000002
 20
-110.158
 30
0.0
 10
-97.82510000000002
 20
-110.158
 30
0.0
 10
-97.82510000000002
 20
-110.158
 30
0.0
 10
-96.34669999999999
 20
-111.2405
 30
0.0
 10
-96.34669999999999
 20
-111.2405
 30
0.0
  0
SPLINE
  5
95
330
1F
100
AcDbEntity
  8
Layer 1
 62
     7
100
AcDbSpline
210
0.0
220
0.0
230
1.0
 70
    11
 71
     3
 72
   268
 73
   264
 74
     0
 42
0.0000000001
 43
0.0000000001
 40
0.0
 40
0.0
 40
0.0
 40
0.0
 40
0.0149253731343284
 40
0.0149253731343284
 40
0.0149253731343284
 40
0.0223880597014926
 40
0.0298507462686567
 40
0.0298507462686567
 40
0.0298507462686567
 40
0.0373134328358209
 40
0.0447761194029851
 40
0.0447761194029851
 40
0.0447761194029851
 40
0.0522388059701493
 40
0.0597014925373134
 40
0.0597014925373134
 40
0.0597014925373134
 40
0.0671641791044776
 40
0.0746268656716418
 40
0.0746268656716418
 40
0.0746268656716418
 40
0.082089552238806
 40
0.0895522388059701
 40
0.0895522388059701
 40
0.0895522388059701
 40
0.0970149253731343
 40
0.1044776119402985
 40
0.1044776119402985
 40
0.1044776119402985
 40
0.1119402985074627
 40
0.1194029850746269
 40
0.1194029850746269
 40
0.1194029850746269
 40
0.1268656716417911
 40
0.1343283582089552
 40
0.1343283582089552
 40
0.1343283582089552
 40
0.1417910447761194
 40
0.1492537313432836
 40
0.1492537313432836
 40
0.1492537313432836
 40
0.1567164179104477
 40
0.1641791044776119
 40
0.1641791044776119
 40
0.1641791044776119
 40
0.1716417910447761
 40
0.1791044776119403
 40
0.1791044776119403
 40
0.1791044776119403
 40
0.1865671641791045
 40
0.1940298507462687
 40
0.1940298507462687
 40
0.1940298507462687
 40
0.2014925373134328
 40
0.208955223880597
 40
0.208955223880597
 40
0.208955223880597
 40
0.2164179104477612
 40
0.2238805970149254
 40
0.2238805970149254
 40
0.2238805970149254
 40
0.2313432835820896
 40
0.2388059701492537
 40
0.2388059701492537
 40
0.2388059701492537
 40
0.2462686567164179
 40
0.2537313432835821
 40
0.2537313432835821
 40
0.2537313432835821
 40
0.2611940298507462
 40
0.2686567164179104
 40
0.2686567164179104
 40
0.2686567164179104
 40
0.2761194029850746
 40
0.2835820895522388
 40
0.2835820895522388
 40
0.2835820895522388
 40
0.2910447761194029
 40
0.2985074626865671
 40
0.2985074626865671
 40
0.2985074626865671
 40
0.3059701492537313
 40
0.3134328358208955
 40
0.3134328358208955
 40
0.3134328358208955
 40
0.3208955223880597
 40
0.3283582089552239
 40
0.3283582089552239
 40
0.3283582089552239
 40
0.335820895522388
 40
0.3432835820895522
 40
0.3432835820895522
 40
0.3432835820895522
 40
0.3507462686567164
 40
0.3582089552238806
 40
0.3582089552238806
 40
0.3582089552238806
 40
0.3656716417910448
 40
0.373134328358209
 40
0.373134328358209
 40
0.373134328358209
 40
0.3805970149253731
 40
0.3880597014925373
 40
0.3880597014925373
 40
0.3880597014925373
 40
0.3955223880597015
 40
0.4029850746268659
 40
0.4029850746268659
 40
0.4029850746268659
 40
0.41044776119403
 40
0.417910447761194
 40
0.417910447761194
 40
0.417910447761194
 40
0.4253731343283583
 40
0.4328358208955226
 40
0.4328358208955226
 40
0.4328358208955226
 40
0.4402985074626866
 40
0.4477611940298508
 40
0.4477611940298508
 40
0.4477611940298508
 40
0.4552238805970151
 40
0.4626865671641793
 40
0.4626865671641793
 40
0.4626865671641793
 40
0.4701492537313433
 40
0.4776119402985075
 40
0.4776119402985075
 40
0.4776119402985075
 40
0.4850746268656718
 40
0.4925373134328358
 40
0.4925373134328358
 40
0.4925373134328358
 40
0.5
 40
0.5074626865671644
 40
0.5074626865671644
 40
0.5074626865671644
 40
0.5149253731343286
 40
0.5223880597014925
 40
0.5223880597014925
 40
0.5223880597014925
 40
0.5298507462686568
 40
0.5373134328358209
 40
0.5373134328358209
 40
0.5373134328358209
 40
0.5447761194029851
 40
0.5522388059701493
 40
0.5522388059701493
 40
0.5522388059701493
 40
0.5597014925373136
 40
0.5671641791044776
 40
0.5671641791044776
 40
0.5671641791044776
 40
0.5746268656716418
 40
0.582089552238806
 40
0.582089552238806
 40
0.582089552238806
 40
0.5895522388059702
 40
0.5970149253731343
 40
0.5970149253731343
 40
0.5970149253731343
 40
0.6044776119402985
 40
0.6119402985074628
 40
0.6119402985074628
 40
0.6119402985074628
 40
0.6194029850746269
 40
0.6268656716417911
 40
0.6268656716417911
 40
0.6268656716417911
 40
0.6343283582089552
 40
0.6417910447761194
 40
0.6417910447761194
 40
0.6417910447761194
 40
0.6492537313432836
 40
0.6567164179104478
 40
0.6567164179104478
 40
0.6567164179104478
 40
0.6641791044776121
 40
0.6716417910447762
 40
0.6716417910447762
 40
0.6716417910447762
 40
0.6791044776119404
 40
0.6865671641791045
 40
0.6865671641791045
 40
0.6865671641791045
 40
0.6940298507462687
 40
0.7014925373134329
 40
0.7014925373134329
 40
0.7014925373134329
 40
0.7089552238805971
 40
0.7164179104477612
 40
0.7164179104477612
 40
0.7164179104477612
 40
0.7238805970149254
 40
0.7313432835820896
 40
0.7313432835820896
 40
0.7313432835820896
 40
0.7388059701492537
 40
0.746268656716418
 40
0.746268656716418
 40
0.746268656716418
 40
0.7537313432835822
 40
0.7611940298507463
 40
0.7611940298507463
 40
0.7611940298507463
 40
0.7686567164179105
 40
0.7761194029850747
 40
0.7761194029850747
 40
0.7761194029850747
 40
0.7835820895522387
 40
0.791044776119403
 40
0.791044776119403
 40
0.791044776119403
 40
0.7985074626865673
 40
0.8059701492537312
 40
0.8059701492537312
 40
0.8059701492537312
 40
0.8134328358208955
 40
0.8208955223880597
 40
0.8208955223880597
 40
0.8208955223880597
 40
0.8283582089552238
 40
0.8358208955223879
 40
0.8358208955223879
 40
0.8358208955223879
 40
0.8432835820895521
 40
0.8507462686567164
 40
0.8507462686567164
 40
0.8507462686567164
 40
0.8582089552238805
 40
0.8656716417910445
 40
0.8656716417910445
 40
0.8656716417910445
 40
0.8731343283582088
 40
0.8805970149253731
 40
0.8805970149253731
 40
0.8805970149253731
 40
0.8880597014925372
 40
0.8955223880597015
 40
0.8955223880597015
 40
0.8955223880597015
 40
0.9029850746268655
 40
0.9104477611940298
 40
0.9104477611940298
 40
0.9104477611940298
 40
0.9179104477611939
 40
0.9253731343283584
 40
0.9253731343283584
 40
0.9253731343283584
 40
0.9328358208955224
 40
0.9402985074626863
 40
0.9402985074626863
 40
0.9402985074626863
 40
0.9477611940298508
 40
0.9552238805970148
 40
0.9552238805970148
 40
0.9552238805970148
 40
0.9626865671641787
 40
0.9701492537313431
 40
0.9701492537313431
 40
0.9701492537313431
 40
0.9850746268656715
 40
1.0
 40
1.0
 40
1.0
 40
1.0
 10
109.9442
 20
-111.2405
 30
0.0
 10
109.9442
 20
-111.2405
 30
0.0
 10
111.4226
 20
-110.158
 30
0.0
 10
111.4226
 20
-110.158
 30
0.0
 10
111.4226
 20
-110.158
 30
0.0
 10
111.4226
 20
-110.158
 30
0.0
 10
112.6708
 20
-111.4986
 30
0.0
 10
112.6708
 20
-111.4986
 30
0.0
 10
112.6708
 20
-111.4986
 30
0.0
 10
112.6708
 20
-111.4986
 30
0.0
 10
114.3257
 20
-110.7156
 30
0.0
 10
114.3257
 20
-110.7156
 30
0.0
 10
114.3257
 20
-110.7156
 30
0.0
 10
114.3257
 20
-110.7156
 30
0.0
 10
115.2962
 20
-112.2707
 30
0.0
 10
115.2962
 20
-112.2707
 30
0.0
 10
115.2962
 20
-112.2707
 30
0.0
 10
115.2962
 20
-112.2707
 30
0.0
 10
117.0707
 20
-111.8157
 30
0.0
 10
117.0707
 20
-111.8157
 30
0.0
 10
117.0707
 20
-111.8157
 30
0.0
 10
117.0707
 20
-111.8157
 30
0.0
 10
117.7301
 20
-113.523
 30
0.0
 10
117.7301
 20
-113.523
 30
0.0
 10
117.7301
 20
-113.523
 30
0.0
 10
117.7301
 20
-113.523
 30
0.0
 10
119.5576
 20
-113.4137
 30
0.0
 10
119.5576
 20
-113.4137
 30
0.0
 10
119.5576
 20
-113.4137
 30
0.0
 10
119.5576
 20
-113.4137
 30
0.0
 10
119.8822
 20
-115.2167
 30
0.0
 10
119.8822
 20
-115.2167
 30
0.0
 10
119.8822
 20
-115.2167
 30
0.0
 10
119.8822
 20
-115.2167
 30
0.0
 10
121.6988
 20
-115.453
 30
0.0
 10
121.6988
 20
-115.453
 30
0.0
 10
121.6988
 20
-115.453
 30
0.0
 10
121.6988
 20
-115.453
 30
0.0
 10
121.6736
 20
-117.2839
 30
0.0
 10
121.6736
 20
-117.2839
 30
0.0
 10
121.6736
 20
-117.2839
 30
0.0
 10
121.6736
 20
-117.2839
 30
0.0
 10
123.4135
 20
-117.8625
 30
0.0
 10
123.4135
 20
-117.8625
 30
0.0
 10
123.4135
 20
-117.8625
 30
0.0
 10
123.4135
 20
-117.8625
 30
0.0
 10
123.0427
 20
-119.6546
 30
0.0
 10
123.0427
 20
-119.6546
 30
0.0
 10
123.0427
 20
-119.6546
 30
0.0
 10
123.0427
 20
-119.6546
 30
0.0
 10
124.6413
 20
-120.5504
 30
0.0
 10
124.6413
 20
-120.5504
 30
0.0
 10
124.6413
 20
-120.5504
 30
0.0
 10
124.6413
 20
-120.5504
 30
0.0
 10
123.9391
 20
-122.2441
 30
0.0
 10
123.9391
 20
-122.2441
 30
0.0
 10
123.9391
 20
-122.2441
 30
0.0
 10
123.9391
 20
-122.2441
 30
0.0
 10
125.3395
 20
-123.4257
 30
0.0
 10
125.3395
 20
-123.4257
 30
0.0
 10
125.3395
 20
-123.4257
 30
0.0
 10
125.3395
 20
-123.4257
 30
0.0
 10
124.3269
 20
-124.9537
 30
0.0
 10
124.3269
 20
-124.9537
 30
0.0
 10
124.3269
 20
-124.9537
 30
0.0
 10
124.3269
 20
-124.9537
 30
0.0
 10
125.4807
 20
-126.3785
 30
0.0
 10
125.4807
 20
-126.3785
 30
0.0
 10
125.4807
 20
-126.3785
 30
0.0
 10
125.4807
 20
-126.3785
 30
0.0
 10
124.1999
 20
-127.6871
 30
0.0
 10
124.1999
 20
-127.6871
 30
0.0
 10
124.1999
 20
-127.6871
 30
0.0
 10
124.1999
 20
-127.6871
 30
0.0
 10
125.0569
 20
-129.3034
 30
0.0
 10
125.0569
 20
-129.3034
 30
0.0
 10
125.0569
 20
-129.3034
 30
0.0
 10
125.0569
 20
-129.3034
 30
0.0
 10
123.5548
 20
-130.3471
 30
0.0
 10
123.5548
 20
-130.3471
 30
0.0
 10
123.5548
 20
-130.3471
 30
0.0
 10
123.5548
 20
-130.3471
 30
0.0
 10
124.0906
 20
-132.0972
 30
0.0
 10
124.0906
 20
-132.0972
 30
0.0
 10
124.0906
 20
-132.0972
 30
0.0
 10
124.0906
 20
-132.0972
 30
0.0
 10
122.4145
 20
-132.8381
 30
0.0
 10
122.4145
 20
-132.8381
 30
0.0
 10
122.4145
 20
-132.8381
 30
0.0
 10
122.4145
 20
-132.8381
 30
0.0
 10
122.6122
 20
-134.6581
 30
0.0
 10
122.6122
 20
-134.6581
 30
0.0
 10
122.6122
 20
-134.6581
 30
0.0
 10
122.6122
 20
-134.6581
 30
0.0
 10
120.8275
 20
-135.0676
 30
0.0
 10
120.8275
 20
-135.0676
 30
0.0
 10
120.8275
 20
-135.0676
 30
0.0
 10
120.8275
 20
-135.0676
 30
0.0
 10
120.676
 20
-136.891
 30
0.0
 10
120.676
 20
-136.891
 30
0.0
 10
120.676
 20
-136.891
 30
0.0
 10
120.676
 20
-136.891
 30
0.0
 10
118.8479
 20
-136.9548
 30
0.0
 10
118.8479
 20
-136.9548
 30
0.0
 10
118.8479
 20
-136.9548
 30
0.0
 10
118.8479
 20
-136.9548
 30
0.0
 10
118.3542
 20
-138.7185
 30
0.0
 10
118.3542
 20
-138.7185
 30
0.0
 10
118.3542
 20
-138.7185
 30
0.0
 10
118.3542
 20
-138.7185
 30
0.0
 10
116.5444
 20
-138.4366
 30
0.0
 10
116.5444
 20
-138.4366
 30
0.0
 10
116.5444
 20
-138.4366
 30
0.0
 10
116.5444
 20
-138.4366
 30
0.0
 10
115.7261
 20
-140.0733
 30
0.0
 10
115.7261
 20
-140.0733
 30
0.0
 10
115.7261
 20
-140.0733
 30
0.0
 10
115.7261
 20
-140.0733
 30
0.0
 10
114.0011
 20
-139.4526
 30
0.0
 10
114.0011
 20
-139.4526
 30
0.0
 10
114.0011
 20
-139.4526
 30
0.0
 10
114.0011
 20
-139.4526
 30
0.0
 10
112.8901
 20
-140.9059
 30
0.0
 10
112.8901
 20
-140.9059
 30
0.0
 10
112.8901
 20
-140.9059
 30
0.0
 10
112.8901
 20
-140.9059
 30
0.0
 10
111.3132
 20
-139.9714
 30
0.0
 10
111.3132
 20
-139.9714
 30
0.0
 10
111.3132
 20
-139.9714
 30
0.0
 10
111.3132
 20
-139.9714
 30
0.0
 10
109.9442
 20
-141.1884
 30
0.0
 10
109.9442
 20
-141.1884
 30
0.0
 10
109.9442
 20
-141.1884
 30
0.0
 10
109.9442
 20
-141.1884
 30
0.0
 10
108.5758
 20
-139.9714
 30
0.0
 10
108.5758
 20
-139.9714
 30
0.0
 10
108.5758
 20
-139.9714
 30
0.0
 10
108.5758
 20
-139.9714
 30
0.0
 10
107.0023
 20
-140.9059
 30
0.0
 10
107.0023
 20
-140.9059
 30
0.0
 10
107.0023
 20
-140.9059
 30
0.0
 10
107.0023
 20
-140.9059
 30
0.0
 10
105.8906
 20
-139.4526
 30
0.0
 10
105.8906
 20
-139.4526
 30
0.0
 10
105.8906
 20
-139.4526
 30
0.0
 10
105.8906
 20
-139.4526
 30
0.0
 10
104.1657
 20
-140.0733
 30
0.0
 10
104.1657
 20
-140.0733
 30
0.0
 10
104.1657
 20
-140.0733
 30
0.0
 10
104.1657
 20
-140.0733
 30
0.0
 10
103.3473
 20
-138.4366
 30
0.0
 10
103.3473
 20
-138.4366
 30
0.0
 10
103.3473
 20
-138.4366
 30
0.0
 10
103.3473
 20
-138.4366
 30
0.0
 10
101.5375
 20
-138.7185
 30
0.0
 10
101.5375
 20
-138.7185
 30
0.0
 10
101.5375
 20
-138.7185
 30
0.0
 10
101.5375
 20
-138.7185
 30
0.0
 10
101.0438
 20
-136.9548
 30
0.0
 10
101.0438
 20
-136.9548
 30
0.0
 10
101.0438
 20
-136.9548
 30
0.0
 10
101.0438
 20
-136.9548
 30
0.0
 10
99.2163
 20
-136.891
 30
0.0
 10
99.2163
 20
-136.891
 30
0.0
 10
99.2163
 20
-136.891
 30
0.0
 10
99.2163
 20
-136.891
 30
0.0
 10
99.0642
 20
-135.0676
 30
0.0
 10
99.0642
 20
-135.0676
 30
0.0
 10
99.0642
 20
-135.0676
 30
0.0
 10
99.0642
 20
-135.0676
 30
0.0
 10
97.27949999999999
 20
-134.6581
 30
0.0
 10
97.27949999999999
 20
-134.6581
 30
0.0
 10
97.27949999999999
 20
-134.6581
 30
0.0
 10
97.27949999999999
 20
-134.6581
 30
0.0
 10
97.47720000000001
 20
-132.8381
 30
0.0
 10
97.47720000000001
 20
-132.8381
 30
0.0
 10
97.47720000000001
 20
-132.8381
 30
0.0
 10
97.47720000000001
 20
-132.8381
 30
0.0
 10
95.80110000000001
 20
-132.0972
 30
0.0
 10
95.80110000000001
 20
-132.0972
 30
0.0
 10
95.80110000000001
 20
-132.0972
 30
0.0
 10
95.80110000000001
 20
-132.0972
 30
0.0
 10
96.3376
 20
-130.3471
 30
0.0
 10
96.3376
 20
-130.3471
 30
0.0
 10
96.3376
 20
-130.3471
 30
0.0
 10
96.3376
 20
-130.3471
 30
0.0
 10
94.8348
 20
-129.3034
 30
0.0
 10
94.8348
 20
-129.3034
 30
0.0
 10
94.8348
 20
-129.3034
 30
0.0
 10
94.8348
 20
-129.3034
 30
0.0
 10
95.69180000000001
 20
-127.6871
 30
0.0
 10
95.69180000000001
 20
-127.6871
 30
0.0
 10
95.69180000000001
 20
-127.6871
 30
0.0
 10
95.69180000000001
 20
-127.6871
 30
0.0
 10
94.41169999999999
 20
-126.3785
 30
0.0
 10
94.41169999999999
 20
-126.3785
 30
0.0
 10
94.41169999999999
 20
-126.3785
 30
0.0
 10
94.41169999999999
 20
-126.3785
 30
0.0
 10
95.5648
 20
-124.9537
 30
0.0
 10
95.5648
 20
-124.9537
 30
0.0
 10
95.5648
 20
-124.9537
 30
0.0
 10
95.5648
 20
-124.9537
 30
0.0
 10
94.5523
 20
-123.4257
 30
0.0
 10
94.5523
 20
-123.4257
 30
0.0
 10
94.5523
 20
-123.4257
 30
0.0
 10
94.5523
 20
-123.4257
 30
0.0
 10
95.95260000000001
 20
-122.2441
 30
0.0
 10
95.95260000000001
 20
-122.2441
 30
0.0
 10
95.95260000000001
 20
-122.2441
 30
0.0
 10
95.95260000000001
 20
-122.2441
 30
0.0
 10
95.25109999999999
 20
-120.5504
 30
0.0
 10
95.25109999999999
 20
-120.5504
 30
0.0
 10
95.25109999999999
 20
-120.5504
 30
0.0
 10
95.25109999999999
 20
-120.5504
 30
0.0
 10
96.84899999999998
 20
-119.6546
 30
0.0
 10
96.84899999999998
 20
-119.6546
 30
0.0
 10
96.84899999999998
 20
-119.6546
 30
0.0
 10
96.84899999999998
 20
-119.6546
 30
0.0
 10
96.4789
 20
-117.8625
 30
0.0
 10
96.4789
 20
-117.8625
 30
0.0
 10
96.4789
 20
-117.8625
 30
0.0
 10
96.4789
 20
-117.8625
 30
0.0
 10
98.21810000000001
 20
-117.2839
 30
0.0
 10
98.21810000000001
 20
-117.2839
 30
0.0
 10
98.21810000000001
 20
-117.2839
 30
0.0
 10
98.21810000000001
 20
-117.2839
 30
0.0
 10
98.1929
 20
-115.453
 30
0.0
 10
98.1929
 20
-115.453
 30
0.0
 10
98.1929
 20
-115.453
 30
0.0
 10
98.1929
 20
-115.453
 30
0.0
 10
100.0102
 20
-115.2167
 30
0.0
 10
100.0102
 20
-115.2167
 30
0.0
 10
100.0102
 20
-115.2167
 30
0.0
 10
100.0102
 20
-115.2167
 30
0.0
 10
100.3342
 20
-113.4137
 30
0.0
 10
100.3342
 20
-113.4137
 30
0.0
 10
100.3342
 20
-113.4137
 30
0.0
 10
100.3342
 20
-113.4137
 30
0.0
 10
102.1616
 20
-113.523
 30
0.0
 10
102.1616
 20
-113.523
 30
0.0
 10
102.1616
 20
-113.523
 30
0.0
 10
102.1616
 20
-113.523
 30
0.0
 10
102.8217
 20
-111.8157
 30
0.0
 10
102.8217
 20
-111.8157
 30
0.0
 10
102.8217
 20
-111.8157
 30
0.0
 10
102.8217
 20
-111.8157
 30
0.0
 10
104.5928
 20
-112.2707
 30
0.0
 10
104.5928
 20
-112.2707
 30
0.0
 10
104.5928
 20
-112.2707
 30
0.0
 10
104.5928
 20
-112.2707
 30
0.0
 10
105.566
 20
-110.7156
 30
0.0
 10
105.566
 20
-110.7156
 30
0.0
 10
105.566
 20
-110.7156
 30
0.0
 10
105.566
 20
-110.7156
 30
0.0
 10
107.2209
 20
-111.4986
 30
0.0
 10
107.2209
 20
-111.4986
 30
0.0
 10
107.2209
 20
-111.4986
 30
0.0
 10
107.2209
 20
-111.4986
 30
0.0
 10
108.4657
 20
-110.158
 30
0.0
 10
108.4657
 20
-110.158
 30
0.0
 10
108.4657
 20
-110.158
 30
0.0
 10
108.4657
 20
-110.158
 30
0.0
 10
109.9442
 20
-111.2405
 30
0.0
 10
109.9442
 20
-111.2405
 30
0.0
  0
SPLINE
  5
96
330
1F
100
AcDbEntity
  8
Layer 1
 62
     7
100
AcDbSpline
210
0.0
220
0.0
230
1.0
 70
    11
 71
     3
 72
   108
 73
   104
 74
     0
 42
0.0000000001
 43
0.0000000001
 40
0.0
 40
0.0
 40
0.0
 40
0.0
 40
0.037037037037037
 40
0.037037037037037
 40
0.037037037037037
 40
0.0555555555555556
 40
0.0740740740740741
 40
0.0740740740740741
 40
0.0740740740740741
 40
0.0925925925925926
 40
0.1111111111111111
 40
0.1111111111111111
 40
0.1111111111111111
 40
0.1296296296296296
 40
0.1481481481481481
 40
0.1481481481481481
 40
0.1481481481481481
 40
0.1666666666666666
 40
0.1851851851851852
 40
0.1851851851851852
 40
0.1851851851851852
 40
0.2037037037037037
 40
0.2222222222222222
 40
0.2222222222222222
 40
0.2222222222222222
 40
0.2407407407407407
 40
0.2592592592592592
 40
0.2592592592592592
 40
0.2592592592592592
 40
0.2777777777777777
 40
0.2962962962962963
 40
0.2962962962962963
 40
0.2962962962962963
 40
0.3148148148148148
 40
0.3333333333333333
 40
0.3333333333333333
 40
0.3333333333333333
 40
0.3518518518518518
 40
0.3703703703703703
 40
0.3703703703703703
 40
0.3703703703703703
 40
0.3888888888888888
 40
0.4074074074074074
 40
0.4074074074074074
 40
0.4074074074074074
 40
0.4259259259259261
 40
0.4444444444444445
 40
0.4444444444444445
 40
0.4444444444444445
 40
0.462962962962963
 40
0.4814814814814815
 40
0.4814814814814815
 40
0.4814814814814815
 40
0.5
 40
0.5185185185185186
 40
0.5185185185185186
 40
0.5185185185185186
 40
0.5370370370370372
 40
0.5555555555555556
 40
0.5555555555555556
 40
0.5555555555555556
 40
0.5740740740740741
 40
0.5925925925925926
 40
0.5925925925925926
 40
0.5925925925925926
 40
0.6111111111111112
 40
0.6296296296296297
 40
0.6296296296296297
 40
0.6296296296296297
 40
0.6481481481481481
 40
0.6666666666666666
 40
0.6666666666666666
 40
0.6666666666666666
 40
0.6851851851851852
 40
0.7037037037037038
 40
0.7037037037037038
 40
0.7037037037037038
 40
0.7222222222222224
 40
0.7407407407407407
 40
0.7407407407407407
 40
0.7407407407407407
 40
0.7592592592592595
 40
0.7777777777777778
 40
0.7777777777777778
 40
0.7777777777777778
 40
0.7962962962962963
 40
0.8148148148148147
 40
0.8148148148148147
 40
0.8148148148148147
 40
0.8333333333333332
 40
0.8518518518518519
 40
0.8518518518518519
 40
0.8518518518518519
 40
0.8703703703703704
 40
0.8888888888888889
 40
0.8888888888888889
 40
0.8888888888888889
 40
0.9074074074074074
 40
0.9259259259259259
 40
0.9259259259259259
 40
0.9259259259259259
 40
0.9629629629629627
 40
1.0
 40
1.0
 40
1.0
 40
1.0
 10
35.9802
 20
-175.697
 30
0.0
 10
35.9802
 20
-175.697
 30
0.0
 10
38.4467
 20
-175.697
 30
0.0
 10
38.4467
 20
-175.697
 30
0.0
 10
38.4467
 20
-175.697
 30
0.0
 10
38.4467
 20
-175.697
 30
0.0
 10
42.793
 20
-165.3217
 30
0.0
 10
42.793
 20
-165.3217
 30
0.0
 10
42.793
 20
-165.3217
 30
0.0
 10
42.793
 20
-165.3217
 30
0.0
 10
45.4455
 20
-163.6246
 30
0.0
 10
45.4455
 20
-163.6246
 30
0.0
 10
45.4455
 20
-163.6246
 30
0.0
 10
45.4455
 20
-163.6246
 30
0.0
 10
51.2702
 20
-164.0762
 30
0.0
 10
51.2702
 20
-164.0762
 30
0.0
 10
51.2702
 20
-164.0762
 30
0.0
 10
51.2702
 20
-164.0762
 30
0.0
 10
58.2127
 20
-160.5843
 30
0.0
 10
58.2127
 20
-160.5843
 30
0.0
 10
58.2127
 20
-160.5843
 30
0.0
 10
58.2127
 20
-160.5843
 30
0.0
 10
58.9747
 20
-157.0563
 30
0.0
 10
58.9747
 20
-157.0563
 30
0.0
 10
58.9747
 20
-157.0563
 30
0.0
 10
58.9747
 20
-157.0563
 30
0.0
 10
59.0949
 20
-153.1012
 30
0.0
 10
59.0949
 20
-153.1012
 30
0.0
 10
59.0949
 20
-153.1012
 30
0.0
 10
59.0949
 20
-153.1012
 30
0.0
 10
62.3967
 20
-150.0534
 30
0.0
 10
62.3967
 20
-150.0534
 30
0.0
 10
62.3967
 20
-150.0534
 30
0.0
 10
62.3967
 20
-150.0534
 30
0.0
 10
64.235
 20
-149.1821
 30
0.0
 10
64.235
 20
-149.1821
 30
0.0
 10
64.235
 20
-149.1821
 30
0.0
 10
64.235
 20
-149.1821
 30
0.0
 10
64.19629999999999
 20
-145.1496
 30
0.0
 10
64.19629999999999
 20
-145.1496
 30
0.0
 10
64.19629999999999
 20
-145.1496
 30
0.0
 10
64.19629999999999
 20
-145.1496
 30
0.0
 10
62.0931
 20
-141.132
 30
0.0
 10
62.0931
 20
-141.132
 30
0.0
 10
62.0931
 20
-141.132
 30
0.0
 10
62.0931
 20
-141.132
 30
0.0
 10
55.78899999999999
 20
-134.5562
 30
0.0
 10
55.78899999999999
 20
-134.5562
 30
0.0
 10
55.78899999999999
 20
-134.5562
 30
0.0
 10
55.78899999999999
 20
-134.5562
 30
0.0
 10
51.7782
 20
-130.8517
 30
0.0
 10
51.7782
 20
-130.8517
 30
0.0
 10
51.7782
 20
-130.8517
 30
0.0
 10
51.7782
 20
-130.8517
 30
0.0
 10
48.88519999999999
 20
-130.2487
 30
0.0
 10
48.88519999999999
 20
-130.2487
 30
0.0
 10
48.88519999999999
 20
-130.2487
 30
0.0
 10
48.88519999999999
 20
-130.2487
 30
0.0
 10
45.1243
 20
-130.7777
 30
0.0
 10
45.1243
 20
-130.7777
 30
0.0
 10
45.1243
 20
-130.7777
 30
0.0
 10
45.1243
 20
-130.7777
 30
0.0
 10
42.60209999999999
 20
-133.0181
 30
0.0
 10
42.60209999999999
 20
-133.0181
 30
0.0
 10
42.60209999999999
 20
-133.0181
 30
0.0
 10
42.60209999999999
 20
-133.0181
 30
0.0
 10
38.0229
 20
-133.3318
 30
0.0
 10
38.0229
 20
-133.3318
 30
0.0
 10
38.0229
 20
-133.3318
 30
0.0
 10
38.0229
 20
-133.3318
 30
0.0
 10
36.552
 20
-136.256
 30
0.0
 10
36.552
 20
-136.256
 30
0.0
 10
36.552
 20
-136.256
 30
0.0
 10
36.552
 20
-136.256
 30
0.0
 10
30.6995
 20
-137.7242
 30
0.0
 10
30.6995
 20
-137.7242
 30
0.0
 10
30.6995
 20
-137.7242
 30
0.0
 10
30.6995
 20
-137.7242
 30
0.0
 10
23.8202
 20
-149.5529
 30
0.0
 10
23.8202
 20
-149.5529
 30
0.0
 10
23.8202
 20
-149.5529
 30
0.0
 10
23.8202
 20
-149.5529
 30
0.0
 10
17.9004
 20
-153.472
 30
0.0
 10
17.9004
 20
-153.472
 30
0.0
 10
17.9004
 20
-153.472
 30
0.0
 10
17.9004
 20
-153.472
 30
0.0
 10
22.5081
 20
-163.5363
 30
0.0
 10
22.5081
 20
-163.5363
 30
0.0
 10
22.5081
 20
-163.5363
 30
0.0
 10
22.5081
 20
-163.5363
 30
0.0
 10
24.064
 20
-165.0113
 30
0.0
 10
24.064
 20
-165.0113
 30
0.0
 10
24.064
 20
-165.0113
 30
0.0
 10
24.064
 20
-165.0113
 30
0.0
 10
25.069
 20
-168.2181
 30
0.0
 10
25.069
 20
-168.2181
 30
0.0
 10
25.069
 20
-168.2181
 30
0.0
 10
25.069
 20
-168.2181
 30
0.0
 10
27.2707
 20
-171.8343
 30
0.0
 10
27.2707
 20
-171.8343
 30
0.0
 10
27.2707
 20
-171.8343
 30
0.0
 10
27.2707
 20
-171.8343
 30
0.0
 10
35.9802
 20
-175.697
 30
0.0
 10
35.9802
 20
-175.697
 30
0.0
  0
SPLINE
  5
BD
330
1F
100
AcDbEntity
  8
Layer 1
 62
     7
100
AcDbSpline
210
0.0
220
0.0
230
1.0
 70
     9
 71
     3
 72
    36
 73
    32
 74
     0
 42
0.0000000001
 43
0.0000000001
 40
0.0
 40
0.0
 40
0.0
 40
0.0
 40
0.1111111111111111
 40
0.1111111111111111
 40
0.1111111111111111
 40
0.1666666666666666
 40
0.2222222222222222
 40
0.2222222222222222
 40
0.2222222222222222
 40
0.2777777777777778
 40
0.3333333333333333
 40
0.3333333333333333
 40
0.3333333333333333
 40
0.3888888888888888
 40
0.4444444444444445
 40
0.4444444444444445
 40
0.4444444444444445
 40
0.5
 40
0.5555555555555556
 40
0.5555555555555556
 40
0.5555555555555556
 40
0.6111111111111112
 40
0.6666666666666666
 40
0.6666666666666666
 40
0.6666666666666666
 40
0.7222222222222224
 40
0.7777777777777778
 40
0.7777777777777778
 40
0.7777777777777778
 40
0.8888888888888889
 40
1.0
 40
1.0
 40
1.0
 40
1.0
 10
109.3554
 20
-148.4235
 30
0.0
 10
107.2067
 20
-148.4235
 30
0.0
 10
105.1673
 20
-148.0392
 30
0.0
 10
103.1918
 20
-147.4993
 30
0.0
 10
103.1918
 20
-147.4993
 30
0.0
 10
102.5535
 20
-147.3227
 30
0.0
 10
101.9253
 20
-147.1393
 30
0.0
 10
101.3114
 20
-146.9139
 30
0.0
 10
101.3114
 20
-146.9139
 30
0.0
 10
92.35129999999999
 20
-143.6155
 30
0.0
 10
85.9093
 20
-135.071
 30
0.0
 10
85.9093
 20
-124.9815
 30
0.0
 10
85.9093
 20
-124.9815
 30
0.0
 10
85.9093
 20
-116.0459
 30
0.0
 10
90.9931
 20
-108.355
 30
0.0
 10
98.36199999999999
 20
-104.4006
 30
0.0
 10
98.36199999999999
 20
-104.4006
 30
0.0
 10
98.95560000000001
 20
-104.0828
 30
0.0
 10
99.50560000000001
 20
-103.7093
 30
0.0
 10
100.1263
 20
-103.4444
 30
0.0
 10
100.1263
 20
-103.4444
 30
0.0
 10
102.963
 20
-102.2241
 30
0.0
 10
106.0773
 20
-101.5361
 30
0.0
 10
109.3554
 20
-101.5361
 30
0.0
 10
109.3554
 20
-101.5361
 30
0.0
 10
122.2808
 20
-101.5361
 30
0.0
 10
132.7974
 20
-112.0521
 30
0.0
 10
132.7974
 20
-124.9815
 30
0.0
 10
132.7974
 20
-124.9815
 30
0.0
 10
132.7974
 20
-137.9076
 30
0.0
 10
122.2808
 20
-148.4235
 30
0.0
 10
109.3554
 20
-148.4235
 30
0.0
  0
SPLINE
  5
BE
330
1F
100
AcDbEntity
  8
Layer 1
 62
     7
100
AcDbSpline
210
0.0
220
0.0
230
1.0
 70
     9
 71
     3
 72
    44
 73
    40
 74
     0
 42
0.0000000001
 43
0.0000000001
 40
0.0
 40
0.0
 40
0.0
 40
0.0
 40
0.0909090909090909
 40
0.0909090909090909
 40
0.0909090909090909
 40
0.1363636363636363
 40
0.1818181818181818
 40
0.1818181818181818
 40
0.1818181818181818
 40
0.2272727272727272
 40
0.2727272727272727
 40
0.2727272727272727
 40
0.2727272727272727
 40
0.3181818181818181
 40
0.3636363636363636
 40
0.3636363636363636
 40
0.3636363636363636
 40
0.4090909090909091
 40
0.4545454545454545
 40
0.4545454545454545
 40
0.4545454545454545
 40
0.5
 40
0.5454545454545455
 40
0.5454545454545455
 40
0.5454545454545455
 40
0.590909090909091
 40
0.6363636363636364
 40
0.6363636363636364
 40
0.6363636363636364
 40
0.6818181818181819
 40
0.7272727272727275
 40
0.7272727272727275
 40
0.7272727272727275
 40
0.7727272727272727
 40
0.8181818181818181
 40
0.8181818181818181
 40
0.8181818181818181
 40
0.9090909090909091
 40
1.0
 40
1.0
 40
1.0
 40
1.0
 10
3.3553
 20
-231.6301
 30
0.0
 10
-45.2855
 20
-231.6301
 30
0.0
 10
-85.7737
 20
-196.3839
 30
0.0
 10
-94.1172
 20
-150.1064
 30
0.0
 10
-94.1172
 20
-150.1064
 30
0.0
 10
-81.3677
 20
-148.7658
 30
0.0
 10
-71.35559999999998
 20
-138.0801
 30
0.0
 10
-71.35559999999998
 20
-124.9815
 30
0.0
 10
-71.35559999999998
 20
-124.9815
 30
0.0
 10
-71.35559999999998
 20
-113.3118
 30
0.0
 10
-79.3147
 20
-103.5538
 30
0.0
 10
-90.0561
 20
-100.5976
 30
0.0
 10
-90.0561
 20
-100.5976
 30
0.0
 10
-76.82380000000001
 20
-61.4357
 30
0.0
 10
-39.8771
 20
-33.1177
 30
0.0
 10
3.697599999999998
 20
-33.1177
 30
0.0
 10
3.697599999999998
 20
-33.1177
 30
0.0
 10
47.8903
 20
-33.1177
 30
0.0
 10
85.26419999999998
 20
-62.2506
 30
0.0
 10
98.00620000000002
 20
-102.277
 30
0.0
 10
98.00620000000002
 20
-102.277
 30
0.0
 10
98.00620000000002
 20
-102.277
 30
0.0
 10
98.03060000000002
 20
-102.3755
 30
0.0
 10
98.03060000000002
 20
-102.3755
 30
0.0
 10
98.03060000000002
 20
-102.3755
 30
0.0
 10
97.74129999999999
 20
-102.5412
 30
0.0
 10
98.10870000000001
 20
-102.3436
 30
0.0
 10
97.812
 20
-102.4957
 30
0.0
 10
97.812
 20
-102.4957
 30
0.0
 10
89.63079999999997
 20
-106.715
 30
0.0
 10
83.9657
 20
-115.1569
 30
0.0
 10
83.9657
 20
-124.9815
 30
0.0
 10
83.9657
 20
-124.9815
 30
0.0
 10
83.9657
 20
-136.0448
 30
0.0
 10
91.12350000000001
 20
-145.3791
 30
0.0
 10
101.0153
 20
-148.8507
 30
0.0
 10
101.0153
 20
-148.8507
 30
0.0
 10
93.1873
 20
-195.7415
 30
0.0
 10
52.4376
 20
-231.6301
 30
0.0
 10
3.3553
 20
-231.6301
 30
0.0
  0
SPLINE
  5
BF
330
1F
100
AcDbEntity
  8
Layer 1
 62
     7
100
AcDbSpline
210
0.0
220
0.0
230
1.0
 70
     9
 71
     3
 72
    36
 73
    32
 74
     0
 42
0.0000000001
 43
0.0000000001
 40
0.0
 40
0.0
 40
0.0
 40
0.0
 40
0.1111111111111111
 40
0.1111111111111111
 40
0.1111111111111111
 40
0.1666666666666666
 40
0.2222222222222222
 40
0.2222222222222222
 40
0.2222222222222222
 40
0.2777777777777778
 40
0.3333333333333333
 40
0.3333333333333333
 40
0.3333333333333333
 40
0.3888888888888888
 40
0.4444444444444445
 40
0.4444444444444445
 40
0.4444444444444445
 40
0.5
 40
0.5555555555555556
 40
0.5555555555555556
 40
0.5555555555555556
 40
0.6111111111111112
 40
0.6666666666666666
 40
0.6666666666666666
 40
0.6666666666666666
 40
0.7222222222222224
 40
0.7777777777777778
 40
0.7777777777777778
 40
0.7777777777777778
 40
0.8888888888888889
 40
1.0
 40
1.0
 40
1.0
 40
1.0
 10
-96.34669999999999
 20
-148.3848
 30
0.0
 10
-96.48380000000001
 20
-148.3848
 30
0.0
 10
-96.6108
 20
-148.4235
 30
0.0
 10
-96.7487
 20
-148.4235
 30
0.0
 10
-96.7487
 20
-148.4235
 30
0.0
 10
-109.6748
 20
-148.4235
 30
0.0
 10
-120.1907
 20
-137.9076
 30
0.0
 10
-120.1907
 20
-124.9815
 30
0.0
 10
-120.1907
 20
-124.9815
 30
0.0
 10
-120.1907
 20
-112.0521
 30
0.0
 10
-109.6748
 20
-101.5361
 30
0.0
 10
-96.7487
 20
-101.5361
 30
0.0
 10
-96.7487
 20
-101.5361
 30
0.0
 10
-95.4503
 20
-101.5361
 30
0.0
 10
-94.20140000000001
 20
-101.7161
 30
0.0
 10
-92.96339999999998
 20
-101.9205
 30
0.0
 10
-92.96339999999998
 20
-101.9205
 30
0.0
 10
-92.3108
 20
-102.0265
 30
0.0
 10
-92.74469999999999
 20
-101.9416
 30
0.0
 10
-91.04080000000001
 20
-102.3225
 30
0.0
 10
-91.04080000000001
 20
-102.3225
 30
0.0
 10
-80.8774
 20
-104.8875
 30
0.0
 10
-73.3033
 20
-114.031
 30
0.0
 10
-73.3033
 20
-124.9815
 30
0.0
 10
-73.3033
 20
-124.9815
 30
0.0
 10
-73.3033
 20
-137.1063
 30
0.0
 10
-82.5914
 20
-146.9947
 30
0.0
 10
-94.40989999999999
 20
-148.1872
 30
0.0
 10
-94.40989999999999
 20
-148.1872
 30
0.0
 10
-95.05500000000001
 20
-148.2544
 30
0.0
 10
-95.68659999999999
 20
-148.374
 30
0.0
 10
-96.34669999999999
 20
-148.3848
 30
0.0
  0
SPLINE
  5
C0
330
1F
100
AcDbEntity
  8
Layer 1
 62
     7
100
AcDbSpline
210
0.0
220
0.0
230
1.0
 70
     9
 71
     3
 72
    56
 73
    52
 74
     0
 42
0.0000000001
 43
0.0000000001
 40
0.0
 40
0.0
 40
0.0
 40
0.0
 40
0.0714285714285714
 40
0.0714285714285714
 40
0.0714285714285714
 40
0.1071428571428571
 40
0.1428571428571428
 40
0.1428571428571428
 40
0.1428571428571428
 40
0.1785714285714286
 40
0.2142857142857143
 40
0.2142857142857143
 40
0.2142857142857143
 40
0.25
 40
0.2857142857142857
 40
0.2857142857142857
 40
0.2857142857142857
 40
0.3214285714285714
 40
0.3571428571428572
 40
0.3571428571428572
 40
0.3571428571428572
 40
0.3928571428571428
 40
0.4285714285714285
 40
0.4285714285714285
 40
0.4285714285714285
 40
0.4642857142857144
 40
0.5
 40
0.5
 40
0.5
 40
0.5357142857142857
 40
0.5714285714285714
 40
0.5714285714285714
 40
0.5714285714285714
 40
0.6071428571428572
 40
0.6428571428571429
 40
0.6428571428571429
 40
0.6428571428571429
 40
0.6785714285714288
 40
0.7142857142857145
 40
0.7142857142857145
 40
0.7142857142857145
 40
0.75
 40
0.7857142857142857
 40
0.7857142857142857
 40
0.7857142857142857
 40
0.8214285714285713
 40
0.8571428571428571
 40
0.8571428571428571
 40
0.8571428571428571
 40
0.9285714285714286
 40
1.0
 40
1.0
 40
1.0
 40
1.0
 10
109.3554
 20
-99.58849999999999
 30
0.0
 10
105.968
 20
-99.58849999999999
 30
0.0
 10
102.7402
 20
-100.273
 30
0.0
 10
99.7841
 20
-101.4798
 30
0.0
 10
99.7841
 20
-101.4798
 30
0.0
 10
86.7351
 20
-60.7756
 30
0.0
 10
48.6876
 20
-31.1707
 30
0.0
 10
3.697599999999998
 20
-31.1707
 30
0.0
 10
3.697599999999998
 20
-31.1707
 30
0.0
 10
-40.7803
 20
-31.1707
 30
0.0
 10
-78.4855
 20
-60.1128
 30
0.0
 10
-91.94
 20
-100.1175
 30
0.0
 10
-91.94
 20
-100.1175
 30
0.0
 10
-92.05339999999999
 20
-100.093
 30
0.0
 10
-92.16269999999999
 20
-100.0611
 30
0.0
 10
-92.27540000000001
 20
-100.0435
 30
0.0
 10
-92.27540000000001
 20
-100.0435
 30
0.0
 10
-93.7321
 20
-99.78270000000001
 30
0.0
 10
-95.21729999999999
 20
-99.58849999999999
 30
0.0
 10
-96.7487
 20
-99.58849999999999
 30
0.0
 10
-96.7487
 20
-99.58849999999999
 30
0.0
 10
-110.7471
 20
-99.58849999999999
 30
0.0
 10
-122.1377
 20
-110.9798
 30
0.0
 10
-122.1377
 20
-124.9815
 30
0.0
 10
-122.1377
 20
-124.9815
 30
0.0
 10
-122.1377
 20
-138.9833
 30
0.0
 10
-110.7471
 20
-150.3712
 30
0.0
 10
-96.7487
 20
-150.3712
 30
0.0
 10
-96.7487
 20
-150.3712
 30
0.0
 10
-96.509
 20
-150.3712
 30
0.0
 10
-96.2903
 20
-150.3074
 30
0.0
 10
-96.05400000000001
 20
-150.3006
 30
0.0
 10
-96.05400000000001
 20
-150.3006
 30
0.0
 10
-87.60799999999997
 20
-197.5622
 30
0.0
 10
-46.298
 20
-233.5771
 30
0.0
 10
3.3553
 20
-233.5771
 30
0.0
 10
3.3553
 20
-233.5771
 30
0.0
 10
53.3055
 20
-233.5771
 30
0.0
 10
94.8028
 20
-197.118
 30
0.0
 10
102.8923
 20
-149.4327
 30
0.0
 10
102.8923
 20
-149.4327
 30
0.0
 10
104.9704
 20
-149.9828
 30
0.0
 10
107.1082
 20
-150.3712
 30
0.0
 10
109.3554
 20
-150.3712
 30
0.0
 10
109.3554
 20
-150.3712
 30
0.0
 10
123.3531
 20
-150.3712
 30
0.0
 10
134.7444
 20
-138.9833
 30
0.0
 10
134.7444
 20
-124.9815
 30
0.0
 10
134.7444
 20
-124.9815
 30
0.0
 10
134.7444
 20
-110.9798
 30
0.0
 10
123.3531
 20
-99.58849999999999
 30
0.0
 10
109.3554
 20
-99.58849999999999
 30
0.0
  0
ENDSEC
  0
SECTION
  2
OBJECTS
  0
DICTIONARY
  5
C
330
0
100
AcDbDictionary
281
     1
  3
ACAD_2007HEADERVARS_RT
350
137
  3
ACAD_CIP_PREVIOUS_PRODUCT_INFO
350
104
  3
ACAD_COLOR
350
101
  3
ACAD_DETAILVIEWSTYLE
350
FD
  3
ACAD_GROUP
350
D
  3
ACAD_LAYOUT
350
1A
  3
ACAD_MATERIAL
350
43
  3
ACAD_MLEADERSTYLE
350
6B
  3
ACAD_MLINESTYLE
350
17
  3
ACAD_PLOTSETTINGS
350
19
  3
ACAD_PLOTSTYLENAME
350
E
  3
ACAD_SCALELIST
350
47
  3
ACAD_SECTIONVIEWSTYLE
350
FE
  3
ACAD_TABLESTYLE
350
69
  3
ACAD_VISUALSTYLE
350
2A
  3
ACDB_RECOMPOSE_DATA
350
135
  3
AcDbVariableDictionary
350
C2
  3
DWGPROPS
350
136
  0
DICTIONARY
  5
105
330
10
100
AcDbDictionary
280
     1
281
     1
  3
ADSK_XREC_LAYER_RECONCILED
360
106
  0
DICTIONARY
  5
107
330
6F
100
AcDbDictionary
280
     1
281
     1
  3
ADSK_XREC_LAYER_RECONCILED
360
108
  0
DICTIONARY
  5
137
102
{ACAD_REACTORS
330
C
102
}
330
C
100
AcDbDictionary
281
     1
  3
INTERFERECOLOR
350
138
  0
XRECORD
  5
104
102
{ACAD_REACTORS
330
C
102
}
330
C
100
AcDbXrecord
280
     1
300
ACD
300
2012
300
ACD_F_S
  0
DICTIONARY
  5
101
102
{ACAD_REACTORS
330
C
102
}
330
C
100
AcDbDictionary
281
     1
  0
DICTIONARY
  5
FD
102
{ACAD_REACTORS
330
C
102
}
330
C
100
AcDbDictionary
281
     1
  0
DICTIONARY
  5
D
102
{ACAD_REACTORS
330
C
102
}
330
C
100
AcDbDictionary
281
     1
  0
DICTIONARY
  5
1A
102
{ACAD_REACTORS
330
C
102
}
330
C
100
AcDbDictionary
281
     1
  3
Layout1
350
1E
  3
Layout2
350
26
  3
Model
350
22
  0
DICTIONARY
  5
43
102
{ACAD_REACTORS
330
C
102
}
330
C
100
AcDbDictionary
281
     1
  3
ByBlock
350
45
  3
ByLayer
350
44
  3
Global
350
46
  0
DICTIONARY
  5
6B
102
{ACAD_REACTORS
330
C
102
}
330
C
100
AcDbDictionary
281
     1
  3
Standard
350
6C
  0
DICTIONARY
  5
17
102
{ACAD_REACTORS
330
C
102
}
330
C
100
AcDbDictionary
281
     1
  3
Standard
350
18
  0
DICTIONARY
  5
19
102
{ACAD_REACTORS
330
C
102
}
330
C
100
AcDbDictionary
281
     1
  0
ACDBDICTIONARYWDFLT
  5
E
102
{ACAD_REACTORS
330
C
102
}
330
C
100
AcDbDictionary
281
     1
  3
Normal
350
F
100
AcDbDictionaryWithDefault
340
F
  0
DICTIONARY
  5
47
102
{ACAD_REACTORS
330
C
102
}
330
C
100
AcDbDictionary
281
     1
  3
A0
350
48
  3
A1
350
49
  3
A2
350
4A
  3
A3
350
4B
  3
A4
350
4C
  3
A5
350
4D
  3
A6
350
4E
  3
A7
350
4F
  3
A8
350
50
  3
A9
350
51
  3
B0
350
52
  3
B1
350
53
  3
B2
350
54
  3
B3
350
55
  3
B4
350
56
  3
B5
350
57
  3
B6
350
58
  3
B7
350
59
  3
B8
350
5A
  3
B9
350
5B
  3
C0
350
5C
  3
C1
350
5D
  3
C2
350
5E
  3
C3
350
5F
  3
C4
350
60
  3
C5
350
61
  3
C6
350
62
  3
C7
350
63
  3
C8
350
64
  3
C9
350
65
  3
D0
350
66
  3
D1
350
67
  3
D2
350
68
  0
DICTIONARY
  5
FE
102
{ACAD_REACTORS
330
C
102
}
330
C
100
AcDbDictionary
281
     1
  0
DICTIONARY
  5
69
102
{ACAD_REACTORS
330
C
102
}
330
C
100
AcDbDictionary
281
     1
  3
Standard
350
6A
  0
DICTIONARY
  5
2A
102
{ACAD_REACTORS
330
C
102
}
330
C
100
AcDbDictionary
281
     1
  3
2dWireframe
350
2F
  3
Basic
350
32
  3
Brighten
350
36
  3
ColorChange
350
3A
  3
Conceptual
350
34
  3
Dim
350
35
  3
EdgeColorOff
350
3D
  3
Facepattern
350
39
  3
Flat
350
2B
  3
FlatWithEdges
350
2C
  3
Gouraud
350
2D
  3
GouraudWithEdges
350
2E
  3
Hidden
350
31
  3
JitterOff
350
3B
  3
Linepattern
350
38
  3
OverhangOff
350
3C
  3
Realistic
350
33
  3
Shaded
350
42
  3
Shaded with edges
350
41
  3
Shades of Gray
350
3E
  3
Sketchy
350
3F
  3
Thicken
350
37
  3
Wireframe
350
30
  3
X-Ray
350
40
  0
XRECORD
  5
135
102
{ACAD_REACTORS
330
C
102
}
330
C
100
AcDbXrecord
280
     1
 90
        1
330
6A
  0
DICTIONARY
  5
C2
102
{ACAD_REACTORS
330
C
102
}
330
C
100
AcDbDictionary
281
     1
  3
CANNOSCALE
350
C3
  3
CMLEADERSTYLE
350
FC
  3
CTABLESTYLE
350
FB
  3
DGNFRAME
350
116
  3
DIMASSOC
350
115
  3
HIDETEXT
350
114
  3
INDEXCTL
350
113
  3
LAYEREVAL
350
10A
  3
LAYERNOTIFY
350
10B
  3
LIGHTINGUNITS
350
111
  3
LOFTANG1
350
131
  3
LOFTANG2
350
132
  3
MSLTSCALE
350
110
  3
SORTENTS
350
112
  3
XCLIPFRAME
350
133
  0
XRECORD
  5
136
102
{ACAD_REACTORS
330
C
102
}
330
C
100
AcDbXrecord
280
     1
  1
DWGPROPS COOKIE
  2

  3

  4

  6

  7

  8
Masoft
  9

300
=
301
=
302
=
303
=
304
=
305
=
306
=
307
=
308
=
309
=
 40
0.002747962962963
 41
2457648.624239931
 42
2459809.495918658
  1

 90
        0
  0
XRECORD
  5
106
102
{ACAD_REACTORS
330
105
102
}
330
105
100
AcDbXrecord
280
     1
290
     1
  0
XRECORD
  5
108
102
{ACAD_REACTORS
330
107
102
}
330
107
100
AcDbXrecord
280
     1
290
     1
  0
XRECORD
  5
138
102
{ACAD_REACTORS
330
137
102
}
330
137
100
AcDbXrecord
280
     1
1004
1800000001000000000000C0000000000000000000000000
  0
LAYOUT
  5
1E
102
{ACAD_XDICTIONARY
360
139
102
}
102
{ACAD_REACTORS
330
1A
102
}
330
1A
100
AcDbPlotSettings
  1

  2
none_device
  4

  6

 40
0.0
 41
0.0
 42
0.0
 43
0.0
 44
0.0
 45
0.0
 46
0.0
 47
0.0
 48
0.0
 49
0.0
140
0.0
141
0.0
142
1.0
143
1.0
 70
   688
 72
     0
 73
     0
 74
     5
  7

 75
    16
147
1.0
148
0.0
149
0.0
100
AcDbLayout
  1
Layout1
 70
     1
 71
     1
 10
0.0
 20
0.0
 11
12.0
 21
9.0
 12
0.0
 22
0.0
 32
0.0
 14
1.000000000000000E+20
 24
1.000000000000000E+20
 34
1.000000000000000E+20
 15
-1.000000000000000E+20
 25
-1.000000000000000E+20
 35
-1.000000000000000E+20
146
0.0
 13
0.0
 23
0.0
 33
0.0
 16
1.0
 26
0.0
 36
0.0
 17
0.0
 27
1.0
 37
0.0
 76
     0
330
1B
  0
LAYOUT
  5
26
102
{ACAD_XDICTIONARY
360
13D
102
}
102
{ACAD_REACTORS
330
1A
102
}
330
1A
100
AcDbPlotSettings
  1

  2
none_device
  4

  6

 40
0.0
 41
0.0
 42
0.0
 43
0.0
 44
0.0
 45
0.0
 46
0.0
 47
0.0
 48
0.0
 49
0.0
140
0.0
141
0.0
142
1.0
143
1.0
 70
   688
 72
     0
 73
     0
 74
     5
  7

 75
    16
147
1.0
148
0.0
149
0.0
100
AcDbLayout
  1
Layout2
 70
     1
 71
     2
 10
0.0
 20
0.0
 11
0.0
 21
0.0
 12
0.0
 22
0.0
 32
0.0
 14
0.0
 24
0.0
 34
0.0
 15
0.0
 25
0.0
 35
0.0
146
0.0
 13
0.0
 23
0.0
 33
0.0
 16
1.0
 26
0.0
 36
0.0
 17
0.0
 27
1.0
 37
0.0
 76
     0
330
23
  0
LAYOUT
  5
22
102
{ACAD_XDICTIONARY
360
13B
102
}
102
{ACAD_REACTORS
330
1A
102
}
330
1A
100
AcDbPlotSettings
  1

  2
none_device
  4
Letter_(8.50_x_11.00_Inches)
  6

 40
6.349999999999998
 41
6.349999999999998
 42
6.350005079999998
 43
6.350005079999998
 44
215.9
 45
279.4
 46
0.0
 47
0.0
 48
0.0
 49
0.0
140
0.0
141
0.0
142
1.0
143
1.0
 70
  1712
 72
     0
 73
     0
 74
     0
  7

 75
     0
147
1.0
148
0.0
149
0.0
100
AcDbLayout
  1
Model
 70
     1
 71
     0
 10
0.0
 20
0.0
 11
12.0
 21
9.0
 12
0.0
 22
0.0
 32
0.0
 14
-497.9459
 24
-439.032
 34
0.0
 15
498.1575
 25
439.3215
 35
0.0
146
0.0
 13
0.0
 23
0.0
 33
0.0
 16
1.0
 26
0.0
 36
0.0
 17
0.0
 27
1.0
 37
0.0
 76
     0
330
1F
331
29
  0
MATERIAL
  5
45
102
{ACAD_XDICTIONARY
360
128
102
}
102
{ACAD_REACTORS
330
43
102
}
330
43
100
AcDbMaterial
  1
ByBlock
  0
MATERIAL
  5
44
102
{ACAD_XDICTIONARY
360
126
102
}
102
{ACAD_REACTORS
330
43
102
}
330
43
100
AcDbMaterial
  1
ByLayer
  0
MATERIAL
  5
46
102
{ACAD_XDICTIONARY
360
12A
102
}
102
{ACAD_REACTORS
330
43
102
}
330
43
100
AcDbMaterial
  1
Global
  0
MLEADERSTYLE
  5
6C
102
{ACAD_REACTORS
330
6B
102
}
330
6B
100
AcDbMLeaderStyle
170
     2
171
     1
172
     0
 90
        2
 40
0.0
 41
0.0
173
     1
 91
-1056964608
340
14
 92
       -2
290
     1
 42
0.09
291
     1
 43
0.36
  3
Standard
 44
0.18
300

342
11
174
     1
178
     6
175
     1
176
     0
 93
-1056964608
 45
0.18
292
     0
297
     0
 46
0.18
 94
-1056964608
 47
1.0
 49
1.0
140
1.0
293
     1
141
0.0
294
     1
177
     0
142
1.0
295
     0
296
     0
143
0.125
1001
ACAD_MLEADERVER
1070
     2
  0
MLINESTYLE
  5
18
102
{ACAD_REACTORS
330
17
102
}
330
17
100
AcDbMlineStyle
  2
STANDARD
 70
     0
  3

 62
   256
 51
90.0
 52
90.0
 71
     2
 49
0.5
 62
   256
  6
BYLAYER
 49
-0.5
 62
   256
  6
BYLAYER
  0
ACDBPLACEHOLDER
  5
F
102
{ACAD_REACTORS
330
E
102
}
330
E
  0
SCALE
  5
48
102
{ACAD_REACTORS
330
47
102
}
330
47
100
AcDbScale
 70
     0
300
1:1
140
1.0
141
1.0
290
     1
  0
SCALE
  5
49
102
{ACAD_REACTORS
330
47
102
}
330
47
100
AcDbScale
 70
     0
300
1:2
140
1.0
141
2.0
290
     0
  0
SCALE
  5
4A
102
{ACAD_REACTORS
330
47
102
}
330
47
100
AcDbScale
 70
     0
300
1:4
140
1.0
141
4.0
290
     0
  0
SCALE
  5
4B
102
{ACAD_REACTORS
330
47
102
}
330
47
100
AcDbScale
 70
     0
300
1:5
140
1.0
141
5.0
290
     0
  0
SCALE
  5
4C
102
{ACAD_REACTORS
330
47
102
}
330
47
100
AcDbScale
 70
     0
300
1:8
140
1.0
141
8.0
290
     0
  0
SCALE
  5
4D
102
{ACAD_REACTORS
330
47
102
}
330
47
100
AcDbScale
 70
     0
300
1:10
140
1.0
141
10.0
290
     0
  0
SCALE
  5
4E
102
{ACAD_REACTORS
330
47
102
}
330
47
100
AcDbScale
 70
     0
300
1:16
140
1.0
141
16.0
290
     0
  0
SCALE
  5
4F
102
{ACAD_REACTORS
330
47
102
}
330
47
100
AcDbScale
 70
     0
300
1:20
140
1.0
141
20.0
290
     0
  0
SCALE
  5
50
102
{ACAD_REACTORS
330
47
102
}
330
47
100
AcDbScale
 70
     0
300
1:30
140
1.0
141
30.0
290
     0
  0
SCALE
  5
51
102
{ACAD_REACTORS
330
47
102
}
330
47
100
AcDbScale
 70
     0
300
1:40
140
1.0
141
40.0
290
     0
  0
SCALE
  5
52
102
{ACAD_REACTORS
330
47
102
}
330
47
100
AcDbScale
 70
     0
300
1:50
140
1.0
141
50.0
290
     0
  0
SCALE
  5
53
102
{ACAD_REACTORS
330
47
102
}
330
47
100
AcDbScale
 70
     0
300
1:100
140
1.0
141
100.0
290
     0
  0
SCALE
  5
54
102
{ACAD_REACTORS
330
47
102
}
330
47
100
AcDbScale
 70
     0
300
2:1
140
2.0
141
1.0
290
     0
  0
SCALE
  5
55
102
{ACAD_REACTORS
330
47
102
}
330
47
100
AcDbScale
 70
     0
300
4:1
140
4.0
141
1.0
290
     0
  0
SCALE
  5
56
102
{ACAD_REACTORS
330
47
102
}
330
47
100
AcDbScale
 70
     0
300
8:1
140
8.0
141
1.0
290
     0
  0
SCALE
  5
57
102
{ACAD_REACTORS
330
47
102
}
330
47
100
AcDbScale
 70
     0
300
10:1
140
10.0
141
1.0
290
     0
  0
SCALE
  5
58
102
{ACAD_REACTORS
330
47
102
}
330
47
100
AcDbScale
 70
     0
300
100:1
140
100.0
141
1.0
290
     0
  0
SCALE
  5
59
102
{ACAD_REACTORS
330
47
102
}
330
47
100
AcDbScale
 70
     0
300
1/128" = 1'-0"
140
0.0078125
141
12.0
290
     0
  0
SCALE
  5
5A
102
{ACAD_REACTORS
330
47
102
}
330
47
100
AcDbScale
 70
     0
300
1/64" = 1'-0"
140
0.015625
141
12.0
290
     0
  0
SCALE
  5
5B
102
{ACAD_REACTORS
330
47
102
}
330
47
100
AcDbScale
 70
     0
300
1/32" = 1'-0"
140
0.03125
141
12.0
290
     0
  0
SCALE
  5
5C
102
{ACAD_REACTORS
330
47
102
}
330
47
100
AcDbScale
 70
     0
300
1/16" = 1'-0"
140
0.0625
141
12.0
290
     0
  0
SCALE
  5
5D
102
{ACAD_REACTORS
330
47
102
}
330
47
100
AcDbScale
 70
     0
300
3/32" = 1'-0"
140
0.09375
141
12.0
290
     0
  0
SCALE
  5
5E
102
{ACAD_REACTORS
330
47
102
}
330
47
100
AcDbScale
 70
     0
300
1/8" = 1'-0"
140
0.125
141
12.0
290
     0
  0
SCALE
  5
5F
102
{ACAD_REACTORS
330
47
102
}
330
47
100
AcDbScale
 70
     0
300
3/16" = 1'-0"
140
0.1875
141
12.0
290
     0
  0
SCALE
  5
60
102
{ACAD_REACTORS
330
47
102
}
330
47
100
AcDbScale
 70
     0
300
1/4" = 1'-0"
140
0.25
141
12.0
290
     0
  0
SCALE
  5
61
102
{ACAD_REACTORS
330
47
102
}
330
47
100
AcDbScale
 70
     0
300
3/8" = 1'-0"
140
0.375
141
12.0
290
     0
  0
SCALE
  5
62
102
{ACAD_REACTORS
330
47
102
}
330
47
100
AcDbScale
 70
     0
300
1/2" = 1'-0"
140
0.5
141
12.0
290
     0
  0
SCALE
  5
63
102
{ACAD_REACTORS
330
47
102
}
330
47
100
AcDbScale
 70
     0
300
3/4" = 1'-0"
140
0.75
141
12.0
290
     0
  0
SCALE
  5
64
102
{ACAD_REACTORS
330
47
102
}
330
47
100
AcDbScale
 70
     0
300
1" = 1'-0"
140
1.0
141
12.0
290
     0
  0
SCALE
  5
65
102
{ACAD_REACTORS
330
47
102
}
330
47
100
AcDbScale
 70
     0
300
1-1/2" = 1'-0"
140
1.5
141
12.0
290
     0
  0
SCALE
  5
66
102
{ACAD_REACTORS
330
47
102
}
330
47
100
AcDbScale
 70
     0
300
3" = 1'-0"
140
3.0
141
12.0
290
     0
  0
SCALE
  5
67
102
{ACAD_REACTORS
330
47
102
}
330
47
100
AcDbScale
 70
     0
300
6" = 1'-0"
140
6.0
141
12.0
290
     0
  0
SCALE
  5
68
102
{ACAD_REACTORS
330
47
102
}
330
47
100
AcDbScale
 70
     0
300
1'-0" = 1'-0"
140
12.0
141
12.0
290
     0
  0
TABLESTYLE
  5
6A
102
{ACAD_XDICTIONARY
360
F5
102
}
102
{ACAD_REACTORS
330
69
102
}
330
69
100
AcDbTableStyle
  3
Standard
 70
     0
 71
     0
 40
0.06
 41
0.06
280
     0
281
     0
  7
Standard
140
0.18
170
     2
 62
     0
 63
     7
283
     0
274
    -2
284
     1
 64
     0
275
    -2
285
     1
 65
     0
276
    -2
286
     1
 66
     0
277
    -2
287
     1
 67
     0
278
    -2
288
     1
 68
     0
279
    -2
289
     1
 69
     0
  7
Standard
140
0.25
170
     5
 62
     0
 63
     7
283
     0
274
    -2
284
     1
 64
     0
275
    -2
285
     1
 65
     0
276
    -2
286
     1
 66
     0
277
    -2
287
     1
 67
     0
278
    -2
288
     1
 68
     0
279
    -2
289
     1
 69
     0
  7
Standard
140
0.18
170
     5
 62
     0
 63
     7
283
     0
274
    -2
284
     1
 64
     0
275
    -2
285
     1
 65
     0
276
    -2
286
     1
 66
     0
277
    -2
287
     1
 67
     0
278
    -2
288
     1
 68
     0
279
    -2
289
     1
 69
     0
  0
VISUALSTYLE
  5
2F
102
{ACAD_XDICTIONARY
360
CD
102
}
102
{ACAD_REACTORS
330
2A
102
}
330
2A
100
AcDbVisualStyle
  2

 70
     4
 71
     0
 72
     2
 73
     0
 90
        0
 40
-0.6
 41
-30.0
 62
     5
 63
     7
 74
     1
 91
        4
 64
     7
 65
   257
 75
     1
175
     1
 42
1.0
 92
        0
 66
   257
 43
1.0
 76
     1
 77
     6
 78
     2
 67
     7
 79
     5
170
     0
171
     0
290
     0
174
     0
 93
        1
 44
0.0
173
     0
291
     0
 45
0.0
1001
ACAD
1000
AcDbSavedByObjectVersion
1070
     0
  0
VISUALSTYLE
  5
32
102
{ACAD_XDICTIONARY
360
D3
102
}
102
{ACAD_REACTORS
330
2A
102
}
330
2A
100
AcDbVisualStyle
  2

 70
     7
 71
     1
 72
     0
 73
     1
 90
        0
 40
-0.6
 41
-30.0
 62
     5
 63
     7
 74
     0
 91
        4
 64
     7
 65
   257
 75
     1
175
     1
 42
1.0
 92
        8
 66
     7
 43
1.0
 76
     1
 77
     6
 78
     2
 67
     7
 79
     5
170
     0
171
     0
290
     0
174
     0
 93
        1
 44
0.0
173
     0
291
     1
 45
0.0
1001
ACAD
1000
AcDbSavedByObjectVersion
1070
     0
  0
VISUALSTYLE
  5
36
102
{ACAD_XDICTIONARY
360
DB
102
}
102
{ACAD_REACTORS
330
2A
102
}
330
2A
100
AcDbVisualStyle
  2

 70
    12
 71
     2
 72
     2
 73
     0
 90
        0
 40
-0.6
 41
-30.0
 62
     5
 63
     7
 74
     1
 91
        4
 64
     7
 65
   257
 75
     1
175
     1
 42
1.0
 92
        8
 66
     7
 43
1.0
 76
     1
 77
     6
 78
     2
 67
     7
 79
     5
170
     0
171
     0
290
     0
174
     0
 93
        1
 44
50.0
173
     0
291
     1
 45
0.0
1001
ACAD
1000
AcDbSavedByObjectVersion
1070
     0
  0
VISUALSTYLE
  5
3A
102
{ACAD_XDICTIONARY
360
E3
102
}
102
{ACAD_REACTORS
330
2A
102
}
330
2A
100
AcDbVisualStyle
  2

 70
    16
 71
     2
 72
     2
 73
     3
 90
        0
 40
-0.6
 41
-30.0
 62
     5
 63
     8
 74
     1
 91
        4
 64
     7
 65
   257
 75
     1
175
     1
 42
1.0
 92
        8
 66
     8
 43
1.0
 76
     1
 77
     6
 78
     2
 67
     7
 79
     5
170
     0
171
     0
290
     0
174
     0
 93
        1
 44
0.0
173
     0
291
     1
 45
0.0
1001
ACAD
1000
AcDbSavedByObjectVersion
1070
     0
  0
VISUALSTYLE
  5
34
102
{ACAD_XDICTIONARY
360
D7
102
}
102
{ACAD_REACTORS
330
2A
102
}
330
2A
100
AcDbVisualStyle
  2

 70
     9
 71
     3
 72
     2
 73
     0
 90
        0
 40
-0.6
 41
-30.0
 62
     5
 63
     7
 74
     2
 91
        2
 64
     7
 65
   257
 75
     1
175
     1
 42
179.0
 92
        8
 66
     7
 43
1.0
 76
     1
 77
     6
 78
     2
 67
     7
 79
     3
170
     0
171
     0
290
     0
174
     0
 93
        1
 44
0.0
173
     0
291
     0
 45
0.0
1001
ACAD
1000
AcDbSavedByObjectVersion
1070
     0
  0
VISUALSTYLE
  5
35
102
{ACAD_XDICTIONARY
360
D9
102
}
102
{ACAD_REACTORS
330
2A
102
}
330
2A
100
AcDbVisualStyle
  2

 70
    11
 71
     2
 72
     2
 73
     0
 90
        0
 40
-0.6
 41
-30.0
 62
     5
 63
     7
 74
     1
 91
        4
 64
     7
 65
   257
 75
     1
175
     1
 42
1.0
 92
        8
 66
     7
 43
1.0
 76
     1
 77
     6
 78
     2
 67
     7
 79
     5
170
     0
171
     0
290
     0
174
     0
 93
        1
 44
-50.0
173
     0
291
     1
 45
0.0
1001
ACAD
1000
AcDbSavedByObjectVersion
1070
     0
  0
VISUALSTYLE
  5
3D
102
{ACAD_XDICTIONARY
360
E9
102
}
102
{ACAD_REACTORS
330
2A
102
}
330
2A
100
AcDbVisualStyle
  2

 70
    22
 71
     2
 72
     2
 73
     0
 90
        0
 40
-0.6
 41
-30.0
 62
     5
 63
     7
 74
     1
 91
        4
 64
     7
 65
   257
 75
     1
175
     1
 42
1.0
 92
        8
 66
     7
 43
1.0
 76
     1
 77
     6
 78
     2
 67
     7
 79
     5
170
     0
171
     0
290
     0
174
     0
 93
        1
 44
0.0
173
     0
291
     1
 45
0.0
1001
ACAD
1000
AcDbSavedByObjectVersion
1070
     0
  0
VISUALSTYLE
  5
39
102
{ACAD_XDICTIONARY
360
E1
102
}
102
{ACAD_REACTORS
330
2A
102
}
330
2A
100
AcDbVisualStyle
  2

 70
    15
 71
     2
 72
     2
 73
     0
 90
        0
 40
-0.6
 41
-30.0
 62
     5
 63
     7
 74
     1
 91
        4
 64
     7
 65
   257
 75
     1
175
     1
 42
1.0
 92
        8
 66
     7
 43
1.0
 76
     1
 77
     6
 78
     2
 67
     7
 79
     5
170
     0
171
     0
290
     0
174
     0
 93
        1
 44
0.0
173
     0
291
     1
 45
0.0
1001
ACAD
1000
AcDbSavedByObjectVersion
1070
     0
  0
VISUALSTYLE
  5
2B
102
{ACAD_XDICTIONARY
360
C5
102
}
102
{ACAD_REACTORS
330
2A
102
}
330
2A
100
AcDbVisualStyle
  2

 70
     0
 71
     2
 72
     1
 73
     1
 90
        2
 40
-0.6
 41
30.0
 62
     5
 63
     7
 74
     0
 91
        0
 64
     7
 65
   257
 75
     1
175
     1
 42
1.0
 92
        8
 66
     7
 43
1.0
 76
     1
 77
     6
 78
     2
 67
     7
 79
     5
170
     0
171
     0
290
     0
174
     0
 93
       13
 44
0.0
173
     0
291
     1
 45
0.0
1001
ACAD
1000
AcDbSavedByObjectVersion
1070
     0
  0
VISUALSTYLE
  5
2C
102
{ACAD_XDICTIONARY
360
C7
102
}
102
{ACAD_REACTORS
330
2A
102
}
330
2A
100
AcDbVisualStyle
  2

 70
     1
 71
     2
 72
     1
 73
     1
 90
        2
 40
-0.6
 41
30.0
 62
     5
 63
     7
 74
     1
 91
        0
 64
     7
 65
   257
 75
     1
175
     1
 42
1.0
 92
        0
 66
   257
 43
1.0
 76
     1
 77
     6
 78
     2
 67
     7
 79
     5
170
     0
171
     0
290
     0
174
     0
 93
       13
 44
0.0
173
     0
291
     1
 45
0.0
1001
ACAD
1000
AcDbSavedByObjectVersion
1070
     0
  0
VISUALSTYLE
  5
2D
102
{ACAD_XDICTIONARY
360
C9
102
}
102
{ACAD_REACTORS
330
2A
102
}
330
2A
100
AcDbVisualStyle
  2

 70
     2
 71
     2
 72
     2
 73
     1
 90
        2
 40
-0.6
 41
30.0
 62
     5
 63
     7
 74
     0
 91
        0
 64
     7
 65
   257
 75
     1
175
     1
 42
1.0
 92
        0
 66
     7
 43
1.0
 76
     1
 77
     6
 78
     2
 67
     7
 79
     5
170
     0
171
     0
290
     0
174
     0
 93
       13
 44
0.0
173
     0
291
     1
 45
0.0
1001
ACAD
1000
AcDbSavedByObjectVersion
1070
     0
  0
VISUALSTYLE
  5
2E
102
{ACAD_XDICTIONARY
360
CB
102
}
102
{ACAD_REACTORS
330
2A
102
}
330
2A
100
AcDbVisualStyle
  2

 70
     3
 71
     2
 72
     2
 73
     1
 90
        2
 40
-0.6
 41
30.0
 62
     5
 63
     7
 74
     1
 91
        0
 64
     7
 65
   257
 75
     1
175
     1
 42
1.0
 92
        0
 66
   257
 43
1.0
 76
     1
 77
     6
 78
     2
 67
     7
 79
     5
170
     0
171
     0
290
     0
174
     0
 93
       13
 44
0.0
173
     0
291
     1
 45
0.0
1001
ACAD
1000
AcDbSavedByObjectVersion
1070
     0
  0
VISUALSTYLE
  5
31
102
{ACAD_XDICTIONARY
360
D1
102
}
102
{ACAD_REACTORS
330
2A
102
}
330
2A
100
AcDbVisualStyle
  2

 70
     6
 71
     1
 72
     2
 73
     2
 90
        0
 40
-0.6
 41
-30.0
 62
     5
 63
     7
 74
     2
 91
        2
 64
     7
 65
   257
 75
     2
175
     1
 42
40.0
 92
        0
 66
   257
 43
1.0
 76
     1
 77
     6
 78
     2
 67
     7
 79
     3
170
     0
171
     0
290
     0
174
     0
 93
        1
 44
0.0
173
     0
291
     0
 45
0.0
1001
ACAD
1000
AcDbSavedByObjectVersion
1070
     0
  0
VISUALSTYLE
  5
3B
102
{ACAD_XDICTIONARY
360
E5
102
}
102
{ACAD_REACTORS
330
2A
102
}
330
2A
100
AcDbVisualStyle
  2

 70
    20
 71
     2
 72
     2
 73
     0
 90
        0
 40
-0.6
 41
-30.0
 62
     5
 63
     7
 74
     1
 91
        4
 64
     7
 65
   257
 75
     1
175
     1
 42
1.0
 92
       10
 66
     7
 43
1.0
 76
     1
 77
     6
 78
     2
 67
     7
 79
     5
170
     0
171
     0
290
     0
174
     0
 93
        1
 44
0.0
173
     0
291
     1
 45
0.0
1001
ACAD
1000
AcDbSavedByObjectVersion
1070
     0
  0
VISUALSTYLE
  5
38
102
{ACAD_XDICTIONARY
360
DF
102
}
102
{ACAD_REACTORS
330
2A
102
}
330
2A
100
AcDbVisualStyle
  2

 70
    14
 71
     2
 72
     2
 73
     0
 90
        0
 40
-0.6
 41
-30.0
 62
     5
 63
     7
 74
     1
 91
        4
 64
     7
 65
   257
 75
     7
175
     7
 42
1.0
 92
        8
 66
     7
 43
1.0
 76
     1
 77
     6
 78
     2
 67
     7
 79
     5
170
     0
171
     0
290
     0
174
     0
 93
        1
 44
0.0
173
     0
291
     1
 45
0.0
1001
ACAD
1000
AcDbSavedByObjectVersion
1070
     0
  0
VISUALSTYLE
  5
3C
102
{ACAD_XDICTIONARY
360
E7
102
}
102
{ACAD_REACTORS
330
2A
102
}
330
2A
100
AcDbVisualStyle
  2

 70
    21
 71
     2
 72
     2
 73
     0
 90
        0
 40
-0.6
 41
-30.0
 62
     5
 63
     7
 74
     1
 91
        4
 64
     7
 65
   257
 75
     1
175
     1
 42
1.0
 92
        9
 66
     7
 43
1.0
 76
     1
 77
     6
 78
     2
 67
     7
 79
     5
170
     0
171
     0
290
     0
174
     0
 93
        1
 44
0.0
173
     0
291
     1
 45
0.0
1001
ACAD
1000
AcDbSavedByObjectVersion
1070
     0
  0
VISUALSTYLE
  5
33
102
{ACAD_XDICTIONARY
360
D5
102
}
102
{ACAD_REACTORS
330
2A
102
}
330
2A
100
AcDbVisualStyle
  2

 70
     8
 71
     2
 72
     3
 73
     0
 90
        2
 40
-0.6
 41
30.0
 62
     5
 63
     7
 74
     0
 91
        0
 64
     7
 65
   257
 75
     1
175
     1
 42
1.0
 92
        8
 66
   257
 43
1.0
 76
     1
 77
     6
 78
     2
 67
     7
 79
     3
170
     0
171
     0
290
     0
174
     0
 93
       13
 44
0.0
173
     0
291
     0
 45
0.0
1001
ACAD
1000
AcDbSavedByObjectVersion
1070
     0
  0
VISUALSTYLE
  5
42
102
{ACAD_XDICTIONARY
360
F3
102
}
102
{ACAD_REACTORS
330
2A
102
}
330
2A
100
AcDbVisualStyle
  2

 70
    27
 71
     2
 72
     2
 73
     1
 90
        2
 40
-0.6
 41
30.0
 62
     5
 63
     7
 74
     0
 91
        4
 64
     7
 65
   257
 75
     1
175
     1
 42
1.0
 92
        8
 66
   257
 43
1.0
 76
     1
 77
     6
 78
     2
 67
     8
 79
     3
170
     0
171
     0
290
     0
174
     0
 93
        5
 44
0.0
173
     0
291
     0
 45
0.0
1001
ACAD
1000
AcDbSavedByObjectVersion
1070
     0
  0
VISUALSTYLE
  5
41
102
{ACAD_XDICTIONARY
360
F1
102
}
102
{ACAD_REACTORS
330
2A
102
}
330
2A
100
AcDbVisualStyle
  2

 70
    26
 71
     2
 72
     2
 73
     1
 90
        2
 40
-0.6
 41
30.0
 62
     5
 63
     7
 74
     1
 91
       10
 64
     7
 65
   257
 75
     2
175
     1
 42
1.0
 92
        8
 66
   257
 43
1.0
 76
     1
 77
     6
 78
     2
 67
     7
 79
     3
170
     0
171
     0
290
     0
174
     0
 93
        5
 44
0.0
173
     0
291
     0
 45
0.0
1001
ACAD
1000
AcDbSavedByObjectVersion
1070
     0
  0
VISUALSTYLE
  5
3E
102
{ACAD_XDICTIONARY
360
EB
102
}
102
{ACAD_REACTORS
330
2A
102
}
330
2A
100
AcDbVisualStyle
  2

 70
    23
 71
     2
 72
     2
 73
     3
 90
        0
 40
-0.6
 41
-30.0
 62
     5
 63
     7
 74
     2
 91
        2
 64
     7
 65
     7
 75
     1
175
     1
 42
40.0
 92
        8
 66
     7
 43
1.0
 76
     1
 77
     6
 78
     2
 67
     7
 79
     3
170
     0
171
     0
290
     0
174
     0
 93
        1
 44
0.0
173
     0
291
     0
 45
0.0
1001
ACAD
1000
AcDbSavedByObjectVersion
1070
     0
  0
VISUALSTYLE
  5
3F
102
{ACAD_XDICTIONARY
360
ED
102
}
102
{ACAD_REACTORS
330
2A
102
}
330
2A
100
AcDbVisualStyle
  2

 70
    24
 71
     1
 72
     2
 73
     2
 90
        0
 40
-0.6
 41
-30.0
 62
     5
 63
     7
 74
     2
 91
        2
 64
     7
 65
     7
 75
     1
175
     1
 42
40.0
 92
       11
 66
     7
 43
1.0
 76
     1
 77
     6
 78
     2
 67
     7
 79
     6
170
     0
171
     0
290
     0
174
     0
 93
        1
 44
0.0
173
     0
291
     0
 45
0.0
1001
ACAD
1000
AcDbSavedByObjectVersion
1070
     0
  0
VISUALSTYLE
  5
37
102
{ACAD_XDICTIONARY
360
DD
102
}
102
{ACAD_REACTORS
330
2A
102
}
330
2A
100
AcDbVisualStyle
  2

 70
    13
 71
     2
 72
     2
 73
     0
 90
        0
 40
-0.6
 41
-30.0
 62
     5
 63
     7
 74
     1
 91
        4
 64
     7
 65
   257
 75
     1
175
     1
 42
1.0
 92
       12
 66
     7
 43
1.0
 76
     1
 77
     6
 78
     2
 67
     7
 79
     5
170
     0
171
     0
290
     0
174
     0
 93
        1
 44
0.0
173
     0
291
     1
 45
0.0
1001
ACAD
1000
AcDbSavedByObjectVersion
1070
     0
  0
VISUALSTYLE
  5
30
102
{ACAD_XDICTIONARY
360
CF
102
}
102
{ACAD_REACTORS
330
2A
102
}
330
2A
100
AcDbVisualStyle
  2

 70
     5
 71
     0
 72
     2
 73
     0
 90
        0
 40
-0.6
 41
-30.0
 62
     5
 63
     7
 74
     1
 91
        4
 64
     7
 65
   257
 75
     1
175
     1
 42
1.0
 92
        0
 66
   257
 43
1.0
 76
     1
 77
     6
 78
     2
 67
     7
 79
     3
170
     0
171
     0
290
     0
174
     0
 93
        1
 44
0.0
173
     0
291
     0
 45
0.0
1001
ACAD
1000
AcDbSavedByObjectVersion
1070
     0
  0
VISUALSTYLE
  5
40
102
{ACAD_XDICTIONARY
360
EF
102
}
102
{ACAD_REACTORS
330
2A
102
}
330
2A
100
AcDbVisualStyle
  2

 70
    25
 71
     2
 72
     2
 73
     1
 90
        1
 40
0.5
 41
-30.0
 62
     5
 63
     7
 74
     1
 91
        0
 64
     7
 65
   257
 75
     1
175
     1
 42
1.0
 92
        8
 66
     7
 43
1.0
 76
     1
 77
     6
 78
     2
 67
     7
 79
     3
170
     0
171
     0
290
     0
174
     0
 93
       13
 44
0.0
173
     0
291
     0
 45
0.0
1001
ACAD
1000
AcDbSavedByObjectVersion
1070
     0
  0
DICTIONARYVAR
  5
C3
102
{ACAD_REACTORS
330
C2
102
}
330
C2
100
DictionaryVariables
280
     0
  1
1:1
  0
DICTIONARYVAR
  5
FC
102
{ACAD_REACTORS
330
C2
102
}
330
C2
100
DictionaryVariables
280
     0
  1
STANDARD
  0
DICTIONARYVAR
  5
FB
102
{ACAD_REACTORS
330
C2
102
}
330
C2
100
DictionaryVariables
280
     0
  1
STANDARD
  0
DICTIONARYVAR
  5
116
102
{ACAD_REACTORS
330
C2
102
}
330
C2
100
DictionaryVariables
280
     0
  1
2
  0
DICTIONARYVAR
  5
115
102
{ACAD_REACTORS
330
C2
102
}
330
C2
100
DictionaryVariables
280
     0
  1
2
  0
DICTIONARYVAR
  5
114
102
{ACAD_REACTORS
330
C2
102
}
330
C2
100
DictionaryVariables
280
     0
  1
1
  0
DICTIONARYVAR
  5
113
102
{ACAD_REACTORS
330
C2
102
}
330
C2
100
DictionaryVariables
280
     0
  1
0
  0
DICTIONARYVAR
  5
10A
102
{ACAD_REACTORS
330
C2
102
}
330
C2
100
DictionaryVariables
280
     0
  1
1
  0
DICTIONARYVAR
  5
10B
102
{ACAD_REACTORS
330
C2
102
}
330
C2
100
DictionaryVariables
280
     0
  1
15
  0
DICTIONARYVAR
  5
111
102
{ACAD_REACTORS
330
C2
102
}
330
C2
100
DictionaryVariables
280
     0
  1
2
  0
DICTIONARYVAR
  5
131
102
{ACAD_REACTORS
330
C2
102
}
330
C2
100
DictionaryVariables
280
     0
  1
1.570796
  0
DICTIONARYVAR
  5
132
102
{ACAD_REACTORS
330
C2
102
}
330
C2
100
DictionaryVariables
280
     0
  1
1.570796
  0
DICTIONARYVAR
  5
110
102
{ACAD_REACTORS
330
C2
102
}
330
C2
100
DictionaryVariables
280
     0
  1
1
  0
DICTIONARYVAR
  5
112
102
{ACAD_REACTORS
330
C2
102
}
330
C2
100
DictionaryVariables
280
     0
  1
127
  0
DICTIONARYVAR
  5
133
102
{ACAD_REACTORS
330
C2
102
}
330
C2
100
DictionaryVariables
280
     0
  1
2
  0
DICTIONARY
  5
139
330
1E
100
AcDbDictionary
280
     1
281
     1
  3
ACAD_XREC_ROUNDTRIP
360
13A
  0
DICTIONARY
  5
13D
330
26
100
AcDbDictionary
280
     1
281
     1
  3
ACAD_XREC_ROUNDTRIP
360
13E
  0
DICTIONARY
  5
13B
330
22
100
AcDbDictionary
280
     1
281
     1
  3
ACAD_XREC_ROUNDTRIP
360
13C
  0
DICTIONARY
  5
128
330
45
100
AcDbDictionary
280
     1
281
     1
  3
ACAD_XREC_ROUNDTRIP
360
129
  0
DICTIONARY
  5
126
330
44
100
AcDbDictionary
280
     1
281
     1
  3
ACAD_XREC_ROUNDTRIP
360
127
  0
DICTIONARY
  5
12A
330
46
100
AcDbDictionary
280
     1
281
     1
  3
ACAD_XREC_ROUNDTRIP
360
12B
  0
DICTIONARY
  5
F5
330
6A
100
AcDbDictionary
280
     1
281
     1
  3
ACAD_ROUNDTRIP_2008_TABLESTYLE_CELLSTYLEMAP
360
134
  3
ACAD_XREC_ROUNDTRIP
360
13F
  0
DICTIONARY
  5
CD
330
2F
100
AcDbDictionary
280
     1
281
     1
  3
ACAD_XREC_ROUNDTRIP
360
CE
  0
DICTIONARY
  5
D3
330
32
100
AcDbDictionary
280
     1
281
     1
  3
ACAD_XREC_ROUNDTRIP
360
D4
  0
DICTIONARY
  5
DB
330
36
100
AcDbDictionary
280
     1
281
     1
  3
ACAD_XREC_ROUNDTRIP
360
DC
  0
DICTIONARY
  5
E3
330
3A
100
AcDbDictionary
280
     1
281
     1
  3
ACAD_XREC_ROUNDTRIP
360
E4
  0
DICTIONARY
  5
D7
330
34
100
AcDbDictionary
280
     1
281
     1
  3
ACAD_XREC_ROUNDTRIP
360
D8
  0
DICTIONARY
  5
D9
330
35
100
AcDbDictionary
280
     1
281
     1
  3
ACAD_XREC_ROUNDTRIP
360
DA
  0
DICTIONARY
  5
E9
330
3D
100
AcDbDictionary
280
     1
281
     1
  3
ACAD_XREC_ROUNDTRIP
360
EA
  0
DICTIONARY
  5
E1
330
39
100
AcDbDictionary
280
     1
281
     1
  3
ACAD_XREC_ROUNDTRIP
360
E2
  0
DICTIONARY
  5
C5
330
2B
100
AcDbDictionary
280
     1
281
     1
  3
ACAD_XREC_ROUNDTRIP
360
C6
  0
DICTIONARY
  5
C7
330
2C
100
AcDbDictionary
280
     1
281
     1
  3
ACAD_XREC_ROUNDTRIP
360
C8
  0
DICTIONARY
  5
C9
330
2D
100
AcDbDictionary
280
     1
281
     1
  3
ACAD_XREC_ROUNDTRIP
360
CA
  0
DICTIONARY
  5
CB
330
2E
100
AcDbDictionary
280
     1
281
     1
  3
ACAD_XREC_ROUNDTRIP
360
CC
  0
DICTIONARY
  5
D1
330
31
100
AcDbDictionary
280
     1
281
     1
  3
ACAD_XREC_ROUNDTRIP
360
D2
  0
DICTIONARY
  5
E5
330
3B
100
AcDbDictionary
280
     1
281
     1
  3
ACAD_XREC_ROUNDTRIP
360
E6
  0
DICTIONARY
  5
DF
330
38
100
AcDbDictionary
280
     1
281
     1
  3
ACAD_XREC_ROUNDTRIP
360
E0
  0
DICTIONARY
  5
E7
330
3C
100
AcDbDictionary
280
     1
281
     1
  3
ACAD_XREC_ROUNDTRIP
360
E8
  0
DICTIONARY
  5
D5
330
33
100
AcDbDictionary
280
     1
281
     1
  3
ACAD_XREC_ROUNDTRIP
360
D6
  0
DICTIONARY
  5
F3
330
42
100
AcDbDictionary
280
     1
281
     1
  3
ACAD_XREC_ROUNDTRIP
360
F4
  0
DICTIONARY
  5
F1
330
41
100
AcDbDictionary
280
     1
281
     1
  3
ACAD_XREC_ROUNDTRIP
360
F2
  0
DICTIONARY
  5
EB
330
3E
100
AcDbDictionary
280
     1
281
     1
  3
ACAD_XREC_ROUNDTRIP
360
EC
  0
DICTIONARY
  5
ED
330
3F
100
AcDbDictionary
280
     1
281
     1
  3
ACAD_XREC_ROUNDTRIP
360
EE
  0
DICTIONARY
  5
DD
330
37
100
AcDbDictionary
280
     1
281
     1
  3
ACAD_XREC_ROUNDTRIP
360
DE
  0
DICTIONARY
  5
CF
330
30
100
AcDbDictionary
280
     1
281
     1
  3
ACAD_XREC_ROUNDTRIP
360
D0
  0
DICTIONARY
  5
EF
330
40
100
AcDbDictionary
280
     1
281
     1
  3
ACAD_XREC_ROUNDTRIP
360
F0
  0
XRECORD
  5
13A
102
{ACAD_REACTORS
330
139
102
}
330
139
100
AcDbXrecord
280
     1
102
SHADEPLOT
 70
     0
102
SHADEPLOTRESLEVEL
 70
     2
102
SHADEPLOTCUSTOMDPI
 70
   300
  0
XRECORD
  5
13E
102
{ACAD_REACTORS
330
13D
102
}
330
13D
100
AcDbXrecord
280
     1
102
SHADEPLOT
 70
     0
102
SHADEPLOTRESLEVEL
 70
     2
102
SHADEPLOTCUSTOMDPI
 70
   300
  0
XRECORD
  5
13C
102
{ACAD_REACTORS
330
13B
102
}
330
13B
100
AcDbXrecord
280
     1
102
SHADEPLOT
 70
     0
102
SHADEPLOTRESLEVEL
 70
     2
102
SHADEPLOTCUSTOMDPI
 70
   300
  0
XRECORD
  5
129
102
{ACAD_REACTORS
330
128
102
}
330
128
100
AcDbXrecord
280
     1
102
MATERIAL
148
0.0
149
0.0
149
0.0
 93
        0
 94
      127
282
     0
 72
     1
 77
     1
171
     1
175
     1
179
     1
273
     0
  0
XRECORD
  5
127
102
{ACAD_REACTORS
330
126
102
}
330
126
100
AcDbXrecord
280
     1
102
MATERIAL
148
0.0
149
0.0
149
0.0
 93
        0
 94
      127
282
     0
 72
     1
 77
     1
171
     1
175
     1
179
     1
273
     0
  0
XRECORD
  5
12B
102
{ACAD_REACTORS
330
12A
102
}
330
12A
100
AcDbXrecord
280
     1
102
MATERIAL
148
0.0
149
0.0
149
0.0
 93
        0
 94
      127
282
     0
 72
     1
 77
     1
171
     1
175
     1
179
     1
273
     0
  0
CELLSTYLEMAP
  5
134
102
{ACAD_REACTORS
330
F5
102
}
330
F5
100
AcDbCellStyleMap
 90
        3
300
CELLSTYLE
  1
TABLEFORMAT_BEGIN
 90
        5
170
     1
 91
        0
 92
    32768
 62
   257
 93
        1
300
CONTENTFORMAT
  1
CONTENTFORMAT_BEGIN
 90
        0
 91
        0
 92
        4
 93
        0
300

 40
0.0
140
1.0
 94
        5
 62
     0
340
11
144
0.25
309
CONTENTFORMAT_END
171
     1
301
MARGIN
  1
CELLMARGIN_BEGIN
 40
0.06
 40
0.06
 40
0.06
 40
0.06
 40
0.18
 40
0.18
309
CELLMARGIN_END
 94
        6
 95
        1
302
GRIDFORMAT
  1
GRIDFORMAT_BEGIN
 90
        0
 91
        1
 62
     0
 92
       -2
340
14
 93
        0
 40
0.045
309
GRIDFORMAT_END
 95
        2
302
GRIDFORMAT
  1
GRIDFORMAT_BEGIN
 90
        0
 91
        1
 62
     0
 92
       -2
340
14
 93
        0
 40
0.045
309
GRIDFORMAT_END
 95
        4
302
GRIDFORMAT
  1
GRIDFORMAT_BEGIN
 90
        0
 91
        1
 62
     0
 92
       -2
340
14
 93
        0
 40
0.045
309
GRIDFORMAT_END
 95
        8
302
GRIDFORMAT
  1
GRIDFORMAT_BEGIN
 90
        0
 91
        1
 62
     0
 92
       -2
340
14
 93
        0
 40
0.045
309
GRIDFORMAT_END
 95
       16
302
GRIDFORMAT
  1
GRIDFORMAT_BEGIN
 90
        0
 91
        1
 62
     0
 92
       -2
340
14
 93
        0
 40
0.045
309
GRIDFORMAT_END
 95
       32
302
GRIDFORMAT
  1
GRIDFORMAT_BEGIN
 90
        0
 91
        1
 62
     0
 92
       -2
340
14
 93
        0
 40
0.045
309
GRIDFORMAT_END
309
TABLEFORMAT_END
  1
CELLSTYLE_BEGIN
 90
        1
 91
        1
300
_TITLE
309
CELLSTYLE_END
300
CELLSTYLE
  1
TABLEFORMAT_BEGIN
 90
        5
170
     1
 91
        0
 92
        0
 62
   257
 93
        1
300
CONTENTFORMAT
  1
CONTENTFORMAT_BEGIN
 90
        0
 91
        0
 92
        4
 93
        0
300

 40
0.0
140
1.0
 94
        5
 62
     0
340
11
144
0.18
309
CONTENTFORMAT_END
171
     1
301
MARGIN
  1
CELLMARGIN_BEGIN
 40
0.06
 40
0.06
 40
0.06
 40
0.06
 40
0.18
 40
0.18
309
CELLMARGIN_END
 94
        6
 95
        1
302
GRIDFORMAT
  1
GRIDFORMAT_BEGIN
 90
        0
 91
        1
 62
     0
 92
       -2
340
14
 93
        0
 40
0.045
309
GRIDFORMAT_END
 95
        2
302
GRIDFORMAT
  1
GRIDFORMAT_BEGIN
 90
        0
 91
        1
 62
     0
 92
       -2
340
14
 93
        0
 40
0.045
309
GRIDFORMAT_END
 95
        4
302
GRIDFORMAT
  1
GRIDFORMAT_BEGIN
 90
        0
 91
        1
 62
     0
 92
       -2
340
14
 93
        0
 40
0.045
309
GRIDFORMAT_END
 95
        8
302
GRIDFORMAT
  1
GRIDFORMAT_BEGIN
 90
        0
 91
        1
 62
     0
 92
       -2
340
14
 93
        0
 40
0.045
309
GRIDFORMAT_END
 95
       16
302
GRIDFORMAT
  1
GRIDFORMAT_BEGIN
 90
        0
 91
        1
 62
     0
 92
       -2
340
14
 93
        0
 40
0.045
309
GRIDFORMAT_END
 95
       32
302
GRIDFORMAT
  1
GRIDFORMAT_BEGIN
 90
        0
 91
        1
 62
     0
 92
       -2
340
14
 93
        0
 40
0.045
309
GRIDFORMAT_END
309
TABLEFORMAT_END
  1
CELLSTYLE_BEGIN
 90
        2
 91
        1
300
_HEADER
309
CELLSTYLE_END
300
CELLSTYLE
  1
TABLEFORMAT_BEGIN
 90
        5
170
     1
 91
        0
 92
        0
 62
   257
 93
        1
300
CONTENTFORMAT
  1
CONTENTFORMAT_BEGIN
 90
        0
 91
        0
 92
        4
 93
        0
300

 40
0.0
140
1.0
 94
        2
 62
     0
340
11
144
0.18
309
CONTENTFORMAT_END
171
     1
301
MARGIN
  1
CELLMARGIN_BEGIN
 40
0.06
 40
0.06
 40
0.06
 40
0.06
 40
0.18
 40
0.18
309
CELLMARGIN_END
 94
        6
 95
        1
302
GRIDFORMAT
  1
GRIDFORMAT_BEGIN
 90
        0
 91
        1
 62
     0
 92
       -2
340
14
 93
        0
 40
0.045
309
GRIDFORMAT_END
 95
        2
302
GRIDFORMAT
  1
GRIDFORMAT_BEGIN
 90
        0
 91
        1
 62
     0
 92
       -2
340
14
 93
        0
 40
0.045
309
GRIDFORMAT_END
 95
        4
302
GRIDFORMAT
  1
GRIDFORMAT_BEGIN
 90
        0
 91
        1
 62
     0
 92
       -2
340
14
 93
        0
 40
0.045
309
GRIDFORMAT_END
 95
        8
302
GRIDFORMAT
  1
GRIDFORMAT_BEGIN
 90
        0
 91
        1
 62
     0
 92
       -2
340
14
 93
        0
 40
0.045
309
GRIDFORMAT_END
 95
       16
302
GRIDFORMAT
  1
GRIDFORMAT_BEGIN
 90
        0
 91
        1
 62
     0
 92
       -2
340
14
 93
        0
 40
0.045
309
GRIDFORMAT_END
 95
       32
302
GRIDFORMAT
  1
GRIDFORMAT_BEGIN
 90
        0
 91
        1
 62
     0
 92
       -2
340
14
 93
        0
 40
0.045
309
GRIDFORMAT_END
309
TABLEFORMAT_END
  1
CELLSTYLE_BEGIN
 90
        3
 91
        2
300
_DATA
309
CELLSTYLE_END
  0
XRECORD
  5
13F
102
{ACAD_REACTORS
330
F5
102
}
330
F5
100
AcDbXrecord
280
     1
102
ACAD_ROUNDTRIP_PRE2007_TABLESTYLE
 90
        4
 91
        0
  1

 92
        4
 93
        0
  2

 94
        4
 95
        0
  3

  0
XRECORD
  5
CE
102
{ACAD_REACTORS
330
CD
102
}
330
CD
100
AcDbXrecord
280
     1
102
RTVSPropertyOp33
 70
     1
102
RTVSPropertyOp34
 70
     1
102
RTVSPropertyOp35
 70
     1
102
RTVSPropertyOp36
 70
     1
102
RTVSPropertyOp37
 70
     1
102
RTVSPropertyOp38
 70
     1
102
RTVSPropertyOp39
 70
     1
102
RTVSPropertyOp40
 70
     1
102
RTVSPropertyOp41
 70
     1
102
RTVSPropertyOp42
 70
     1
102
RTVSPropertyOp43
 70
     1
102
RTVSPropertyOp44
 70
     1
102
RTVSPropertyOp45
 70
     1
102
RTVSPropertyOp46
 70
     1
102
RTVSPropertyOp47
 70
     1
102
RTVSPropertyOp48
 70
     1
102
RTVSPropertyOp49
 70
     1
102
RTVSPropertyOp50
 70
     1
102
RTVSPropertyOp51
 70
     0
102
RTVSPropertyOp52
 70
     0
102
RTVSPropertyOp53
 70
     1
102
RTVSPropertyOp54
 70
     1
102
RTVSPropertyOp55
 70
     1
102
RTVSPropertyOp56
 70
     1
102
RTVSPropertyOp57
 70
     1
102
RTVSPost2010Prop28
280
     1
102
RTVSPost2010PropOp28
 70
     1
102
RTVSPost2010Prop29
280
     1
102
RTVSPost2010PropOp29
 70
     1
102
RTVSPost2010Prop30
280
     0
102
RTVSPost2010PropOp30
 70
     1
102
RTVSPost2010Prop31
280
     0
102
RTVSPost2010PropOp31
 70
     1
102
RTVSPost2010Prop32
280
     0
102
RTVSPost2010PropOp32
 70
     1
102
RTVSPost2010Prop33
280
     0
102
RTVSPost2010PropOp33
 70
     1
102
RTVSPost2010Prop34
280
     0
102
RTVSPost2010PropOp34
 70
     1
102
RTVSPost2010Prop35
280
     0
102
RTVSPost2010PropOp35
 70
     1
102
RTVSPost2010Prop36
280
     0
102
RTVSPost2010PropOp36
 70
     1
102
RTVSPost2010Prop37
 90
       50
102
RTVSPost2010PropOp37
 70
     1
102
RTVSPost2010Prop38
140
0.0
102
RTVSPost2010PropOp38
 70
     1
102
RTVSPost2010Prop39
140
1.0
102
RTVSPost2010PropOp39
 70
     1
102
RTVSPost2010Prop40
 90
        0
102
RTVSPost2010PropOp40
 70
     1
102
RTVSPost2010Prop41ColorIndex
 90
       18
102
RTVSPost2010Prop41ColorRGB
 90
        0
102
RTVSPost2010PropOp41
 70
     1
102
RTVSPost2010Prop42
 90
       50
102
RTVSPost2010PropOp42
 70
     1
102
RTVSPost2010Prop43
 90
        3
102
RTVSPost2010PropOp43
 70
     1
102
RTVSPost2010Prop44ColorIndex
 90
        5
102
RTVSPost2010Prop44ColorRGB
 90
      255
102
RTVSPost2010PropOp44
 70
     1
102
RTVSPost2010Prop45
280
     0
102
RTVSPost2010PropOp45
 70
     1
102
RTVSPost2010Prop46
 90
       50
102
RTVSPost2010PropOp46
 70
     1
102
RTVSPost2010Prop47
 90
       50
102
RTVSPost2010PropOp47
 70
     1
102
RTVSPost2010Prop48
 90
       50
102
RTVSPost2010PropOp48
 70
     1
102
RTVSPost2010Prop49
280
     0
102
RTVSPost2010PropOp49
 70
     1
102
RTVSPost2010Prop50
 90
       50
102
RTVSPost2010PropOp50
 70
     1
102
RTVSPost2010Prop51ColorIndex
 90
      256
102
RTVSPost2010Prop51ColorRGB
 90
-16777216
102
RTVSPost2010PropOp51
 70
     0
102
RTVSPost2010Prop52
140
1.0
102
RTVSPost2010PropOp52
 70
     0
102
RTVSPost2010Prop53
 90
        2
102
RTVSPost2010PropOp53
 70
     1
102
RTVSPost2010Prop54
  1
strokes_ogs.tif
102
RTVSPost2010PropOp54
 70
     1
102
RTVSPost2010Prop55
280
     0
102
RTVSPost2010PropOp55
 70
     1
102
RTVSPost2010Prop56
140
1.0
102
RTVSPost2010PropOp56
 70
     1
102
RTVSPost2010Prop57
140
1.0
102
RTVSPost2010PropOp57
 70
     1
102
RTVSPropertyOp0
 70
     1
102
RTVSPropertyOp1
 70
     1
102
RTVSPropertyOp2
 70
     1
102
RTVSPropertyOp3
 70
     1
102
RTVSPropertyOp4
 70
     1
102
RTVSPropertyOp5
 70
     1
102
RTVSPropertyOp6
 70
     1
102
RTVSPropertyOp7
 70
     1
102
RTVSPropertyOp8
 70
     1
102
RTVSPropertyOp9
 70
     1
102
RTVSPropertyOp10
 70
     1
102
RTVSPropertyOp11
 70
     1
102
RTVSPropertyOp12
 70
     1
102
RTVSPropertyOp13
 70
     1
102
RTVSPropertyOp14
 70
     1
102
RTVSPropertyOp15
 70
     1
102
RTVSPropertyOp16
 70
     1
102
RTVSPropertyOp17
 70
     1
102
RTVSPropertyOp18
 70
     1
102
RTVSPropertyOp19
 70
     1
102
RTVSPropertyOp20
 70
     1
102
RTVSPropertyOp21
 70
     1
102
RTVSPropertyOp22
 70
     1
102
RTVSPropertyOp23
 70
     1
102
RTVSPropertyOp24
 70
     1
102
RTVSPropertyOp25
 70
     1
102
RTVSPropertyOp26
 70
     1
102
RTVSPropertyOp27
 70
     1
102
RTVSPropertyOp28
 70
     1
102
RTVSPropertyOp29
 70
     1
102
RTVSPropertyOp30
 70
     1
102
RTVSPropertyOp31
 70
     1
102
RTVSPropertyOp32
 70
     1
  0
XRECORD
  5
D4
102
{ACAD_REACTORS
330
D3
102
}
330
D3
100
AcDbXrecord
280
     1
102
RTVSPropertyOp33
 70
     1
102
RTVSPropertyOp34
 70
     1
102
RTVSPropertyOp35
 70
     1
102
RTVSPropertyOp36
 70
     1
102
RTVSPropertyOp37
 70
     1
102
RTVSPropertyOp38
 70
     1
102
RTVSPropertyOp39
 70
     1
102
RTVSPropertyOp40
 70
     1
102
RTVSPropertyOp41
 70
     1
102
RTVSPropertyOp42
 70
     1
102
RTVSPropertyOp43
 70
     1
102
RTVSPropertyOp44
 70
     1
102
RTVSPropertyOp45
 70
     1
102
RTVSPropertyOp46
 70
     1
102
RTVSPropertyOp47
 70
     1
102
RTVSPropertyOp48
 70
     1
102
RTVSPropertyOp49
 70
     1
102
RTVSPropertyOp50
 70
     1
102
RTVSPropertyOp51
 70
     0
102
RTVSPropertyOp52
 70
     0
102
RTVSPropertyOp53
 70
     1
102
RTVSPropertyOp54
 70
     1
102
RTVSPropertyOp55
 70
     1
102
RTVSPropertyOp56
 70
     1
102
RTVSPropertyOp57
 70
     1
102
RTVSPost2010Prop28
280
     0
102
RTVSPost2010PropOp28
 70
     1
102
RTVSPost2010Prop29
280
     1
102
RTVSPost2010PropOp29
 70
     1
102
RTVSPost2010Prop30
280
     1
102
RTVSPost2010PropOp30
 70
     1
102
RTVSPost2010Prop31
280
     0
102
RTVSPost2010PropOp31
 70
     1
102
RTVSPost2010Prop32
280
     0
102
RTVSPost2010PropOp32
 70
     1
102
RTVSPost2010Prop33
280
     0
102
RTVSPost2010PropOp33
 70
     1
102
RTVSPost2010Prop34
280
     0
102
RTVSPost2010PropOp34
 70
     1
102
RTVSPost2010Prop35
280
     0
102
RTVSPost2010PropOp35
 70
     1
102
RTVSPost2010Prop36
280
     0
102
RTVSPost2010PropOp36
 70
     1
102
RTVSPost2010Prop37
 90
       50
102
RTVSPost2010PropOp37
 70
     1
102
RTVSPost2010Prop38
140
0.0
102
RTVSPost2010PropOp38
 70
     1
102
RTVSPost2010Prop39
140
1.0
102
RTVSPost2010PropOp39
 70
     1
102
RTVSPost2010Prop40
 90
        0
102
RTVSPost2010PropOp40
 70
     1
102
RTVSPost2010Prop41ColorIndex
 90
       18
102
RTVSPost2010Prop41ColorRGB
 90
        0
102
RTVSPost2010PropOp41
 70
     1
102
RTVSPost2010Prop42
 90
       50
102
RTVSPost2010PropOp42
 70
     1
102
RTVSPost2010Prop43
 90
        3
102
RTVSPost2010PropOp43
 70
     1
102
RTVSPost2010Prop44ColorIndex
 90
        5
102
RTVSPost2010Prop44ColorRGB
 90
      255
102
RTVSPost2010PropOp44
 70
     1
102
RTVSPost2010Prop45
280
     0
102
RTVSPost2010PropOp45
 70
     1
102
RTVSPost2010Prop46
 90
       50
102
RTVSPost2010PropOp46
 70
     1
102
RTVSPost2010Prop47
 90
       50
102
RTVSPost2010PropOp47
 70
     1
102
RTVSPost2010Prop48
 90
       50
102
RTVSPost2010PropOp48
 70
     1
102
RTVSPost2010Prop49
280
     0
102
RTVSPost2010PropOp49
 70
     1
102
RTVSPost2010Prop50
 90
       50
102
RTVSPost2010PropOp50
 70
     1
102
RTVSPost2010Prop51ColorIndex
 90
      256
102
RTVSPost2010Prop51ColorRGB
 90
-16777216
102
RTVSPost2010PropOp51
 70
     0
102
RTVSPost2010Prop52
140
1.0
102
RTVSPost2010PropOp52
 70
     0
102
RTVSPost2010Prop53
 90
        2
102
RTVSPost2010PropOp53
 70
     1
102
RTVSPost2010Prop54
  1
strokes_ogs.tif
102
RTVSPost2010PropOp54
 70
     1
102
RTVSPost2010Prop55
280
     0
102
RTVSPost2010PropOp55
 70
     1
102
RTVSPost2010Prop56
140
1.0
102
RTVSPost2010PropOp56
 70
     1
102
RTVSPost2010Prop57
140
1.0
102
RTVSPost2010PropOp57
 70
     1
102
RTVSPropertyOp0
 70
     1
102
RTVSPropertyOp1
 70
     1
102
RTVSPropertyOp2
 70
     1
102
RTVSPropertyOp3
 70
     1
102
RTVSPropertyOp4
 70
     1
102
RTVSPropertyOp5
 70
     1
102
RTVSPropertyOp6
 70
     1
102
RTVSPropertyOp7
 70
     1
102
RTVSPropertyOp8
 70
     1
102
RTVSPropertyOp9
 70
     1
102
RTVSPropertyOp10
 70
     1
102
RTVSPropertyOp11
 70
     1
102
RTVSPropertyOp12
 70
     1
102
RTVSPropertyOp13
 70
     1
102
RTVSPropertyOp14
 70
     1
102
RTVSPropertyOp15
 70
     1
102
RTVSPropertyOp16
 70
     1
102
RTVSPropertyOp17
 70
     1
102
RTVSPropertyOp18
 70
     1
102
RTVSPropertyOp19
 70
     1
102
RTVSPropertyOp20
 70
     1
102
RTVSPropertyOp21
 70
     1
102
RTVSPropertyOp22
 70
     1
102
RTVSPropertyOp23
 70
     1
102
RTVSPropertyOp24
 70
     1
102
RTVSPropertyOp25
 70
     1
102
RTVSPropertyOp26
 70
     1
102
RTVSPropertyOp27
 70
     1
102
RTVSPropertyOp28
 70
     1
102
RTVSPropertyOp29
 70
     1
102
RTVSPropertyOp30
 70
     1
102
RTVSPropertyOp31
 70
     1
102
RTVSPropertyOp32
 70
     1
  0
XRECORD
  5
DC
102
{ACAD_REACTORS
330
DB
102
}
330
DB
100
AcDbXrecord
280
     1
102
RTVSPropertyOp33
 70
     1
102
RTVSPropertyOp34
 70
     1
102
RTVSPropertyOp35
 70
     1
102
RTVSPropertyOp36
 70
     1
102
RTVSPropertyOp37
 70
     1
102
RTVSPropertyOp38
 70
     1
102
RTVSPropertyOp39
 70
     1
102
RTVSPropertyOp40
 70
     1
102
RTVSPropertyOp41
 70
     1
102
RTVSPropertyOp42
 70
     1
102
RTVSPropertyOp43
 70
     1
102
RTVSPropertyOp44
 70
     1
102
RTVSPropertyOp45
 70
     1
102
RTVSPropertyOp46
 70
     1
102
RTVSPropertyOp47
 70
     1
102
RTVSPropertyOp48
 70
     1
102
RTVSPropertyOp49
 70
     1
102
RTVSPropertyOp50
 70
     1
102
RTVSPropertyOp51
 70
     0
102
RTVSPropertyOp52
 70
     0
102
RTVSPropertyOp53
 70
     1
102
RTVSPropertyOp54
 70
     1
102
RTVSPropertyOp55
 70
     1
102
RTVSPropertyOp56
 70
     1
102
RTVSPropertyOp57
 70
     1
102
RTVSPost2010Prop28
280
     0
102
RTVSPost2010PropOp28
 70
     1
102
RTVSPost2010Prop29
280
     1
102
RTVSPost2010PropOp29
 70
     1
102
RTVSPost2010Prop30
280
     1
102
RTVSPost2010PropOp30
 70
     1
102
RTVSPost2010Prop31
280
     0
102
RTVSPost2010PropOp31
 70
     1
102
RTVSPost2010Prop32
280
     0
102
RTVSPost2010PropOp32
 70
     1
102
RTVSPost2010Prop33
280
     0
102
RTVSPost2010PropOp33
 70
     1
102
RTVSPost2010Prop34
280
     0
102
RTVSPost2010PropOp34
 70
     1
102
RTVSPost2010Prop35
280
     0
102
RTVSPost2010PropOp35
 70
     1
102
RTVSPost2010Prop36
280
     0
102
RTVSPost2010PropOp36
 70
     1
102
RTVSPost2010Prop37
 90
       50
102
RTVSPost2010PropOp37
 70
     1
102
RTVSPost2010Prop38
140
0.0
102
RTVSPost2010PropOp38
 70
     1
102
RTVSPost2010Prop39
140
1.0
102
RTVSPost2010PropOp39
 70
     1
102
RTVSPost2010Prop40
 90
        0
102
RTVSPost2010PropOp40
 70
     1
102
RTVSPost2010Prop41ColorIndex
 90
       18
102
RTVSPost2010Prop41ColorRGB
 90
        0
102
RTVSPost2010PropOp41
 70
     1
102
RTVSPost2010Prop42
 90
       50
102
RTVSPost2010PropOp42
 70
     1
102
RTVSPost2010Prop43
 90
        3
102
RTVSPost2010PropOp43
 70
     1
102
RTVSPost2010Prop44ColorIndex
 90
        5
102
RTVSPost2010Prop44ColorRGB
 90
      255
102
RTVSPost2010PropOp44
 70
     1
102
RTVSPost2010Prop45
280
     0
102
RTVSPost2010PropOp45
 70
     1
102
RTVSPost2010Prop46
 90
       50
102
RTVSPost2010PropOp46
 70
     1
102
RTVSPost2010Prop47
 90
       50
102
RTVSPost2010PropOp47
 70
     1
102
RTVSPost2010Prop48
 90
       50
102
RTVSPost2010PropOp48
 70
     1
102
RTVSPost2010Prop49
280
     0
102
RTVSPost2010PropOp49
 70
     1
102
RTVSPost2010Prop50
 90
       50
102
RTVSPost2010PropOp50
 70
     1
102
RTVSPost2010Prop51ColorIndex
 90
      256
102
RTVSPost2010Prop51ColorRGB
 90
-16777216
102
RTVSPost2010PropOp51
 70
     0
102
RTVSPost2010Prop52
140
1.0
102
RTVSPost2010PropOp52
 70
     0
102
RTVSPost2010Prop53
 90
        2
102
RTVSPost2010PropOp53
 70
     1
102
RTVSPost2010Prop54
  1
strokes_ogs.tif
102
RTVSPost2010PropOp54
 70
     1
102
RTVSPost2010Prop55
280
     0
102
RTVSPost2010PropOp55
 70
     1
102
RTVSPost2010Prop56
140
1.0
102
RTVSPost2010PropOp56
 70
     1
102
RTVSPost2010Prop57
140
1.0
102
RTVSPost2010PropOp57
 70
     1
102
RTVSPropertyOp0
 70
     1
102
RTVSPropertyOp1
 70
     1
102
RTVSPropertyOp2
 70
     1
102
RTVSPropertyOp3
 70
     1
102
RTVSPropertyOp4
 70
     1
102
RTVSPropertyOp5
 70
     1
102
RTVSPropertyOp6
 70
     1
102
RTVSPropertyOp7
 70
     1
102
RTVSPropertyOp8
 70
     1
102
RTVSPropertyOp9
 70
     1
102
RTVSPropertyOp10
 70
     1
102
RTVSPropertyOp11
 70
     1
102
RTVSPropertyOp12
 70
     1
102
RTVSPropertyOp13
 70
     1
102
RTVSPropertyOp14
 70
     1
102
RTVSPropertyOp15
 70
     1
102
RTVSPropertyOp16
 70
     1
102
RTVSPropertyOp17
 70
     1
102
RTVSPropertyOp18
 70
     1
102
RTVSPropertyOp19
 70
     1
102
RTVSPropertyOp20
 70
     1
102
RTVSPropertyOp21
 70
     1
102
RTVSPropertyOp22
 70
     1
102
RTVSPropertyOp23
 70
     1
102
RTVSPropertyOp24
 70
     1
102
RTVSPropertyOp25
 70
     1
102
RTVSPropertyOp26
 70
     1
102
RTVSPropertyOp27
 70
     1
102
RTVSPropertyOp28
 70
     1
102
RTVSPropertyOp29
 70
     1
102
RTVSPropertyOp30
 70
     1
102
RTVSPropertyOp31
 70
     1
102
RTVSPropertyOp32
 70
     1
  0
XRECORD
  5
E4
102
{ACAD_REACTORS
330
E3
102
}
330
E3
100
AcDbXrecord
280
     1
102
RTVSPropertyOp33
 70
     1
102
RTVSPropertyOp34
 70
     1
102
RTVSPropertyOp35
 70
     1
102
RTVSPropertyOp36
 70
     1
102
RTVSPropertyOp37
 70
     1
102
RTVSPropertyOp38
 70
     1
102
RTVSPropertyOp39
 70
     1
102
RTVSPropertyOp40
 70
     1
102
RTVSPropertyOp41
 70
     1
102
RTVSPropertyOp42
 70
     1
102
RTVSPropertyOp43
 70
     1
102
RTVSPropertyOp44
 70
     1
102
RTVSPropertyOp45
 70
     1
102
RTVSPropertyOp46
 70
     1
102
RTVSPropertyOp47
 70
     1
102
RTVSPropertyOp48
 70
     1
102
RTVSPropertyOp49
 70
     1
102
RTVSPropertyOp50
 70
     1
102
RTVSPropertyOp51
 70
     0
102
RTVSPropertyOp52
 70
     0
102
RTVSPropertyOp53
 70
     1
102
RTVSPropertyOp54
 70
     1
102
RTVSPropertyOp55
 70
     1
102
RTVSPropertyOp56
 70
     1
102
RTVSPropertyOp57
 70
     1
102
RTVSPost2010Prop28
280
     0
102
RTVSPost2010PropOp28
 70
     1
102
RTVSPost2010Prop29
280
     1
102
RTVSPost2010PropOp29
 70
     1
102
RTVSPost2010Prop30
280
     1
102
RTVSPost2010PropOp30
 70
     1
102
RTVSPost2010Prop31
280
     0
102
RTVSPost2010PropOp31
 70
     1
102
RTVSPost2010Prop32
280
     0
102
RTVSPost2010PropOp32
 70
     1
102
RTVSPost2010Prop33
280
     0
102
RTVSPost2010PropOp33
 70
     1
102
RTVSPost2010Prop34
280
     0
102
RTVSPost2010PropOp34
 70
     1
102
RTVSPost2010Prop35
280
     0
102
RTVSPost2010PropOp35
 70
     1
102
RTVSPost2010Prop36
280
     0
102
RTVSPost2010PropOp36
 70
     1
102
RTVSPost2010Prop37
 90
       50
102
RTVSPost2010PropOp37
 70
     1
102
RTVSPost2010Prop38
140
0.0
102
RTVSPost2010PropOp38
 70
     1
102
RTVSPost2010Prop39
140
1.0
102
RTVSPost2010PropOp39
 70
     1
102
RTVSPost2010Prop40
 90
        0
102
RTVSPost2010PropOp40
 70
     1
102
RTVSPost2010Prop41ColorIndex
 90
       18
102
RTVSPost2010Prop41ColorRGB
 90
        0
102
RTVSPost2010PropOp41
 70
     1
102
RTVSPost2010Prop42
 90
       50
102
RTVSPost2010PropOp42
 70
     1
102
RTVSPost2010Prop43
 90
        3
102
RTVSPost2010PropOp43
 70
     1
102
RTVSPost2010Prop44ColorIndex
 90
        5
102
RTVSPost2010Prop44ColorRGB
 90
      255
102
RTVSPost2010PropOp44
 70
     1
102
RTVSPost2010Prop45
280
     0
102
RTVSPost2010PropOp45
 70
     1
102
RTVSPost2010Prop46
 90
       50
102
RTVSPost2010PropOp46
 70
     1
102
RTVSPost2010Prop47
 90
       50
102
RTVSPost2010PropOp47
 70
     1
102
RTVSPost2010Prop48
 90
       50
102
RTVSPost2010PropOp48
 70
     1
102
RTVSPost2010Prop49
280
     0
102
RTVSPost2010PropOp49
 70
     1
102
RTVSPost2010Prop50
 90
       50
102
RTVSPost2010PropOp50
 70
     1
102
RTVSPost2010Prop51ColorIndex
 90
      256
102
RTVSPost2010Prop51ColorRGB
 90
-16777216
102
RTVSPost2010PropOp51
 70
     0
102
RTVSPost2010Prop52
140
1.0
102
RTVSPost2010PropOp52
 70
     0
102
RTVSPost2010Prop53
 90
        2
102
RTVSPost2010PropOp53
 70
     1
102
RTVSPost2010Prop54
  1
strokes_ogs.tif
102
RTVSPost2010PropOp54
 70
     1
102
RTVSPost2010Prop55
280
     0
102
RTVSPost2010PropOp55
 70
     1
102
RTVSPost2010Prop56
140
1.0
102
RTVSPost2010PropOp56
 70
     1
102
RTVSPost2010Prop57
140
1.0
102
RTVSPost2010PropOp57
 70
     1
102
RTVSPropertyOp0
 70
     1
102
RTVSPropertyOp1
 70
     1
102
RTVSPropertyOp2
 70
     1
102
RTVSPropertyOp3
 70
     1
102
RTVSPropertyOp4
 70
     1
102
RTVSPropertyOp5
 70
     1
102
RTVSPropertyOp6
 70
     1
102
RTVSPropertyOp7
 70
     1
102
RTVSPropertyOp8
 70
     1
102
RTVSPropertyOp9
 70
     1
102
RTVSPropertyOp10
 70
     1
102
RTVSPropertyOp11
 70
     1
102
RTVSPropertyOp12
 70
     1
102
RTVSPropertyOp13
 70
     1
102
RTVSPropertyOp14
 70
     1
102
RTVSPropertyOp15
 70
     1
102
RTVSPropertyOp16
 70
     1
102
RTVSPropertyOp17
 70
     1
102
RTVSPropertyOp18
 70
     1
102
RTVSPropertyOp19
 70
     1
102
RTVSPropertyOp20
 70
     1
102
RTVSPropertyOp21
 70
     1
102
RTVSPropertyOp22
 70
     1
102
RTVSPropertyOp23
 70
     1
102
RTVSPropertyOp24
 70
     1
102
RTVSPropertyOp25
 70
     1
102
RTVSPropertyOp26
 70
     1
102
RTVSPropertyOp27
 70
     1
102
RTVSPropertyOp28
 70
     1
102
RTVSPropertyOp29
 70
     1
102
RTVSPropertyOp30
 70
     1
102
RTVSPropertyOp31
 70
     1
102
RTVSPropertyOp32
 70
     1
  0
XRECORD
  5
D8
102
{ACAD_REACTORS
330
D7
102
}
330
D7
100
AcDbXrecord
280
     1
102
RTVSPropertyOp33
 70
     1
102
RTVSPropertyOp34
 70
     1
102
RTVSPropertyOp35
 70
     1
102
RTVSPropertyOp36
 70
     1
102
RTVSPropertyOp37
 70
     1
102
RTVSPropertyOp38
 70
     1
102
RTVSPropertyOp39
 70
     1
102
RTVSPropertyOp40
 70
     1
102
RTVSPropertyOp41
 70
     1
102
RTVSPropertyOp42
 70
     1
102
RTVSPropertyOp43
 70
     1
102
RTVSPropertyOp44
 70
     1
102
RTVSPropertyOp45
 70
     1
102
RTVSPropertyOp46
 70
     1
102
RTVSPropertyOp47
 70
     1
102
RTVSPropertyOp48
 70
     1
102
RTVSPropertyOp49
 70
     1
102
RTVSPropertyOp50
 70
     1
102
RTVSPropertyOp51
 70
     0
102
RTVSPropertyOp52
 70
     0
102
RTVSPropertyOp53
 70
     1
102
RTVSPropertyOp54
 70
     1
102
RTVSPropertyOp55
 70
     1
102
RTVSPropertyOp56
 70
     1
102
RTVSPropertyOp57
 70
     1
102
RTVSPost2010Prop28
280
     0
102
RTVSPost2010PropOp28
 70
     1
102
RTVSPost2010Prop29
280
     1
102
RTVSPost2010PropOp29
 70
     1
102
RTVSPost2010Prop30
280
     1
102
RTVSPost2010PropOp30
 70
     1
102
RTVSPost2010Prop31
280
     0
102
RTVSPost2010PropOp31
 70
     1
102
RTVSPost2010Prop32
280
     0
102
RTVSPost2010PropOp32
 70
     1
102
RTVSPost2010Prop33
280
     0
102
RTVSPost2010PropOp33
 70
     1
102
RTVSPost2010Prop34
280
     0
102
RTVSPost2010PropOp34
 70
     1
102
RTVSPost2010Prop35
280
     0
102
RTVSPost2010PropOp35
 70
     1
102
RTVSPost2010Prop36
280
     0
102
RTVSPost2010PropOp36
 70
     1
102
RTVSPost2010Prop37
 90
       50
102
RTVSPost2010PropOp37
 70
     1
102
RTVSPost2010Prop38
140
0.0
102
RTVSPost2010PropOp38
 70
     1
102
RTVSPost2010Prop39
140
1.0
102
RTVSPost2010PropOp39
 70
     1
102
RTVSPost2010Prop40
 90
        0
102
RTVSPost2010PropOp40
 70
     1
102
RTVSPost2010Prop41ColorIndex
 90
       18
102
RTVSPost2010Prop41ColorRGB
 90
        0
102
RTVSPost2010PropOp41
 70
     1
102
RTVSPost2010Prop42
 90
       50
102
RTVSPost2010PropOp42
 70
     1
102
RTVSPost2010Prop43
 90
        3
102
RTVSPost2010PropOp43
 70
     1
102
RTVSPost2010Prop44ColorIndex
 90
        5
102
RTVSPost2010Prop44ColorRGB
 90
      255
102
RTVSPost2010PropOp44
 70
     1
102
RTVSPost2010Prop45
280
     0
102
RTVSPost2010PropOp45
 70
     1
102
RTVSPost2010Prop46
 90
       50
102
RTVSPost2010PropOp46
 70
     1
102
RTVSPost2010Prop47
 90
       50
102
RTVSPost2010PropOp47
 70
     1
102
RTVSPost2010Prop48
 90
       50
102
RTVSPost2010PropOp48
 70
     1
102
RTVSPost2010Prop49
280
     0
102
RTVSPost2010PropOp49
 70
     1
102
RTVSPost2010Prop50
 90
       50
102
RTVSPost2010PropOp50
 70
     1
102
RTVSPost2010Prop51ColorIndex
 90
      256
102
RTVSPost2010Prop51ColorRGB
 90
-16777216
102
RTVSPost2010PropOp51
 70
     0
102
RTVSPost2010Prop52
140
1.0
102
RTVSPost2010PropOp52
 70
     0
102
RTVSPost2010Prop53
 90
        2
102
RTVSPost2010PropOp53
 70
     1
102
RTVSPost2010Prop54
  1
strokes_ogs.tif
102
RTVSPost2010PropOp54
 70
     1
102
RTVSPost2010Prop55
280
     0
102
RTVSPost2010PropOp55
 70
     1
102
RTVSPost2010Prop56
140
1.0
102
RTVSPost2010PropOp56
 70
     1
102
RTVSPost2010Prop57
140
1.0
102
RTVSPost2010PropOp57
 70
     1
102
RTVSPropertyOp0
 70
     1
102
RTVSPropertyOp1
 70
     1
102
RTVSPropertyOp2
 70
     1
102
RTVSPropertyOp3
 70
     1
102
RTVSPropertyOp4
 70
     1
102
RTVSPropertyOp5
 70
     1
102
RTVSPropertyOp6
 70
     1
102
RTVSPropertyOp7
 70
     1
102
RTVSPropertyOp8
 70
     1
102
RTVSPropertyOp9
 70
     1
102
RTVSPropertyOp10
 70
     1
102
RTVSPropertyOp11
 70
     1
102
RTVSPropertyOp12
 70
     1
102
RTVSPropertyOp13
 70
     1
102
RTVSPropertyOp14
 70
     1
102
RTVSPropertyOp15
 70
     1
102
RTVSPropertyOp16
 70
     1
102
RTVSPropertyOp17
 70
     1
102
RTVSPropertyOp18
 70
     1
102
RTVSPropertyOp19
 70
     1
102
RTVSPropertyOp20
 70
     1
102
RTVSPropertyOp21
 70
     1
102
RTVSPropertyOp22
 70
     1
102
RTVSPropertyOp23
 70
     1
102
RTVSPropertyOp24
 70
     1
102
RTVSPropertyOp25
 70
     1
102
RTVSPropertyOp26
 70
     1
102
RTVSPropertyOp27
 70
     1
102
RTVSPropertyOp28
 70
     1
102
RTVSPropertyOp29
 70
     1
102
RTVSPropertyOp30
 70
     1
102
RTVSPropertyOp31
 70
     1
102
RTVSPropertyOp32
 70
     1
  0
XRECORD
  5
DA
102
{ACAD_REACTORS
330
D9
102
}
330
D9
100
AcDbXrecord
280
     1
102
RTVSPropertyOp33
 70
     1
102
RTVSPropertyOp34
 70
     1
102
RTVSPropertyOp35
 70
     1
102
RTVSPropertyOp36
 70
     1
102
RTVSPropertyOp37
 70
     1
102
RTVSPropertyOp38
 70
     1
102
RTVSPropertyOp39
 70
     1
102
RTVSPropertyOp40
 70
     1
102
RTVSPropertyOp41
 70
     1
102
RTVSPropertyOp42
 70
     1
102
RTVSPropertyOp43
 70
     1
102
RTVSPropertyOp44
 70
     1
102
RTVSPropertyOp45
 70
     1
102
RTVSPropertyOp46
 70
     1
102
RTVSPropertyOp47
 70
     1
102
RTVSPropertyOp48
 70
     1
102
RTVSPropertyOp49
 70
     1
102
RTVSPropertyOp50
 70
     1
102
RTVSPropertyOp51
 70
     0
102
RTVSPropertyOp52
 70
     0
102
RTVSPropertyOp53
 70
     1
102
RTVSPropertyOp54
 70
     1
102
RTVSPropertyOp55
 70
     1
102
RTVSPropertyOp56
 70
     1
102
RTVSPropertyOp57
 70
     1
102
RTVSPost2010Prop28
280
     0
102
RTVSPost2010PropOp28
 70
     1
102
RTVSPost2010Prop29
280
     1
102
RTVSPost2010PropOp29
 70
     1
102
RTVSPost2010Prop30
280
     1
102
RTVSPost2010PropOp30
 70
     1
102
RTVSPost2010Prop31
280
     0
102
RTVSPost2010PropOp31
 70
     1
102
RTVSPost2010Prop32
280
     0
102
RTVSPost2010PropOp32
 70
     1
102
RTVSPost2010Prop33
280
     0
102
RTVSPost2010PropOp33
 70
     1
102
RTVSPost2010Prop34
280
     0
102
RTVSPost2010PropOp34
 70
     1
102
RTVSPost2010Prop35
280
     0
102
RTVSPost2010PropOp35
 70
     1
102
RTVSPost2010Prop36
280
     0
102
RTVSPost2010PropOp36
 70
     1
102
RTVSPost2010Prop37
 90
       50
102
RTVSPost2010PropOp37
 70
     1
102
RTVSPost2010Prop38
140
0.0
102
RTVSPost2010PropOp38
 70
     1
102
RTVSPost2010Prop39
140
1.0
102
RTVSPost2010PropOp39
 70
     1
102
RTVSPost2010Prop40
 90
        0
102
RTVSPost2010PropOp40
 70
     1
102
RTVSPost2010Prop41ColorIndex
 90
       18
102
RTVSPost2010Prop41ColorRGB
 90
        0
102
RTVSPost2010PropOp41
 70
     1
102
RTVSPost2010Prop42
 90
       50
102
RTVSPost2010PropOp42
 70
     1
102
RTVSPost2010Prop43
 90
        3
102
RTVSPost2010PropOp43
 70
     1
102
RTVSPost2010Prop44ColorIndex
 90
        5
102
RTVSPost2010Prop44ColorRGB
 90
      255
102
RTVSPost2010PropOp44
 70
     1
102
RTVSPost2010Prop45
280
     0
102
RTVSPost2010PropOp45
 70
     1
102
RTVSPost2010Prop46
 90
       50
102
RTVSPost2010PropOp46
 70
     1
102
RTVSPost2010Prop47
 90
       50
102
RTVSPost2010PropOp47
 70
     1
102
RTVSPost2010Prop48
 90
       50
102
RTVSPost2010PropOp48
 70
     1
102
RTVSPost2010Prop49
280
     0
102
RTVSPost2010PropOp49
 70
     1
102
RTVSPost2010Prop50
 90
       50
102
RTVSPost2010PropOp50
 70
     1
102
RTVSPost2010Prop51ColorIndex
 90
      256
102
RTVSPost2010Prop51ColorRGB
 90
-16777216
102
RTVSPost2010PropOp51
 70
     0
102
RTVSPost2010Prop52
140
1.0
102
RTVSPost2010PropOp52
 70
     0
102
RTVSPost2010Prop53
 90
        2
102
RTVSPost2010PropOp53
 70
     1
102
RTVSPost2010Prop54
  1
strokes_ogs.tif
102
RTVSPost2010PropOp54
 70
     1
102
RTVSPost2010Prop55
280
     0
102
RTVSPost2010PropOp55
 70
     1
102
RTVSPost2010Prop56
140
1.0
102
RTVSPost2010PropOp56
 70
     1
102
RTVSPost2010Prop57
140
1.0
102
RTVSPost2010PropOp57
 70
     1
102
RTVSPropertyOp0
 70
     1
102
RTVSPropertyOp1
 70
     1
102
RTVSPropertyOp2
 70
     1
102
RTVSPropertyOp3
 70
     1
102
RTVSPropertyOp4
 70
     1
102
RTVSPropertyOp5
 70
     1
102
RTVSPropertyOp6
 70
     1
102
RTVSPropertyOp7
 70
     1
102
RTVSPropertyOp8
 70
     1
102
RTVSPropertyOp9
 70
     1
102
RTVSPropertyOp10
 70
     1
102
RTVSPropertyOp11
 70
     1
102
RTVSPropertyOp12
 70
     1
102
RTVSPropertyOp13
 70
     1
102
RTVSPropertyOp14
 70
     1
102
RTVSPropertyOp15
 70
     1
102
RTVSPropertyOp16
 70
     1
102
RTVSPropertyOp17
 70
     1
102
RTVSPropertyOp18
 70
     1
102
RTVSPropertyOp19
 70
     1
102
RTVSPropertyOp20
 70
     1
102
RTVSPropertyOp21
 70
     1
102
RTVSPropertyOp22
 70
     1
102
RTVSPropertyOp23
 70
     1
102
RTVSPropertyOp24
 70
     1
102
RTVSPropertyOp25
 70
     1
102
RTVSPropertyOp26
 70
     1
102
RTVSPropertyOp27
 70
     1
102
RTVSPropertyOp28
 70
     1
102
RTVSPropertyOp29
 70
     1
102
RTVSPropertyOp30
 70
     1
102
RTVSPropertyOp31
 70
     1
102
RTVSPropertyOp32
 70
     1
  0
XRECORD
  5
EA
102
{ACAD_REACTORS
330
E9
102
}
330
E9
100
AcDbXrecord
280
     1
102
RTVSPropertyOp33
 70
     0
102
RTVSPropertyOp34
 70
     0
102
RTVSPropertyOp35
 70
     0
102
RTVSPropertyOp36
 70
     0
102
RTVSPropertyOp37
 70
     0
102
RTVSPropertyOp38
 70
     0
102
RTVSPropertyOp39
 70
     0
102
RTVSPropertyOp40
 70
     0
102
RTVSPropertyOp41
 70
     0
102
RTVSPropertyOp42
 70
     0
102
RTVSPropertyOp43
 70
     0
102
RTVSPropertyOp44
 70
     0
102
RTVSPropertyOp45
 70
     0
102
RTVSPropertyOp46
 70
     0
102
RTVSPropertyOp47
 70
     0
102
RTVSPropertyOp48
 70
     0
102
RTVSPropertyOp49
 70
     0
102
RTVSPropertyOp50
 70
     0
102
RTVSPropertyOp51
 70
     0
102
RTVSPropertyOp52
 70
     0
102
RTVSPropertyOp53
 70
     0
102
RTVSPropertyOp54
 70
     0
102
RTVSPropertyOp55
 70
     0
102
RTVSPropertyOp56
 70
     0
102
RTVSPropertyOp57
 70
     0
102
RTVSPost2010Prop28
280
     0
102
RTVSPost2010PropOp28
 70
     0
102
RTVSPost2010Prop29
280
     1
102
RTVSPost2010PropOp29
 70
     0
102
RTVSPost2010Prop30
280
     1
102
RTVSPost2010PropOp30
 70
     0
102
RTVSPost2010Prop31
280
     0
102
RTVSPost2010PropOp31
 70
     0
102
RTVSPost2010Prop32
280
     0
102
RTVSPost2010PropOp32
 70
     0
102
RTVSPost2010Prop33
280
     0
102
RTVSPost2010PropOp33
 70
     0
102
RTVSPost2010Prop34
280
     0
102
RTVSPost2010PropOp34
 70
     0
102
RTVSPost2010Prop35
280
     0
102
RTVSPost2010PropOp35
 70
     0
102
RTVSPost2010Prop36
280
     0
102
RTVSPost2010PropOp36
 70
     0
102
RTVSPost2010Prop37
 90
       50
102
RTVSPost2010PropOp37
 70
     0
102
RTVSPost2010Prop38
140
0.0
102
RTVSPost2010PropOp38
 70
     0
102
RTVSPost2010Prop39
140
1.0
102
RTVSPost2010PropOp39
 70
     0
102
RTVSPost2010Prop40
 90
        0
102
RTVSPost2010PropOp40
 70
     0
102
RTVSPost2010Prop41ColorIndex
 90
       18
102
RTVSPost2010Prop41ColorRGB
 90
        0
102
RTVSPost2010PropOp41
 70
     0
102
RTVSPost2010Prop42
 90
       50
102
RTVSPost2010PropOp42
 70
     0
102
RTVSPost2010Prop43
 90
        3
102
RTVSPost2010PropOp43
 70
     0
102
RTVSPost2010Prop44ColorIndex
 90
        5
102
RTVSPost2010Prop44ColorRGB
 90
      255
102
RTVSPost2010PropOp44
 70
     0
102
RTVSPost2010Prop45
280
     0
102
RTVSPost2010PropOp45
 70
     0
102
RTVSPost2010Prop46
 90
       50
102
RTVSPost2010PropOp46
 70
     0
102
RTVSPost2010Prop47
 90
       50
102
RTVSPost2010PropOp47
 70
     0
102
RTVSPost2010Prop48
 90
       50
102
RTVSPost2010PropOp48
 70
     0
102
RTVSPost2010Prop49
280
     0
102
RTVSPost2010PropOp49
 70
     0
102
RTVSPost2010Prop50
 90
       50
102
RTVSPost2010PropOp50
 70
     0
102
RTVSPost2010Prop51ColorIndex
 90
      256
102
RTVSPost2010Prop51ColorRGB
 90
-16777216
102
RTVSPost2010PropOp51
 70
     0
102
RTVSPost2010Prop52
140
1.0
102
RTVSPost2010PropOp52
 70
     0
102
RTVSPost2010Prop53
 90
        2
102
RTVSPost2010PropOp53
 70
     0
102
RTVSPost2010Prop54
  1
strokes_ogs.tif
102
RTVSPost2010PropOp54
 70
     0
102
RTVSPost2010Prop55
280
     0
102
RTVSPost2010PropOp55
 70
     0
102
RTVSPost2010Prop56
140
1.0
102
RTVSPost2010PropOp56
 70
     0
102
RTVSPost2010Prop57
140
1.0
102
RTVSPost2010PropOp57
 70
     0
102
RTVSPropertyOp0
 70
     0
102
RTVSPropertyOp1
 70
     0
102
RTVSPropertyOp2
 70
     0
102
RTVSPropertyOp3
 70
     0
102
RTVSPropertyOp4
 70
     0
102
RTVSPropertyOp5
 70
     0
102
RTVSPropertyOp6
 70
     0
102
RTVSPropertyOp7
 70
     0
102
RTVSPropertyOp8
 70
     0
102
RTVSPropertyOp9
 70
     0
102
RTVSPropertyOp10
 70
     0
102
RTVSPropertyOp11
 70
     0
102
RTVSPropertyOp12
 70
     0
102
RTVSPropertyOp13
 70
     0
102
RTVSPropertyOp14
 70
     2
102
RTVSPropertyOp15
 70
     0
102
RTVSPropertyOp16
 70
     0
102
RTVSPropertyOp17
 70
     0
102
RTVSPropertyOp18
 70
     0
102
RTVSPropertyOp19
 70
     0
102
RTVSPropertyOp20
 70
     0
102
RTVSPropertyOp21
 70
     0
102
RTVSPropertyOp22
 70
     0
102
RTVSPropertyOp23
 70
     0
102
RTVSPropertyOp24
 70
     0
102
RTVSPropertyOp25
 70
     0
102
RTVSPropertyOp26
 70
     0
102
RTVSPropertyOp27
 70
     0
102
RTVSPropertyOp28
 70
     1
102
RTVSPropertyOp29
 70
     1
102
RTVSPropertyOp30
 70
     1
102
RTVSPropertyOp31
 70
     1
102
RTVSPropertyOp32
 70
     1
  0
XRECORD
  5
E2
102
{ACAD_REACTORS
330
E1
102
}
330
E1
100
AcDbXrecord
280
     1
102
RTVSPropertyOp33
 70
     1
102
RTVSPropertyOp34
 70
     1
102
RTVSPropertyOp35
 70
     1
102
RTVSPropertyOp36
 70
     1
102
RTVSPropertyOp37
 70
     1
102
RTVSPropertyOp38
 70
     1
102
RTVSPropertyOp39
 70
     1
102
RTVSPropertyOp40
 70
     1
102
RTVSPropertyOp41
 70
     1
102
RTVSPropertyOp42
 70
     1
102
RTVSPropertyOp43
 70
     1
102
RTVSPropertyOp44
 70
     1
102
RTVSPropertyOp45
 70
     1
102
RTVSPropertyOp46
 70
     1
102
RTVSPropertyOp47
 70
     1
102
RTVSPropertyOp48
 70
     1
102
RTVSPropertyOp49
 70
     1
102
RTVSPropertyOp50
 70
     1
102
RTVSPropertyOp51
 70
     0
102
RTVSPropertyOp52
 70
     0
102
RTVSPropertyOp53
 70
     1
102
RTVSPropertyOp54
 70
     1
102
RTVSPropertyOp55
 70
     1
102
RTVSPropertyOp56
 70
     1
102
RTVSPropertyOp57
 70
     1
102
RTVSPost2010Prop28
280
     0
102
RTVSPost2010PropOp28
 70
     1
102
RTVSPost2010Prop29
280
     1
102
RTVSPost2010PropOp29
 70
     1
102
RTVSPost2010Prop30
280
     1
102
RTVSPost2010PropOp30
 70
     1
102
RTVSPost2010Prop31
280
     0
102
RTVSPost2010PropOp31
 70
     1
102
RTVSPost2010Prop32
280
     0
102
RTVSPost2010PropOp32
 70
     1
102
RTVSPost2010Prop33
280
     0
102
RTVSPost2010PropOp33
 70
     1
102
RTVSPost2010Prop34
280
     0
102
RTVSPost2010PropOp34
 70
     1
102
RTVSPost2010Prop35
280
     0
102
RTVSPost2010PropOp35
 70
     1
102
RTVSPost2010Prop36
280
     0
102
RTVSPost2010PropOp36
 70
     1
102
RTVSPost2010Prop37
 90
       50
102
RTVSPost2010PropOp37
 70
     1
102
RTVSPost2010Prop38
140
0.0
102
RTVSPost2010PropOp38
 70
     1
102
RTVSPost2010Prop39
140
1.0
102
RTVSPost2010PropOp39
 70
     1
102
RTVSPost2010Prop40
 90
        0
102
RTVSPost2010PropOp40
 70
     1
102
RTVSPost2010Prop41ColorIndex
 90
       18
102
RTVSPost2010Prop41ColorRGB
 90
        0
102
RTVSPost2010PropOp41
 70
     1
102
RTVSPost2010Prop42
 90
       50
102
RTVSPost2010PropOp42
 70
     1
102
RTVSPost2010Prop43
 90
        3
102
RTVSPost2010PropOp43
 70
     1
102
RTVSPost2010Prop44ColorIndex
 90
        5
102
RTVSPost2010Prop44ColorRGB
 90
      255
102
RTVSPost2010PropOp44
 70
     1
102
RTVSPost2010Prop45
280
     0
102
RTVSPost2010PropOp45
 70
     1
102
RTVSPost2010Prop46
 90
       50
102
RTVSPost2010PropOp46
 70
     1
102
RTVSPost2010Prop47
 90
       50
102
RTVSPost2010PropOp47
 70
     1
102
RTVSPost2010Prop48
 90
       50
102
RTVSPost2010PropOp48
 70
     1
102
RTVSPost2010Prop49
280
     0
102
RTVSPost2010PropOp49
 70
     1
102
RTVSPost2010Prop50
 90
       50
102
RTVSPost2010PropOp50
 70
     1
102
RTVSPost2010Prop51ColorIndex
 90
      256
102
RTVSPost2010Prop51ColorRGB
 90
-16777216
102
RTVSPost2010PropOp51
 70
     0
102
RTVSPost2010Prop52
140
1.0
102
RTVSPost2010PropOp52
 70
     0
102
RTVSPost2010Prop53
 90
        2
102
RTVSPost2010PropOp53
 70
     1
102
RTVSPost2010Prop54
  1
strokes_ogs.tif
102
RTVSPost2010PropOp54
 70
     1
102
RTVSPost2010Prop55
280
     0
102
RTVSPost2010PropOp55
 70
     1
102
RTVSPost2010Prop56
140
1.0
102
RTVSPost2010PropOp56
 70
     1
102
RTVSPost2010Prop57
140
1.0
102
RTVSPost2010PropOp57
 70
     1
102
RTVSPropertyOp0
 70
     1
102
RTVSPropertyOp1
 70
     1
102
RTVSPropertyOp2
 70
     1
102
RTVSPropertyOp3
 70
     1
102
RTVSPropertyOp4
 70
     1
102
RTVSPropertyOp5
 70
     1
102
RTVSPropertyOp6
 70
     1
102
RTVSPropertyOp7
 70
     1
102
RTVSPropertyOp8
 70
     1
102
RTVSPropertyOp9
 70
     1
102
RTVSPropertyOp10
 70
     1
102
RTVSPropertyOp11
 70
     1
102
RTVSPropertyOp12
 70
     1
102
RTVSPropertyOp13
 70
     1
102
RTVSPropertyOp14
 70
     1
102
RTVSPropertyOp15
 70
     1
102
RTVSPropertyOp16
 70
     1
102
RTVSPropertyOp17
 70
     1
102
RTVSPropertyOp18
 70
     1
102
RTVSPropertyOp19
 70
     1
102
RTVSPropertyOp20
 70
     1
102
RTVSPropertyOp21
 70
     1
102
RTVSPropertyOp22
 70
     1
102
RTVSPropertyOp23
 70
     1
102
RTVSPropertyOp24
 70
     1
102
RTVSPropertyOp25
 70
     1
102
RTVSPropertyOp26
 70
     1
102
RTVSPropertyOp27
 70
     1
102
RTVSPropertyOp28
 70
     1
102
RTVSPropertyOp29
 70
     1
102
RTVSPropertyOp30
 70
     1
102
RTVSPropertyOp31
 70
     1
102
RTVSPropertyOp32
 70
     1
  0
XRECORD
  5
C6
102
{ACAD_REACTORS
330
C5
102
}
330
C5
100
AcDbXrecord
280
     1
102
RTVSPropertyOp33
 70
     1
102
RTVSPropertyOp34
 70
     1
102
RTVSPropertyOp35
 70
     1
102
RTVSPropertyOp36
 70
     1
102
RTVSPropertyOp37
 70
     1
102
RTVSPropertyOp38
 70
     1
102
RTVSPropertyOp39
 70
     1
102
RTVSPropertyOp40
 70
     1
102
RTVSPropertyOp41
 70
     1
102
RTVSPropertyOp42
 70
     1
102
RTVSPropertyOp43
 70
     1
102
RTVSPropertyOp44
 70
     1
102
RTVSPropertyOp45
 70
     1
102
RTVSPropertyOp46
 70
     1
102
RTVSPropertyOp47
 70
     1
102
RTVSPropertyOp48
 70
     1
102
RTVSPropertyOp49
 70
     1
102
RTVSPropertyOp50
 70
     1
102
RTVSPropertyOp51
 70
     0
102
RTVSPropertyOp52
 70
     0
102
RTVSPropertyOp53
 70
     1
102
RTVSPropertyOp54
 70
     1
102
RTVSPropertyOp55
 70
     1
102
RTVSPropertyOp56
 70
     1
102
RTVSPropertyOp57
 70
     1
102
RTVSPost2010Prop28
280
     0
102
RTVSPost2010PropOp28
 70
     1
102
RTVSPost2010Prop29
280
     1
102
RTVSPost2010PropOp29
 70
     1
102
RTVSPost2010Prop30
280
     1
102
RTVSPost2010PropOp30
 70
     1
102
RTVSPost2010Prop31
280
     0
102
RTVSPost2010PropOp31
 70
     1
102
RTVSPost2010Prop32
280
     0
102
RTVSPost2010PropOp32
 70
     1
102
RTVSPost2010Prop33
280
     0
102
RTVSPost2010PropOp33
 70
     1
102
RTVSPost2010Prop34
280
     0
102
RTVSPost2010PropOp34
 70
     1
102
RTVSPost2010Prop35
280
     0
102
RTVSPost2010PropOp35
 70
     1
102
RTVSPost2010Prop36
280
     0
102
RTVSPost2010PropOp36
 70
     1
102
RTVSPost2010Prop37
 90
       50
102
RTVSPost2010PropOp37
 70
     1
102
RTVSPost2010Prop38
140
0.0
102
RTVSPost2010PropOp38
 70
     1
102
RTVSPost2010Prop39
140
1.0
102
RTVSPost2010PropOp39
 70
     1
102
RTVSPost2010Prop40
 90
        0
102
RTVSPost2010PropOp40
 70
     1
102
RTVSPost2010Prop41ColorIndex
 90
       18
102
RTVSPost2010Prop41ColorRGB
 90
        0
102
RTVSPost2010PropOp41
 70
     1
102
RTVSPost2010Prop42
 90
       50
102
RTVSPost2010PropOp42
 70
     1
102
RTVSPost2010Prop43
 90
        3
102
RTVSPost2010PropOp43
 70
     1
102
RTVSPost2010Prop44ColorIndex
 90
        5
102
RTVSPost2010Prop44ColorRGB
 90
      255
102
RTVSPost2010PropOp44
 70
     1
102
RTVSPost2010Prop45
280
     0
102
RTVSPost2010PropOp45
 70
     1
102
RTVSPost2010Prop46
 90
       50
102
RTVSPost2010PropOp46
 70
     1
102
RTVSPost2010Prop47
 90
       50
102
RTVSPost2010PropOp47
 70
     1
102
RTVSPost2010Prop48
 90
       50
102
RTVSPost2010PropOp48
 70
     1
102
RTVSPost2010Prop49
280
     0
102
RTVSPost2010PropOp49
 70
     1
102
RTVSPost2010Prop50
 90
       50
102
RTVSPost2010PropOp50
 70
     1
102
RTVSPost2010Prop51ColorIndex
 90
      256
102
RTVSPost2010Prop51ColorRGB
 90
-16777216
102
RTVSPost2010PropOp51
 70
     0
102
RTVSPost2010Prop52
140
1.0
102
RTVSPost2010PropOp52
 70
     0
102
RTVSPost2010Prop53
 90
        2
102
RTVSPost2010PropOp53
 70
     1
102
RTVSPost2010Prop54
  1
strokes_ogs.tif
102
RTVSPost2010PropOp54
 70
     1
102
RTVSPost2010Prop55
280
     0
102
RTVSPost2010PropOp55
 70
     1
102
RTVSPost2010Prop56
140
1.0
102
RTVSPost2010PropOp56
 70
     1
102
RTVSPost2010Prop57
140
1.0
102
RTVSPost2010PropOp57
 70
     1
102
RTVSPropertyOp0
 70
     1
102
RTVSPropertyOp1
 70
     1
102
RTVSPropertyOp2
 70
     1
102
RTVSPropertyOp3
 70
     1
102
RTVSPropertyOp4
 70
     1
102
RTVSPropertyOp5
 70
     1
102
RTVSPropertyOp6
 70
     1
102
RTVSPropertyOp7
 70
     1
102
RTVSPropertyOp8
 70
     1
102
RTVSPropertyOp9
 70
     1
102
RTVSPropertyOp10
 70
     1
102
RTVSPropertyOp11
 70
     1
102
RTVSPropertyOp12
 70
     1
102
RTVSPropertyOp13
 70
     1
102
RTVSPropertyOp14
 70
     1
102
RTVSPropertyOp15
 70
     1
102
RTVSPropertyOp16
 70
     1
102
RTVSPropertyOp17
 70
     1
102
RTVSPropertyOp18
 70
     1
102
RTVSPropertyOp19
 70
     1
102
RTVSPropertyOp20
 70
     1
102
RTVSPropertyOp21
 70
     1
102
RTVSPropertyOp22
 70
     1
102
RTVSPropertyOp23
 70
     1
102
RTVSPropertyOp24
 70
     1
102
RTVSPropertyOp25
 70
     1
102
RTVSPropertyOp26
 70
     1
102
RTVSPropertyOp27
 70
     1
102
RTVSPropertyOp28
 70
     1
102
RTVSPropertyOp29
 70
     1
102
RTVSPropertyOp30
 70
     1
102
RTVSPropertyOp31
 70
     1
102
RTVSPropertyOp32
 70
     1
  0
XRECORD
  5
C8
102
{ACAD_REACTORS
330
C7
102
}
330
C7
100
AcDbXrecord
280
     1
102
RTVSPropertyOp33
 70
     1
102
RTVSPropertyOp34
 70
     1
102
RTVSPropertyOp35
 70
     1
102
RTVSPropertyOp36
 70
     1
102
RTVSPropertyOp37
 70
     1
102
RTVSPropertyOp38
 70
     1
102
RTVSPropertyOp39
 70
     1
102
RTVSPropertyOp40
 70
     1
102
RTVSPropertyOp41
 70
     1
102
RTVSPropertyOp42
 70
     1
102
RTVSPropertyOp43
 70
     1
102
RTVSPropertyOp44
 70
     1
102
RTVSPropertyOp45
 70
     1
102
RTVSPropertyOp46
 70
     1
102
RTVSPropertyOp47
 70
     1
102
RTVSPropertyOp48
 70
     1
102
RTVSPropertyOp49
 70
     1
102
RTVSPropertyOp50
 70
     1
102
RTVSPropertyOp51
 70
     0
102
RTVSPropertyOp52
 70
     0
102
RTVSPropertyOp53
 70
     1
102
RTVSPropertyOp54
 70
     1
102
RTVSPropertyOp55
 70
     1
102
RTVSPropertyOp56
 70
     1
102
RTVSPropertyOp57
 70
     1
102
RTVSPost2010Prop28
280
     0
102
RTVSPost2010PropOp28
 70
     1
102
RTVSPost2010Prop29
280
     1
102
RTVSPost2010PropOp29
 70
     1
102
RTVSPost2010Prop30
280
     1
102
RTVSPost2010PropOp30
 70
     1
102
RTVSPost2010Prop31
280
     0
102
RTVSPost2010PropOp31
 70
     1
102
RTVSPost2010Prop32
280
     0
102
RTVSPost2010PropOp32
 70
     1
102
RTVSPost2010Prop33
280
     0
102
RTVSPost2010PropOp33
 70
     1
102
RTVSPost2010Prop34
280
     0
102
RTVSPost2010PropOp34
 70
     1
102
RTVSPost2010Prop35
280
     0
102
RTVSPost2010PropOp35
 70
     1
102
RTVSPost2010Prop36
280
     0
102
RTVSPost2010PropOp36
 70
     1
102
RTVSPost2010Prop37
 90
       50
102
RTVSPost2010PropOp37
 70
     1
102
RTVSPost2010Prop38
140
0.0
102
RTVSPost2010PropOp38
 70
     1
102
RTVSPost2010Prop39
140
1.0
102
RTVSPost2010PropOp39
 70
     1
102
RTVSPost2010Prop40
 90
        0
102
RTVSPost2010PropOp40
 70
     1
102
RTVSPost2010Prop41ColorIndex
 90
       18
102
RTVSPost2010Prop41ColorRGB
 90
        0
102
RTVSPost2010PropOp41
 70
     1
102
RTVSPost2010Prop42
 90
       50
102
RTVSPost2010PropOp42
 70
     1
102
RTVSPost2010Prop43
 90
        3
102
RTVSPost2010PropOp43
 70
     1
102
RTVSPost2010Prop44ColorIndex
 90
        5
102
RTVSPost2010Prop44ColorRGB
 90
      255
102
RTVSPost2010PropOp44
 70
     1
102
RTVSPost2010Prop45
280
     0
102
RTVSPost2010PropOp45
 70
     1
102
RTVSPost2010Prop46
 90
       50
102
RTVSPost2010PropOp46
 70
     1
102
RTVSPost2010Prop47
 90
       50
102
RTVSPost2010PropOp47
 70
     1
102
RTVSPost2010Prop48
 90
       50
102
RTVSPost2010PropOp48
 70
     1
102
RTVSPost2010Prop49
280
     0
102
RTVSPost2010PropOp49
 70
     1
102
RTVSPost2010Prop50
 90
       50
102
RTVSPost2010PropOp50
 70
     1
102
RTVSPost2010Prop51ColorIndex
 90
      256
102
RTVSPost2010Prop51ColorRGB
 90
-16777216
102
RTVSPost2010PropOp51
 70
     0
102
RTVSPost2010Prop52
140
1.0
102
RTVSPost2010PropOp52
 70
     0
102
RTVSPost2010Prop53
 90
        2
102
RTVSPost2010PropOp53
 70
     1
102
RTVSPost2010Prop54
  1
strokes_ogs.tif
102
RTVSPost2010PropOp54
 70
     1
102
RTVSPost2010Prop55
280
     0
102
RTVSPost2010PropOp55
 70
     1
102
RTVSPost2010Prop56
140
1.0
102
RTVSPost2010PropOp56
 70
     1
102
RTVSPost2010Prop57
140
1.0
102
RTVSPost2010PropOp57
 70
     1
102
RTVSPropertyOp0
 70
     1
102
RTVSPropertyOp1
 70
     1
102
RTVSPropertyOp2
 70
     1
102
RTVSPropertyOp3
 70
     1
102
RTVSPropertyOp4
 70
     1
102
RTVSPropertyOp5
 70
     1
102
RTVSPropertyOp6
 70
     1
102
RTVSPropertyOp7
 70
     1
102
RTVSPropertyOp8
 70
     1
102
RTVSPropertyOp9
 70
     1
102
RTVSPropertyOp10
 70
     1
102
RTVSPropertyOp11
 70
     1
102
RTVSPropertyOp12
 70
     1
102
RTVSPropertyOp13
 70
     1
102
RTVSPropertyOp14
 70
     1
102
RTVSPropertyOp15
 70
     1
102
RTVSPropertyOp16
 70
     1
102
RTVSPropertyOp17
 70
     1
102
RTVSPropertyOp18
 70
     1
102
RTVSPropertyOp19
 70
     1
102
RTVSPropertyOp20
 70
     1
102
RTVSPropertyOp21
 70
     1
102
RTVSPropertyOp22
 70
     1
102
RTVSPropertyOp23
 70
     1
102
RTVSPropertyOp24
 70
     1
102
RTVSPropertyOp25
 70
     1
102
RTVSPropertyOp26
 70
     1
102
RTVSPropertyOp27
 70
     1
102
RTVSPropertyOp28
 70
     1
102
RTVSPropertyOp29
 70
     1
102
RTVSPropertyOp30
 70
     1
102
RTVSPropertyOp31
 70
     1
102
RTVSPropertyOp32
 70
     1
  0
XRECORD
  5
CA
102
{ACAD_REACTORS
330
C9
102
}
330
C9
100
AcDbXrecord
280
     1
102
RTVSPropertyOp33
 70
     1
102
RTVSPropertyOp34
 70
     1
102
RTVSPropertyOp35
 70
     1
102
RTVSPropertyOp36
 70
     1
102
RTVSPropertyOp37
 70
     1
102
RTVSPropertyOp38
 70
     1
102
RTVSPropertyOp39
 70
     1
102
RTVSPropertyOp40
 70
     1
102
RTVSPropertyOp41
 70
     1
102
RTVSPropertyOp42
 70
     1
102
RTVSPropertyOp43
 70
     1
102
RTVSPropertyOp44
 70
     1
102
RTVSPropertyOp45
 70
     1
102
RTVSPropertyOp46
 70
     1
102
RTVSPropertyOp47
 70
     1
102
RTVSPropertyOp48
 70
     1
102
RTVSPropertyOp49
 70
     1
102
RTVSPropertyOp50
 70
     1
102
RTVSPropertyOp51
 70
     0
102
RTVSPropertyOp52
 70
     0
102
RTVSPropertyOp53
 70
     1
102
RTVSPropertyOp54
 70
     1
102
RTVSPropertyOp55
 70
     1
102
RTVSPropertyOp56
 70
     1
102
RTVSPropertyOp57
 70
     1
102
RTVSPost2010Prop28
280
     0
102
RTVSPost2010PropOp28
 70
     1
102
RTVSPost2010Prop29
280
     1
102
RTVSPost2010PropOp29
 70
     1
102
RTVSPost2010Prop30
280
     1
102
RTVSPost2010PropOp30
 70
     1
102
RTVSPost2010Prop31
280
     0
102
RTVSPost2010PropOp31
 70
     1
102
RTVSPost2010Prop32
280
     0
102
RTVSPost2010PropOp32
 70
     1
102
RTVSPost2010Prop33
280
     0
102
RTVSPost2010PropOp33
 70
     1
102
RTVSPost2010Prop34
280
     0
102
RTVSPost2010PropOp34
 70
     1
102
RTVSPost2010Prop35
280
     0
102
RTVSPost2010PropOp35
 70
     1
102
RTVSPost2010Prop36
280
     0
102
RTVSPost2010PropOp36
 70
     1
102
RTVSPost2010Prop37
 90
       50
102
RTVSPost2010PropOp37
 70
     1
102
RTVSPost2010Prop38
140
0.0
102
RTVSPost2010PropOp38
 70
     1
102
RTVSPost2010Prop39
140
1.0
102
RTVSPost2010PropOp39
 70
     1
102
RTVSPost2010Prop40
 90
        0
102
RTVSPost2010PropOp40
 70
     1
102
RTVSPost2010Prop41ColorIndex
 90
       18
102
RTVSPost2010Prop41ColorRGB
 90
        0
102
RTVSPost2010PropOp41
 70
     1
102
RTVSPost2010Prop42
 90
       50
102
RTVSPost2010PropOp42
 70
     1
102
RTVSPost2010Prop43
 90
        3
102
RTVSPost2010PropOp43
 70
     1
102
RTVSPost2010Prop44ColorIndex
 90
        5
102
RTVSPost2010Prop44ColorRGB
 90
      255
102
RTVSPost2010PropOp44
 70
     1
102
RTVSPost2010Prop45
280
     0
102
RTVSPost2010PropOp45
 70
     1
102
RTVSPost2010Prop46
 90
       50
102
RTVSPost2010PropOp46
 70
     1
102
RTVSPost2010Prop47
 90
       50
102
RTVSPost2010PropOp47
 70
     1
102
RTVSPost2010Prop48
 90
       50
102
RTVSPost2010PropOp48
 70
     1
102
RTVSPost2010Prop49
280
     0
102
RTVSPost2010PropOp49
 70
     1
102
RTVSPost2010Prop50
 90
       50
102
RTVSPost2010PropOp50
 70
     1
102
RTVSPost2010Prop51ColorIndex
 90
      256
102
RTVSPost2010Prop51ColorRGB
 90
-16777216
102
RTVSPost2010PropOp51
 70
     0
102
RTVSPost2010Prop52
140
1.0
102
RTVSPost2010PropOp52
 70
     0
102
RTVSPost2010Prop53
 90
        2
102
RTVSPost2010PropOp53
 70
     1
102
RTVSPost2010Prop54
  1
strokes_ogs.tif
102
RTVSPost2010PropOp54
 70
     1
102
RTVSPost2010Prop55
280
     0
102
RTVSPost2010PropOp55
 70
     1
102
RTVSPost2010Prop56
140
1.0
102
RTVSPost2010PropOp56
 70
     1
102
RTVSPost2010Prop57
140
1.0
102
RTVSPost2010PropOp57
 70
     1
102
RTVSPropertyOp0
 70
     1
102
RTVSPropertyOp1
 70
     1
102
RTVSPropertyOp2
 70
     1
102
RTVSPropertyOp3
 70
     1
102
RTVSPropertyOp4
 70
     1
102
RTVSPropertyOp5
 70
     1
102
RTVSPropertyOp6
 70
     1
102
RTVSPropertyOp7
 70
     1
102
RTVSPropertyOp8
 70
     1
102
RTVSPropertyOp9
 70
     1
102
RTVSPropertyOp10
 70
     1
102
RTVSPropertyOp11
 70
     1
102
RTVSPropertyOp12
 70
     1
102
RTVSPropertyOp13
 70
     1
102
RTVSPropertyOp14
 70
     1
102
RTVSPropertyOp15
 70
     1
102
RTVSPropertyOp16
 70
     1
102
RTVSPropertyOp17
 70
     1
102
RTVSPropertyOp18
 70
     1
102
RTVSPropertyOp19
 70
     1
102
RTVSPropertyOp20
 70
     1
102
RTVSPropertyOp21
 70
     1
102
RTVSPropertyOp22
 70
     1
102
RTVSPropertyOp23
 70
     1
102
RTVSPropertyOp24
 70
     1
102
RTVSPropertyOp25
 70
     1
102
RTVSPropertyOp26
 70
     1
102
RTVSPropertyOp27
 70
     1
102
RTVSPropertyOp28
 70
     1
102
RTVSPropertyOp29
 70
     1
102
RTVSPropertyOp30
 70
     1
102
RTVSPropertyOp31
 70
     1
102
RTVSPropertyOp32
 70
     1
  0
XRECORD
  5
CC
102
{ACAD_REACTORS
330
CB
102
}
330
CB
100
AcDbXrecord
280
     1
102
RTVSPropertyOp33
 70
     1
102
RTVSPropertyOp34
 70
     1
102
RTVSPropertyOp35
 70
     1
102
RTVSPropertyOp36
 70
     1
102
RTVSPropertyOp37
 70
     1
102
RTVSPropertyOp38
 70
     1
102
RTVSPropertyOp39
 70
     1
102
RTVSPropertyOp40
 70
     1
102
RTVSPropertyOp41
 70
     1
102
RTVSPropertyOp42
 70
     1
102
RTVSPropertyOp43
 70
     1
102
RTVSPropertyOp44
 70
     1
102
RTVSPropertyOp45
 70
     1
102
RTVSPropertyOp46
 70
     1
102
RTVSPropertyOp47
 70
     1
102
RTVSPropertyOp48
 70
     1
102
RTVSPropertyOp49
 70
     1
102
RTVSPropertyOp50
 70
     1
102
RTVSPropertyOp51
 70
     0
102
RTVSPropertyOp52
 70
     0
102
RTVSPropertyOp53
 70
     1
102
RTVSPropertyOp54
 70
     1
102
RTVSPropertyOp55
 70
     1
102
RTVSPropertyOp56
 70
     1
102
RTVSPropertyOp57
 70
     1
102
RTVSPost2010Prop28
280
     0
102
RTVSPost2010PropOp28
 70
     1
102
RTVSPost2010Prop29
280
     1
102
RTVSPost2010PropOp29
 70
     1
102
RTVSPost2010Prop30
280
     1
102
RTVSPost2010PropOp30
 70
     1
102
RTVSPost2010Prop31
280
     0
102
RTVSPost2010PropOp31
 70
     1
102
RTVSPost2010Prop32
280
     0
102
RTVSPost2010PropOp32
 70
     1
102
RTVSPost2010Prop33
280
     0
102
RTVSPost2010PropOp33
 70
     1
102
RTVSPost2010Prop34
280
     0
102
RTVSPost2010PropOp34
 70
     1
102
RTVSPost2010Prop35
280
     0
102
RTVSPost2010PropOp35
 70
     1
102
RTVSPost2010Prop36
280
     0
102
RTVSPost2010PropOp36
 70
     1
102
RTVSPost2010Prop37
 90
       50
102
RTVSPost2010PropOp37
 70
     1
102
RTVSPost2010Prop38
140
0.0
102
RTVSPost2010PropOp38
 70
     1
102
RTVSPost2010Prop39
140
1.0
102
RTVSPost2010PropOp39
 70
     1
102
RTVSPost2010Prop40
 90
        0
102
RTVSPost2010PropOp40
 70
     1
102
RTVSPost2010Prop41ColorIndex
 90
       18
102
RTVSPost2010Prop41ColorRGB
 90
        0
102
RTVSPost2010PropOp41
 70
     1
102
RTVSPost2010Prop42
 90
       50
102
RTVSPost2010PropOp42
 70
     1
102
RTVSPost2010Prop43
 90
        3
102
RTVSPost2010PropOp43
 70
     1
102
RTVSPost2010Prop44ColorIndex
 90
        5
102
RTVSPost2010Prop44ColorRGB
 90
      255
102
RTVSPost2010PropOp44
 70
     1
102
RTVSPost2010Prop45
280
     0
102
RTVSPost2010PropOp45
 70
     1
102
RTVSPost2010Prop46
 90
       50
102
RTVSPost2010PropOp46
 70
     1
102
RTVSPost2010Prop47
 90
       50
102
RTVSPost2010PropOp47
 70
     1
102
RTVSPost2010Prop48
 90
       50
102
RTVSPost2010PropOp48
 70
     1
102
RTVSPost2010Prop49
280
     0
102
RTVSPost2010PropOp49
 70
     1
102
RTVSPost2010Prop50
 90
       50
102
RTVSPost2010PropOp50
 70
     1
102
RTVSPost2010Prop51ColorIndex
 90
      256
102
RTVSPost2010Prop51ColorRGB
 90
-16777216
102
RTVSPost2010PropOp51
 70
     0
102
RTVSPost2010Prop52
140
1.0
102
RTVSPost2010PropOp52
 70
     0
102
RTVSPost2010Prop53
 90
        2
102
RTVSPost2010PropOp53
 70
     1
102
RTVSPost2010Prop54
  1
strokes_ogs.tif
102
RTVSPost2010PropOp54
 70
     1
102
RTVSPost2010Prop55
280
     0
102
RTVSPost2010PropOp55
 70
     1
102
RTVSPost2010Prop56
140
1.0
102
RTVSPost2010PropOp56
 70
     1
102
RTVSPost2010Prop57
140
1.0
102
RTVSPost2010PropOp57
 70
     1
102
RTVSPropertyOp0
 70
     1
102
RTVSPropertyOp1
 70
     1
102
RTVSPropertyOp2
 70
     1
102
RTVSPropertyOp3
 70
     1
102
RTVSPropertyOp4
 70
     1
102
RTVSPropertyOp5
 70
     1
102
RTVSPropertyOp6
 70
     1
102
RTVSPropertyOp7
 70
     1
102
RTVSPropertyOp8
 70
     1
102
RTVSPropertyOp9
 70
     1
102
RTVSPropertyOp10
 70
     1
102
RTVSPropertyOp11
 70
     1
102
RTVSPropertyOp12
 70
     1
102
RTVSPropertyOp13
 70
     1
102
RTVSPropertyOp14
 70
     1
102
RTVSPropertyOp15
 70
     1
102
RTVSPropertyOp16
 70
     1
102
RTVSPropertyOp17
 70
     1
102
RTVSPropertyOp18
 70
     1
102
RTVSPropertyOp19
 70
     1
102
RTVSPropertyOp20
 70
     1
102
RTVSPropertyOp21
 70
     1
102
RTVSPropertyOp22
 70
     1
102
RTVSPropertyOp23
 70
     1
102
RTVSPropertyOp24
 70
     1
102
RTVSPropertyOp25
 70
     1
102
RTVSPropertyOp26
 70
     1
102
RTVSPropertyOp27
 70
     1
102
RTVSPropertyOp28
 70
     1
102
RTVSPropertyOp29
 70
     1
102
RTVSPropertyOp30
 70
     1
102
RTVSPropertyOp31
 70
     1
102
RTVSPropertyOp32
 70
     1
  0
XRECORD
  5
D2
102
{ACAD_REACTORS
330
D1
102
}
330
D1
100
AcDbXrecord
280
     1
102
RTVSPropertyOp33
 70
     1
102
RTVSPropertyOp34
 70
     1
102
RTVSPropertyOp35
 70
     1
102
RTVSPropertyOp36
 70
     1
102
RTVSPropertyOp37
 70
     1
102
RTVSPropertyOp38
 70
     1
102
RTVSPropertyOp39
 70
     1
102
RTVSPropertyOp40
 70
     1
102
RTVSPropertyOp41
 70
     1
102
RTVSPropertyOp42
 70
     1
102
RTVSPropertyOp43
 70
     1
102
RTVSPropertyOp44
 70
     1
102
RTVSPropertyOp45
 70
     1
102
RTVSPropertyOp46
 70
     1
102
RTVSPropertyOp47
 70
     1
102
RTVSPropertyOp48
 70
     1
102
RTVSPropertyOp49
 70
     1
102
RTVSPropertyOp50
 70
     1
102
RTVSPropertyOp51
 70
     0
102
RTVSPropertyOp52
 70
     0
102
RTVSPropertyOp53
 70
     1
102
RTVSPropertyOp54
 70
     1
102
RTVSPropertyOp55
 70
     1
102
RTVSPropertyOp56
 70
     1
102
RTVSPropertyOp57
 70
     1
102
RTVSPost2010Prop28
280
     0
102
RTVSPost2010PropOp28
 70
     1
102
RTVSPost2010Prop29
280
     1
102
RTVSPost2010PropOp29
 70
     1
102
RTVSPost2010Prop30
280
     1
102
RTVSPost2010PropOp30
 70
     1
102
RTVSPost2010Prop31
280
     0
102
RTVSPost2010PropOp31
 70
     1
102
RTVSPost2010Prop32
280
     0
102
RTVSPost2010PropOp32
 70
     1
102
RTVSPost2010Prop33
280
     0
102
RTVSPost2010PropOp33
 70
     1
102
RTVSPost2010Prop34
280
     0
102
RTVSPost2010PropOp34
 70
     1
102
RTVSPost2010Prop35
280
     0
102
RTVSPost2010PropOp35
 70
     1
102
RTVSPost2010Prop36
280
     0
102
RTVSPost2010PropOp36
 70
     1
102
RTVSPost2010Prop37
 90
       50
102
RTVSPost2010PropOp37
 70
     1
102
RTVSPost2010Prop38
140
0.0
102
RTVSPost2010PropOp38
 70
     1
102
RTVSPost2010Prop39
140
1.0
102
RTVSPost2010PropOp39
 70
     1
102
RTVSPost2010Prop40
 90
        0
102
RTVSPost2010PropOp40
 70
     1
102
RTVSPost2010Prop41ColorIndex
 90
       18
102
RTVSPost2010Prop41ColorRGB
 90
        0
102
RTVSPost2010PropOp41
 70
     1
102
RTVSPost2010Prop42
 90
       50
102
RTVSPost2010PropOp42
 70
     1
102
RTVSPost2010Prop43
 90
        3
102
RTVSPost2010PropOp43
 70
     1
102
RTVSPost2010Prop44ColorIndex
 90
        5
102
RTVSPost2010Prop44ColorRGB
 90
      255
102
RTVSPost2010PropOp44
 70
     1
102
RTVSPost2010Prop45
280
     0
102
RTVSPost2010PropOp45
 70
     1
102
RTVSPost2010Prop46
 90
       50
102
RTVSPost2010PropOp46
 70
     1
102
RTVSPost2010Prop47
 90
       50
102
RTVSPost2010PropOp47
 70
     1
102
RTVSPost2010Prop48
 90
       50
102
RTVSPost2010PropOp48
 70
     1
102
RTVSPost2010Prop49
280
     0
102
RTVSPost2010PropOp49
 70
     1
102
RTVSPost2010Prop50
 90
       50
102
RTVSPost2010PropOp50
 70
     1
102
RTVSPost2010Prop51ColorIndex
 90
      256
102
RTVSPost2010Prop51ColorRGB
 90
-16777216
102
RTVSPost2010PropOp51
 70
     0
102
RTVSPost2010Prop52
140
1.0
102
RTVSPost2010PropOp52
 70
     0
102
RTVSPost2010Prop53
 90
        2
102
RTVSPost2010PropOp53
 70
     1
102
RTVSPost2010Prop54
  1
strokes_ogs.tif
102
RTVSPost2010PropOp54
 70
     1
102
RTVSPost2010Prop55
280
     0
102
RTVSPost2010PropOp55
 70
     1
102
RTVSPost2010Prop56
140
1.0
102
RTVSPost2010PropOp56
 70
     1
102
RTVSPost2010Prop57
140
1.0
102
RTVSPost2010PropOp57
 70
     1
102
RTVSPropertyOp0
 70
     1
102
RTVSPropertyOp1
 70
     1
102
RTVSPropertyOp2
 70
     1
102
RTVSPropertyOp3
 70
     1
102
RTVSPropertyOp4
 70
     1
102
RTVSPropertyOp5
 70
     1
102
RTVSPropertyOp6
 70
     1
102
RTVSPropertyOp7
 70
     1
102
RTVSPropertyOp8
 70
     1
102
RTVSPropertyOp9
 70
     1
102
RTVSPropertyOp10
 70
     1
102
RTVSPropertyOp11
 70
     1
102
RTVSPropertyOp12
 70
     1
102
RTVSPropertyOp13
 70
     1
102
RTVSPropertyOp14
 70
     1
102
RTVSPropertyOp15
 70
     1
102
RTVSPropertyOp16
 70
     1
102
RTVSPropertyOp17
 70
     1
102
RTVSPropertyOp18
 70
     1
102
RTVSPropertyOp19
 70
     1
102
RTVSPropertyOp20
 70
     1
102
RTVSPropertyOp21
 70
     1
102
RTVSPropertyOp22
 70
     1
102
RTVSPropertyOp23
 70
     1
102
RTVSPropertyOp24
 70
     1
102
RTVSPropertyOp25
 70
     1
102
RTVSPropertyOp26
 70
     1
102
RTVSPropertyOp27
 70
     1
102
RTVSPropertyOp28
 70
     1
102
RTVSPropertyOp29
 70
     1
102
RTVSPropertyOp30
 70
     1
102
RTVSPropertyOp31
 70
     1
102
RTVSPropertyOp32
 70
     1
  0
XRECORD
  5
E6
102
{ACAD_REACTORS
330
E5
102
}
330
E5
100
AcDbXrecord
280
     1
102
RTVSPropertyOp33
 70
     0
102
RTVSPropertyOp34
 70
     0
102
RTVSPropertyOp35
 70
     0
102
RTVSPropertyOp36
 70
     0
102
RTVSPropertyOp37
 70
     0
102
RTVSPropertyOp38
 70
     0
102
RTVSPropertyOp39
 70
     0
102
RTVSPropertyOp40
 70
     0
102
RTVSPropertyOp41
 70
     0
102
RTVSPropertyOp42
 70
     0
102
RTVSPropertyOp43
 70
     0
102
RTVSPropertyOp44
 70
     0
102
RTVSPropertyOp45
 70
     0
102
RTVSPropertyOp46
 70
     0
102
RTVSPropertyOp47
 70
     0
102
RTVSPropertyOp48
 70
     0
102
RTVSPropertyOp49
 70
     0
102
RTVSPropertyOp50
 70
     0
102
RTVSPropertyOp51
 70
     0
102
RTVSPropertyOp52
 70
     0
102
RTVSPropertyOp53
 70
     0
102
RTVSPropertyOp54
 70
     0
102
RTVSPropertyOp55
 70
     0
102
RTVSPropertyOp56
 70
     0
102
RTVSPropertyOp57
 70
     0
102
RTVSPost2010Prop28
280
     0
102
RTVSPost2010PropOp28
 70
     0
102
RTVSPost2010Prop29
280
     1
102
RTVSPost2010PropOp29
 70
     0
102
RTVSPost2010Prop30
280
     1
102
RTVSPost2010PropOp30
 70
     0
102
RTVSPost2010Prop31
280
     0
102
RTVSPost2010PropOp31
 70
     0
102
RTVSPost2010Prop32
280
     0
102
RTVSPost2010PropOp32
 70
     0
102
RTVSPost2010Prop33
280
     0
102
RTVSPost2010PropOp33
 70
     0
102
RTVSPost2010Prop34
280
     0
102
RTVSPost2010PropOp34
 70
     0
102
RTVSPost2010Prop35
280
     0
102
RTVSPost2010PropOp35
 70
     0
102
RTVSPost2010Prop36
280
     0
102
RTVSPost2010PropOp36
 70
     0
102
RTVSPost2010Prop37
 90
       50
102
RTVSPost2010PropOp37
 70
     0
102
RTVSPost2010Prop38
140
0.0
102
RTVSPost2010PropOp38
 70
     0
102
RTVSPost2010Prop39
140
1.0
102
RTVSPost2010PropOp39
 70
     0
102
RTVSPost2010Prop40
 90
        0
102
RTVSPost2010PropOp40
 70
     0
102
RTVSPost2010Prop41ColorIndex
 90
       18
102
RTVSPost2010Prop41ColorRGB
 90
        0
102
RTVSPost2010PropOp41
 70
     0
102
RTVSPost2010Prop42
 90
       50
102
RTVSPost2010PropOp42
 70
     0
102
RTVSPost2010Prop43
 90
        3
102
RTVSPost2010PropOp43
 70
     0
102
RTVSPost2010Prop44ColorIndex
 90
        5
102
RTVSPost2010Prop44ColorRGB
 90
      255
102
RTVSPost2010PropOp44
 70
     0
102
RTVSPost2010Prop45
280
     0
102
RTVSPost2010PropOp45
 70
     0
102
RTVSPost2010Prop46
 90
       50
102
RTVSPost2010PropOp46
 70
     0
102
RTVSPost2010Prop47
 90
       50
102
RTVSPost2010PropOp47
 70
     0
102
RTVSPost2010Prop48
 90
       50
102
RTVSPost2010PropOp48
 70
     0
102
RTVSPost2010Prop49
280
     0
102
RTVSPost2010PropOp49
 70
     0
102
RTVSPost2010Prop50
 90
       50
102
RTVSPost2010PropOp50
 70
     0
102
RTVSPost2010Prop51ColorIndex
 90
      256
102
RTVSPost2010Prop51ColorRGB
 90
-16777216
102
RTVSPost2010PropOp51
 70
     0
102
RTVSPost2010Prop52
140
1.0
102
RTVSPost2010PropOp52
 70
     0
102
RTVSPost2010Prop53
 90
        2
102
RTVSPost2010PropOp53
 70
     0
102
RTVSPost2010Prop54
  1
strokes_ogs.tif
102
RTVSPost2010PropOp54
 70
     0
102
RTVSPost2010Prop55
280
     0
102
RTVSPost2010PropOp55
 70
     0
102
RTVSPost2010Prop56
140
1.0
102
RTVSPost2010PropOp56
 70
     0
102
RTVSPost2010Prop57
140
1.0
102
RTVSPost2010PropOp57
 70
     0
102
RTVSPropertyOp0
 70
     0
102
RTVSPropertyOp1
 70
     0
102
RTVSPropertyOp2
 70
     0
102
RTVSPropertyOp3
 70
     0
102
RTVSPropertyOp4
 70
     0
102
RTVSPropertyOp5
 70
     0
102
RTVSPropertyOp6
 70
     0
102
RTVSPropertyOp7
 70
     0
102
RTVSPropertyOp8
 70
     0
102
RTVSPropertyOp9
 70
     0
102
RTVSPropertyOp10
 70
     0
102
RTVSPropertyOp11
 70
     0
102
RTVSPropertyOp12
 70
     0
102
RTVSPropertyOp13
 70
     0
102
RTVSPropertyOp14
 70
     2
102
RTVSPropertyOp15
 70
     0
102
RTVSPropertyOp16
 70
     0
102
RTVSPropertyOp17
 70
     0
102
RTVSPropertyOp18
 70
     0
102
RTVSPropertyOp19
 70
     0
102
RTVSPropertyOp20
 70
     0
102
RTVSPropertyOp21
 70
     0
102
RTVSPropertyOp22
 70
     0
102
RTVSPropertyOp23
 70
     0
102
RTVSPropertyOp24
 70
     0
102
RTVSPropertyOp25
 70
     0
102
RTVSPropertyOp26
 70
     0
102
RTVSPropertyOp27
 70
     0
102
RTVSPropertyOp28
 70
     1
102
RTVSPropertyOp29
 70
     1
102
RTVSPropertyOp30
 70
     1
102
RTVSPropertyOp31
 70
     1
102
RTVSPropertyOp32
 70
     1
  0
XRECORD
  5
E0
102
{ACAD_REACTORS
330
DF
102
}
330
DF
100
AcDbXrecord
280
     1
102
RTVSPropertyOp33
 70
     1
102
RTVSPropertyOp34
 70
     1
102
RTVSPropertyOp35
 70
     1
102
RTVSPropertyOp36
 70
     1
102
RTVSPropertyOp37
 70
     1
102
RTVSPropertyOp38
 70
     1
102
RTVSPropertyOp39
 70
     1
102
RTVSPropertyOp40
 70
     1
102
RTVSPropertyOp41
 70
     1
102
RTVSPropertyOp42
 70
     1
102
RTVSPropertyOp43
 70
     1
102
RTVSPropertyOp44
 70
     1
102
RTVSPropertyOp45
 70
     1
102
RTVSPropertyOp46
 70
     1
102
RTVSPropertyOp47
 70
     1
102
RTVSPropertyOp48
 70
     1
102
RTVSPropertyOp49
 70
     1
102
RTVSPropertyOp50
 70
     1
102
RTVSPropertyOp51
 70
     0
102
RTVSPropertyOp52
 70
     0
102
RTVSPropertyOp53
 70
     1
102
RTVSPropertyOp54
 70
     1
102
RTVSPropertyOp55
 70
     1
102
RTVSPropertyOp56
 70
     1
102
RTVSPropertyOp57
 70
     1
102
RTVSPost2010Prop28
280
     0
102
RTVSPost2010PropOp28
 70
     1
102
RTVSPost2010Prop29
280
     1
102
RTVSPost2010PropOp29
 70
     1
102
RTVSPost2010Prop30
280
     1
102
RTVSPost2010PropOp30
 70
     1
102
RTVSPost2010Prop31
280
     0
102
RTVSPost2010PropOp31
 70
     1
102
RTVSPost2010Prop32
280
     0
102
RTVSPost2010PropOp32
 70
     1
102
RTVSPost2010Prop33
280
     0
102
RTVSPost2010PropOp33
 70
     1
102
RTVSPost2010Prop34
280
     0
102
RTVSPost2010PropOp34
 70
     1
102
RTVSPost2010Prop35
280
     0
102
RTVSPost2010PropOp35
 70
     1
102
RTVSPost2010Prop36
280
     0
102
RTVSPost2010PropOp36
 70
     1
102
RTVSPost2010Prop37
 90
       50
102
RTVSPost2010PropOp37
 70
     1
102
RTVSPost2010Prop38
140
0.0
102
RTVSPost2010PropOp38
 70
     1
102
RTVSPost2010Prop39
140
1.0
102
RTVSPost2010PropOp39
 70
     1
102
RTVSPost2010Prop40
 90
        0
102
RTVSPost2010PropOp40
 70
     1
102
RTVSPost2010Prop41ColorIndex
 90
       18
102
RTVSPost2010Prop41ColorRGB
 90
        0
102
RTVSPost2010PropOp41
 70
     1
102
RTVSPost2010Prop42
 90
       50
102
RTVSPost2010PropOp42
 70
     1
102
RTVSPost2010Prop43
 90
        3
102
RTVSPost2010PropOp43
 70
     1
102
RTVSPost2010Prop44ColorIndex
 90
        5
102
RTVSPost2010Prop44ColorRGB
 90
      255
102
RTVSPost2010PropOp44
 70
     1
102
RTVSPost2010Prop45
280
     0
102
RTVSPost2010PropOp45
 70
     1
102
RTVSPost2010Prop46
 90
       50
102
RTVSPost2010PropOp46
 70
     1
102
RTVSPost2010Prop47
 90
       50
102
RTVSPost2010PropOp47
 70
     1
102
RTVSPost2010Prop48
 90
       50
102
RTVSPost2010PropOp48
 70
     1
102
RTVSPost2010Prop49
280
     0
102
RTVSPost2010PropOp49
 70
     1
102
RTVSPost2010Prop50
 90
       50
102
RTVSPost2010PropOp50
 70
     1
102
RTVSPost2010Prop51ColorIndex
 90
      256
102
RTVSPost2010Prop51ColorRGB
 90
-16777216
102
RTVSPost2010PropOp51
 70
     0
102
RTVSPost2010Prop52
140
1.0
102
RTVSPost2010PropOp52
 70
     0
102
RTVSPost2010Prop53
 90
        2
102
RTVSPost2010PropOp53
 70
     1
102
RTVSPost2010Prop54
  1
strokes_ogs.tif
102
RTVSPost2010PropOp54
 70
     1
102
RTVSPost2010Prop55
280
     0
102
RTVSPost2010PropOp55
 70
     1
102
RTVSPost2010Prop56
140
1.0
102
RTVSPost2010PropOp56
 70
     1
102
RTVSPost2010Prop57
140
1.0
102
RTVSPost2010PropOp57
 70
     1
102
RTVSPropertyOp0
 70
     1
102
RTVSPropertyOp1
 70
     1
102
RTVSPropertyOp2
 70
     1
102
RTVSPropertyOp3
 70
     1
102
RTVSPropertyOp4
 70
     1
102
RTVSPropertyOp5
 70
     1
102
RTVSPropertyOp6
 70
     1
102
RTVSPropertyOp7
 70
     1
102
RTVSPropertyOp8
 70
     1
102
RTVSPropertyOp9
 70
     1
102
RTVSPropertyOp10
 70
     1
102
RTVSPropertyOp11
 70
     1
102
RTVSPropertyOp12
 70
     1
102
RTVSPropertyOp13
 70
     1
102
RTVSPropertyOp14
 70
     1
102
RTVSPropertyOp15
 70
     1
102
RTVSPropertyOp16
 70
     1
102
RTVSPropertyOp17
 70
     1
102
RTVSPropertyOp18
 70
     1
102
RTVSPropertyOp19
 70
     1
102
RTVSPropertyOp20
 70
     1
102
RTVSPropertyOp21
 70
     1
102
RTVSPropertyOp22
 70
     1
102
RTVSPropertyOp23
 70
     1
102
RTVSPropertyOp24
 70
     1
102
RTVSPropertyOp25
 70
     1
102
RTVSPropertyOp26
 70
     1
102
RTVSPropertyOp27
 70
     1
102
RTVSPropertyOp28
 70
     1
102
RTVSPropertyOp29
 70
     1
102
RTVSPropertyOp30
 70
     1
102
RTVSPropertyOp31
 70
     1
102
RTVSPropertyOp32
 70
     1
  0
XRECORD
  5
E8
102
{ACAD_REACTORS
330
E7
102
}
330
E7
100
AcDbXrecord
280
     1
102
RTVSPropertyOp33
 70
     0
102
RTVSPropertyOp34
 70
     0
102
RTVSPropertyOp35
 70
     0
102
RTVSPropertyOp36
 70
     0
102
RTVSPropertyOp37
 70
     0
102
RTVSPropertyOp38
 70
     0
102
RTVSPropertyOp39
 70
     0
102
RTVSPropertyOp40
 70
     0
102
RTVSPropertyOp41
 70
     0
102
RTVSPropertyOp42
 70
     0
102
RTVSPropertyOp43
 70
     0
102
RTVSPropertyOp44
 70
     0
102
RTVSPropertyOp45
 70
     0
102
RTVSPropertyOp46
 70
     0
102
RTVSPropertyOp47
 70
     0
102
RTVSPropertyOp48
 70
     0
102
RTVSPropertyOp49
 70
     0
102
RTVSPropertyOp50
 70
     0
102
RTVSPropertyOp51
 70
     0
102
RTVSPropertyOp52
 70
     0
102
RTVSPropertyOp53
 70
     0
102
RTVSPropertyOp54
 70
     0
102
RTVSPropertyOp55
 70
     0
102
RTVSPropertyOp56
 70
     0
102
RTVSPropertyOp57
 70
     0
102
RTVSPost2010Prop28
280
     0
102
RTVSPost2010PropOp28
 70
     0
102
RTVSPost2010Prop29
280
     1
102
RTVSPost2010PropOp29
 70
     0
102
RTVSPost2010Prop30
280
     1
102
RTVSPost2010PropOp30
 70
     0
102
RTVSPost2010Prop31
280
     0
102
RTVSPost2010PropOp31
 70
     0
102
RTVSPost2010Prop32
280
     0
102
RTVSPost2010PropOp32
 70
     0
102
RTVSPost2010Prop33
280
     0
102
RTVSPost2010PropOp33
 70
     0
102
RTVSPost2010Prop34
280
     0
102
RTVSPost2010PropOp34
 70
     0
102
RTVSPost2010Prop35
280
     0
102
RTVSPost2010PropOp35
 70
     0
102
RTVSPost2010Prop36
280
     0
102
RTVSPost2010PropOp36
 70
     0
102
RTVSPost2010Prop37
 90
       50
102
RTVSPost2010PropOp37
 70
     0
102
RTVSPost2010Prop38
140
0.0
102
RTVSPost2010PropOp38
 70
     0
102
RTVSPost2010Prop39
140
1.0
102
RTVSPost2010PropOp39
 70
     0
102
RTVSPost2010Prop40
 90
        0
102
RTVSPost2010PropOp40
 70
     0
102
RTVSPost2010Prop41ColorIndex
 90
       18
102
RTVSPost2010Prop41ColorRGB
 90
        0
102
RTVSPost2010PropOp41
 70
     0
102
RTVSPost2010Prop42
 90
       50
102
RTVSPost2010PropOp42
 70
     0
102
RTVSPost2010Prop43
 90
        3
102
RTVSPost2010PropOp43
 70
     0
102
RTVSPost2010Prop44ColorIndex
 90
        5
102
RTVSPost2010Prop44ColorRGB
 90
      255
102
RTVSPost2010PropOp44
 70
     0
102
RTVSPost2010Prop45
280
     0
102
RTVSPost2010PropOp45
 70
     0
102
RTVSPost2010Prop46
 90
       50
102
RTVSPost2010PropOp46
 70
     0
102
RTVSPost2010Prop47
 90
       50
102
RTVSPost2010PropOp47
 70
     0
102
RTVSPost2010Prop48
 90
       50
102
RTVSPost2010PropOp48
 70
     0
102
RTVSPost2010Prop49
280
     0
102
RTVSPost2010PropOp49
 70
     0
102
RTVSPost2010Prop50
 90
       50
102
RTVSPost2010PropOp50
 70
     0
102
RTVSPost2010Prop51ColorIndex
 90
      256
102
RTVSPost2010Prop51ColorRGB
 90
-16777216
102
RTVSPost2010PropOp51
 70
     0
102
RTVSPost2010Prop52
140
1.0
102
RTVSPost2010PropOp52
 70
     0
102
RTVSPost2010Prop53
 90
        2
102
RTVSPost2010PropOp53
 70
     0
102
RTVSPost2010Prop54
  1
strokes_ogs.tif
102
RTVSPost2010PropOp54
 70
     0
102
RTVSPost2010Prop55
280
     0
102
RTVSPost2010PropOp55
 70
     0
102
RTVSPost2010Prop56
140
1.0
102
RTVSPost2010PropOp56
 70
     0
102
RTVSPost2010Prop57
140
1.0
102
RTVSPost2010PropOp57
 70
     0
102
RTVSPropertyOp0
 70
     0
102
RTVSPropertyOp1
 70
     0
102
RTVSPropertyOp2
 70
     0
102
RTVSPropertyOp3
 70
     0
102
RTVSPropertyOp4
 70
     0
102
RTVSPropertyOp5
 70
     0
102
RTVSPropertyOp6
 70
     0
102
RTVSPropertyOp7
 70
     0
102
RTVSPropertyOp8
 70
     0
102
RTVSPropertyOp9
 70
     0
102
RTVSPropertyOp10
 70
     0
102
RTVSPropertyOp11
 70
     0
102
RTVSPropertyOp12
 70
     0
102
RTVSPropertyOp13
 70
     0
102
RTVSPropertyOp14
 70
     2
102
RTVSPropertyOp15
 70
     0
102
RTVSPropertyOp16
 70
     0
102
RTVSPropertyOp17
 70
     0
102
RTVSPropertyOp18
 70
     0
102
RTVSPropertyOp19
 70
     0
102
RTVSPropertyOp20
 70
     0
102
RTVSPropertyOp21
 70
     0
102
RTVSPropertyOp22
 70
     0
102
RTVSPropertyOp23
 70
     0
102
RTVSPropertyOp24
 70
     0
102
RTVSPropertyOp25
 70
     0
102
RTVSPropertyOp26
 70
     0
102
RTVSPropertyOp27
 70
     0
102
RTVSPropertyOp28
 70
     1
102
RTVSPropertyOp29
 70
     1
102
RTVSPropertyOp30
 70
     1
102
RTVSPropertyOp31
 70
     1
102
RTVSPropertyOp32
 70
     1
  0
XRECORD
  5
D6
102
{ACAD_REACTORS
330
D5
102
}
330
D5
100
AcDbXrecord
280
     1
102
RTVSPropertyOp33
 70
     1
102
RTVSPropertyOp34
 70
     1
102
RTVSPropertyOp35
 70
     1
102
RTVSPropertyOp36
 70
     1
102
RTVSPropertyOp37
 70
     1
102
RTVSPropertyOp38
 70
     1
102
RTVSPropertyOp39
 70
     1
102
RTVSPropertyOp40
 70
     1
102
RTVSPropertyOp41
 70
     1
102
RTVSPropertyOp42
 70
     1
102
RTVSPropertyOp43
 70
     1
102
RTVSPropertyOp44
 70
     1
102
RTVSPropertyOp45
 70
     1
102
RTVSPropertyOp46
 70
     1
102
RTVSPropertyOp47
 70
     1
102
RTVSPropertyOp48
 70
     1
102
RTVSPropertyOp49
 70
     1
102
RTVSPropertyOp50
 70
     1
102
RTVSPropertyOp51
 70
     0
102
RTVSPropertyOp52
 70
     0
102
RTVSPropertyOp53
 70
     1
102
RTVSPropertyOp54
 70
     1
102
RTVSPropertyOp55
 70
     1
102
RTVSPropertyOp56
 70
     1
102
RTVSPropertyOp57
 70
     1
102
RTVSPost2010Prop28
280
     0
102
RTVSPost2010PropOp28
 70
     1
102
RTVSPost2010Prop29
280
     1
102
RTVSPost2010PropOp29
 70
     1
102
RTVSPost2010Prop30
280
     1
102
RTVSPost2010PropOp30
 70
     1
102
RTVSPost2010Prop31
280
     0
102
RTVSPost2010PropOp31
 70
     1
102
RTVSPost2010Prop32
280
     0
102
RTVSPost2010PropOp32
 70
     1
102
RTVSPost2010Prop33
280
     0
102
RTVSPost2010PropOp33
 70
     1
102
RTVSPost2010Prop34
280
     0
102
RTVSPost2010PropOp34
 70
     1
102
RTVSPost2010Prop35
280
     0
102
RTVSPost2010PropOp35
 70
     1
102
RTVSPost2010Prop36
280
     0
102
RTVSPost2010PropOp36
 70
     1
102
RTVSPost2010Prop37
 90
       50
102
RTVSPost2010PropOp37
 70
     1
102
RTVSPost2010Prop38
140
0.0
102
RTVSPost2010PropOp38
 70
     1
102
RTVSPost2010Prop39
140
1.0
102
RTVSPost2010PropOp39
 70
     1
102
RTVSPost2010Prop40
 90
        0
102
RTVSPost2010PropOp40
 70
     1
102
RTVSPost2010Prop41ColorIndex
 90
       18
102
RTVSPost2010Prop41ColorRGB
 90
        0
102
RTVSPost2010PropOp41
 70
     1
102
RTVSPost2010Prop42
 90
       50
102
RTVSPost2010PropOp42
 70
     1
102
RTVSPost2010Prop43
 90
        3
102
RTVSPost2010PropOp43
 70
     1
102
RTVSPost2010Prop44ColorIndex
 90
        5
102
RTVSPost2010Prop44ColorRGB
 90
      255
102
RTVSPost2010PropOp44
 70
     1
102
RTVSPost2010Prop45
280
     0
102
RTVSPost2010PropOp45
 70
     1
102
RTVSPost2010Prop46
 90
       50
102
RTVSPost2010PropOp46
 70
     1
102
RTVSPost2010Prop47
 90
       50
102
RTVSPost2010PropOp47
 70
     1
102
RTVSPost2010Prop48
 90
       50
102
RTVSPost2010PropOp48
 70
     1
102
RTVSPost2010Prop49
280
     0
102
RTVSPost2010PropOp49
 70
     1
102
RTVSPost2010Prop50
 90
       50
102
RTVSPost2010PropOp50
 70
     1
102
RTVSPost2010Prop51ColorIndex
 90
      256
102
RTVSPost2010Prop51ColorRGB
 90
-16777216
102
RTVSPost2010PropOp51
 70
     0
102
RTVSPost2010Prop52
140
1.0
102
RTVSPost2010PropOp52
 70
     0
102
RTVSPost2010Prop53
 90
        2
102
RTVSPost2010PropOp53
 70
     1
102
RTVSPost2010Prop54
  1
strokes_ogs.tif
102
RTVSPost2010PropOp54
 70
     1
102
RTVSPost2010Prop55
280
     0
102
RTVSPost2010PropOp55
 70
     1
102
RTVSPost2010Prop56
140
1.0
102
RTVSPost2010PropOp56
 70
     1
102
RTVSPost2010Prop57
140
1.0
102
RTVSPost2010PropOp57
 70
     1
102
RTVSPropertyOp0
 70
     1
102
RTVSPropertyOp1
 70
     1
102
RTVSPropertyOp2
 70
     1
102
RTVSPropertyOp3
 70
     1
102
RTVSPropertyOp4
 70
     1
102
RTVSPropertyOp5
 70
     1
102
RTVSPropertyOp6
 70
     1
102
RTVSPropertyOp7
 70
     1
102
RTVSPropertyOp8
 70
     1
102
RTVSPropertyOp9
 70
     1
102
RTVSPropertyOp10
 70
     1
102
RTVSPropertyOp11
 70
     1
102
RTVSPropertyOp12
 70
     1
102
RTVSPropertyOp13
 70
     1
102
RTVSPropertyOp14
 70
     1
102
RTVSPropertyOp15
 70
     1
102
RTVSPropertyOp16
 70
     1
102
RTVSPropertyOp17
 70
     1
102
RTVSPropertyOp18
 70
     1
102
RTVSPropertyOp19
 70
     1
102
RTVSPropertyOp20
 70
     1
102
RTVSPropertyOp21
 70
     1
102
RTVSPropertyOp22
 70
     1
102
RTVSPropertyOp23
 70
     1
102
RTVSPropertyOp24
 70
     1
102
RTVSPropertyOp25
 70
     1
102
RTVSPropertyOp26
 70
     1
102
RTVSPropertyOp27
 70
     1
102
RTVSPropertyOp28
 70
     1
102
RTVSPropertyOp29
 70
     1
102
RTVSPropertyOp30
 70
     1
102
RTVSPropertyOp31
 70
     1
102
RTVSPropertyOp32
 70
     1
  0
XRECORD
  5
F4
102
{ACAD_REACTORS
330
F3
102
}
330
F3
100
AcDbXrecord
280
     1
102
RTVSPropertyOp33
 70
     1
102
RTVSPropertyOp34
 70
     1
102
RTVSPropertyOp35
 70
     1
102
RTVSPropertyOp36
 70
     1
102
RTVSPropertyOp37
 70
     1
102
RTVSPropertyOp38
 70
     1
102
RTVSPropertyOp39
 70
     1
102
RTVSPropertyOp40
 70
     1
102
RTVSPropertyOp41
 70
     1
102
RTVSPropertyOp42
 70
     1
102
RTVSPropertyOp43
 70
     1
102
RTVSPropertyOp44
 70
     1
102
RTVSPropertyOp45
 70
     1
102
RTVSPropertyOp46
 70
     1
102
RTVSPropertyOp47
 70
     1
102
RTVSPropertyOp48
 70
     1
102
RTVSPropertyOp49
 70
     1
102
RTVSPropertyOp50
 70
     1
102
RTVSPropertyOp51
 70
     0
102
RTVSPropertyOp52
 70
     0
102
RTVSPropertyOp53
 70
     1
102
RTVSPropertyOp54
 70
     1
102
RTVSPropertyOp55
 70
     1
102
RTVSPropertyOp56
 70
     1
102
RTVSPropertyOp57
 70
     1
102
RTVSPost2010Prop28
280
     0
102
RTVSPost2010PropOp28
 70
     1
102
RTVSPost2010Prop29
280
     1
102
RTVSPost2010PropOp29
 70
     1
102
RTVSPost2010Prop30
280
     1
102
RTVSPost2010PropOp30
 70
     1
102
RTVSPost2010Prop31
280
     0
102
RTVSPost2010PropOp31
 70
     1
102
RTVSPost2010Prop32
280
     0
102
RTVSPost2010PropOp32
 70
     1
102
RTVSPost2010Prop33
280
     0
102
RTVSPost2010PropOp33
 70
     1
102
RTVSPost2010Prop34
280
     0
102
RTVSPost2010PropOp34
 70
     1
102
RTVSPost2010Prop35
280
     0
102
RTVSPost2010PropOp35
 70
     1
102
RTVSPost2010Prop36
280
     0
102
RTVSPost2010PropOp36
 70
     1
102
RTVSPost2010Prop37
 90
       50
102
RTVSPost2010PropOp37
 70
     1
102
RTVSPost2010Prop38
140
0.0
102
RTVSPost2010PropOp38
 70
     1
102
RTVSPost2010Prop39
140
1.0
102
RTVSPost2010PropOp39
 70
     1
102
RTVSPost2010Prop40
 90
        0
102
RTVSPost2010PropOp40
 70
     1
102
RTVSPost2010Prop41ColorIndex
 90
       18
102
RTVSPost2010Prop41ColorRGB
 90
        0
102
RTVSPost2010PropOp41
 70
     1
102
RTVSPost2010Prop42
 90
       50
102
RTVSPost2010PropOp42
 70
     1
102
RTVSPost2010Prop43
 90
        3
102
RTVSPost2010PropOp43
 70
     1
102
RTVSPost2010Prop44ColorIndex
 90
        5
102
RTVSPost2010Prop44ColorRGB
 90
      255
102
RTVSPost2010PropOp44
 70
     1
102
RTVSPost2010Prop45
280
     0
102
RTVSPost2010PropOp45
 70
     1
102
RTVSPost2010Prop46
 90
       50
102
RTVSPost2010PropOp46
 70
     1
102
RTVSPost2010Prop47
 90
       50
102
RTVSPost2010PropOp47
 70
     1
102
RTVSPost2010Prop48
 90
       50
102
RTVSPost2010PropOp48
 70
     1
102
RTVSPost2010Prop49
280
     0
102
RTVSPost2010PropOp49
 70
     1
102
RTVSPost2010Prop50
 90
       50
102
RTVSPost2010PropOp50
 70
     1
102
RTVSPost2010Prop51ColorIndex
 90
      256
102
RTVSPost2010Prop51ColorRGB
 90
-16777216
102
RTVSPost2010PropOp51
 70
     0
102
RTVSPost2010Prop52
140
1.0
102
RTVSPost2010PropOp52
 70
     0
102
RTVSPost2010Prop53
 90
        2
102
RTVSPost2010PropOp53
 70
     1
102
RTVSPost2010Prop54
  1
strokes_ogs.tif
102
RTVSPost2010PropOp54
 70
     1
102
RTVSPost2010Prop55
280
     0
102
RTVSPost2010PropOp55
 70
     1
102
RTVSPost2010Prop56
140
1.0
102
RTVSPost2010PropOp56
 70
     1
102
RTVSPost2010Prop57
140
1.0
102
RTVSPost2010PropOp57
 70
     1
102
RTVSPropertyOp0
 70
     1
102
RTVSPropertyOp1
 70
     1
102
RTVSPropertyOp2
 70
     1
102
RTVSPropertyOp3
 70
     1
102
RTVSPropertyOp4
 70
     1
102
RTVSPropertyOp5
 70
     1
102
RTVSPropertyOp6
 70
     1
102
RTVSPropertyOp7
 70
     1
102
RTVSPropertyOp8
 70
     1
102
RTVSPropertyOp9
 70
     1
102
RTVSPropertyOp10
 70
     1
102
RTVSPropertyOp11
 70
     1
102
RTVSPropertyOp12
 70
     1
102
RTVSPropertyOp13
 70
     1
102
RTVSPropertyOp14
 70
     1
102
RTVSPropertyOp15
 70
     1
102
RTVSPropertyOp16
 70
     1
102
RTVSPropertyOp17
 70
     1
102
RTVSPropertyOp18
 70
     1
102
RTVSPropertyOp19
 70
     1
102
RTVSPropertyOp20
 70
     1
102
RTVSPropertyOp21
 70
     1
102
RTVSPropertyOp22
 70
     1
102
RTVSPropertyOp23
 70
     1
102
RTVSPropertyOp24
 70
     1
102
RTVSPropertyOp25
 70
     1
102
RTVSPropertyOp26
 70
     1
102
RTVSPropertyOp27
 70
     1
102
RTVSPropertyOp28
 70
     1
102
RTVSPropertyOp29
 70
     1
102
RTVSPropertyOp30
 70
     1
102
RTVSPropertyOp31
 70
     1
102
RTVSPropertyOp32
 70
     1
  0
XRECORD
  5
F2
102
{ACAD_REACTORS
330
F1
102
}
330
F1
100
AcDbXrecord
280
     1
102
RTVSPropertyOp33
 70
     1
102
RTVSPropertyOp34
 70
     1
102
RTVSPropertyOp35
 70
     1
102
RTVSPropertyOp36
 70
     1
102
RTVSPropertyOp37
 70
     1
102
RTVSPropertyOp38
 70
     1
102
RTVSPropertyOp39
 70
     1
102
RTVSPropertyOp40
 70
     1
102
RTVSPropertyOp41
 70
     1
102
RTVSPropertyOp42
 70
     1
102
RTVSPropertyOp43
 70
     1
102
RTVSPropertyOp44
 70
     1
102
RTVSPropertyOp45
 70
     1
102
RTVSPropertyOp46
 70
     1
102
RTVSPropertyOp47
 70
     1
102
RTVSPropertyOp48
 70
     1
102
RTVSPropertyOp49
 70
     1
102
RTVSPropertyOp50
 70
     1
102
RTVSPropertyOp51
 70
     0
102
RTVSPropertyOp52
 70
     0
102
RTVSPropertyOp53
 70
     1
102
RTVSPropertyOp54
 70
     1
102
RTVSPropertyOp55
 70
     1
102
RTVSPropertyOp56
 70
     1
102
RTVSPropertyOp57
 70
     1
102
RTVSPost2010Prop28
280
     0
102
RTVSPost2010PropOp28
 70
     1
102
RTVSPost2010Prop29
280
     1
102
RTVSPost2010PropOp29
 70
     1
102
RTVSPost2010Prop30
280
     1
102
RTVSPost2010PropOp30
 70
     1
102
RTVSPost2010Prop31
280
     0
102
RTVSPost2010PropOp31
 70
     1
102
RTVSPost2010Prop32
280
     0
102
RTVSPost2010PropOp32
 70
     1
102
RTVSPost2010Prop33
280
     0
102
RTVSPost2010PropOp33
 70
     1
102
RTVSPost2010Prop34
280
     0
102
RTVSPost2010PropOp34
 70
     1
102
RTVSPost2010Prop35
280
     0
102
RTVSPost2010PropOp35
 70
     1
102
RTVSPost2010Prop36
280
     0
102
RTVSPost2010PropOp36
 70
     1
102
RTVSPost2010Prop37
 90
       50
102
RTVSPost2010PropOp37
 70
     1
102
RTVSPost2010Prop38
140
0.0
102
RTVSPost2010PropOp38
 70
     1
102
RTVSPost2010Prop39
140
1.0
102
RTVSPost2010PropOp39
 70
     1
102
RTVSPost2010Prop40
 90
        0
102
RTVSPost2010PropOp40
 70
     1
102
RTVSPost2010Prop41ColorIndex
 90
       18
102
RTVSPost2010Prop41ColorRGB
 90
        0
102
RTVSPost2010PropOp41
 70
     1
102
RTVSPost2010Prop42
 90
       50
102
RTVSPost2010PropOp42
 70
     1
102
RTVSPost2010Prop43
 90
        3
102
RTVSPost2010PropOp43
 70
     1
102
RTVSPost2010Prop44ColorIndex
 90
        5
102
RTVSPost2010Prop44ColorRGB
 90
      255
102
RTVSPost2010PropOp44
 70
     1
102
RTVSPost2010Prop45
280
     0
102
RTVSPost2010PropOp45
 70
     1
102
RTVSPost2010Prop46
 90
       50
102
RTVSPost2010PropOp46
 70
     1
102
RTVSPost2010Prop47
 90
       50
102
RTVSPost2010PropOp47
 70
     1
102
RTVSPost2010Prop48
 90
       50
102
RTVSPost2010PropOp48
 70
     1
102
RTVSPost2010Prop49
280
     0
102
RTVSPost2010PropOp49
 70
     1
102
RTVSPost2010Prop50
 90
       50
102
RTVSPost2010PropOp50
 70
     1
102
RTVSPost2010Prop51ColorIndex
 90
      256
102
RTVSPost2010Prop51ColorRGB
 90
-16777216
102
RTVSPost2010PropOp51
 70
     0
102
RTVSPost2010Prop52
140
1.0
102
RTVSPost2010PropOp52
 70
     0
102
RTVSPost2010Prop53
 90
        2
102
RTVSPost2010PropOp53
 70
     1
102
RTVSPost2010Prop54
  1
strokes_ogs.tif
102
RTVSPost2010PropOp54
 70
     1
102
RTVSPost2010Prop55
280
     0
102
RTVSPost2010PropOp55
 70
     1
102
RTVSPost2010Prop56
140
1.0
102
RTVSPost2010PropOp56
 70
     1
102
RTVSPost2010Prop57
140
1.0
102
RTVSPost2010PropOp57
 70
     1
102
RTVSPropertyOp0
 70
     1
102
RTVSPropertyOp1
 70
     1
102
RTVSPropertyOp2
 70
     1
102
RTVSPropertyOp3
 70
     1
102
RTVSPropertyOp4
 70
     1
102
RTVSPropertyOp5
 70
     1
102
RTVSPropertyOp6
 70
     1
102
RTVSPropertyOp7
 70
     1
102
RTVSPropertyOp8
 70
     1
102
RTVSPropertyOp9
 70
     1
102
RTVSPropertyOp10
 70
     1
102
RTVSPropertyOp11
 70
     1
102
RTVSPropertyOp12
 70
     1
102
RTVSPropertyOp13
 70
     1
102
RTVSPropertyOp14
 70
     1
102
RTVSPropertyOp15
 70
     1
102
RTVSPropertyOp16
 70
     1
102
RTVSPropertyOp17
 70
     1
102
RTVSPropertyOp18
 70
     1
102
RTVSPropertyOp19
 70
     1
102
RTVSPropertyOp20
 70
     1
102
RTVSPropertyOp21
 70
     1
102
RTVSPropertyOp22
 70
     1
102
RTVSPropertyOp23
 70
     1
102
RTVSPropertyOp24
 70
     1
102
RTVSPropertyOp25
 70
     1
102
RTVSPropertyOp26
 70
     1
102
RTVSPropertyOp27
 70
     1
102
RTVSPropertyOp28
 70
     1
102
RTVSPropertyOp29
 70
     1
102
RTVSPropertyOp30
 70
     1
102
RTVSPropertyOp31
 70
     1
102
RTVSPropertyOp32
 70
     1
  0
XRECORD
  5
EC
102
{ACAD_REACTORS
330
EB
102
}
330
EB
100
AcDbXrecord
280
     1
102
RTVSPropertyOp33
 70
     1
102
RTVSPropertyOp34
 70
     1
102
RTVSPropertyOp35
 70
     1
102
RTVSPropertyOp36
 70
     1
102
RTVSPropertyOp37
 70
     1
102
RTVSPropertyOp38
 70
     1
102
RTVSPropertyOp39
 70
     1
102
RTVSPropertyOp40
 70
     1
102
RTVSPropertyOp41
 70
     1
102
RTVSPropertyOp42
 70
     1
102
RTVSPropertyOp43
 70
     1
102
RTVSPropertyOp44
 70
     1
102
RTVSPropertyOp45
 70
     1
102
RTVSPropertyOp46
 70
     1
102
RTVSPropertyOp47
 70
     1
102
RTVSPropertyOp48
 70
     1
102
RTVSPropertyOp49
 70
     1
102
RTVSPropertyOp50
 70
     1
102
RTVSPropertyOp51
 70
     0
102
RTVSPropertyOp52
 70
     0
102
RTVSPropertyOp53
 70
     1
102
RTVSPropertyOp54
 70
     1
102
RTVSPropertyOp55
 70
     1
102
RTVSPropertyOp56
 70
     1
102
RTVSPropertyOp57
 70
     1
102
RTVSPost2010Prop28
280
     0
102
RTVSPost2010PropOp28
 70
     1
102
RTVSPost2010Prop29
280
     1
102
RTVSPost2010PropOp29
 70
     1
102
RTVSPost2010Prop30
280
     1
102
RTVSPost2010PropOp30
 70
     1
102
RTVSPost2010Prop31
280
     0
102
RTVSPost2010PropOp31
 70
     1
102
RTVSPost2010Prop32
280
     0
102
RTVSPost2010PropOp32
 70
     1
102
RTVSPost2010Prop33
280
     0
102
RTVSPost2010PropOp33
 70
     1
102
RTVSPost2010Prop34
280
     0
102
RTVSPost2010PropOp34
 70
     1
102
RTVSPost2010Prop35
280
     0
102
RTVSPost2010PropOp35
 70
     1
102
RTVSPost2010Prop36
280
     0
102
RTVSPost2010PropOp36
 70
     1
102
RTVSPost2010Prop37
 90
       50
102
RTVSPost2010PropOp37
 70
     1
102
RTVSPost2010Prop38
140
0.0
102
RTVSPost2010PropOp38
 70
     1
102
RTVSPost2010Prop39
140
1.0
102
RTVSPost2010PropOp39
 70
     1
102
RTVSPost2010Prop40
 90
        0
102
RTVSPost2010PropOp40
 70
     1
102
RTVSPost2010Prop41ColorIndex
 90
       18
102
RTVSPost2010Prop41ColorRGB
 90
        0
102
RTVSPost2010PropOp41
 70
     1
102
RTVSPost2010Prop42
 90
       50
102
RTVSPost2010PropOp42
 70
     1
102
RTVSPost2010Prop43
 90
        3
102
RTVSPost2010PropOp43
 70
     1
102
RTVSPost2010Prop44ColorIndex
 90
        5
102
RTVSPost2010Prop44ColorRGB
 90
      255
102
RTVSPost2010PropOp44
 70
     1
102
RTVSPost2010Prop45
280
     0
102
RTVSPost2010PropOp45
 70
     1
102
RTVSPost2010Prop46
 90
       50
102
RTVSPost2010PropOp46
 70
     1
102
RTVSPost2010Prop47
 90
       50
102
RTVSPost2010PropOp47
 70
     1
102
RTVSPost2010Prop48
 90
       50
102
RTVSPost2010PropOp48
 70
     1
102
RTVSPost2010Prop49
280
     0
102
RTVSPost2010PropOp49
 70
     1
102
RTVSPost2010Prop50
 90
       50
102
RTVSPost2010PropOp50
 70
     1
102
RTVSPost2010Prop51ColorIndex
 90
      256
102
RTVSPost2010Prop51ColorRGB
 90
-16777216
102
RTVSPost2010PropOp51
 70
     0
102
RTVSPost2010Prop52
140
1.0
102
RTVSPost2010PropOp52
 70
     0
102
RTVSPost2010Prop53
 90
        2
102
RTVSPost2010PropOp53
 70
     1
102
RTVSPost2010Prop54
  1
strokes_ogs.tif
102
RTVSPost2010PropOp54
 70
     1
102
RTVSPost2010Prop55
280
     0
102
RTVSPost2010PropOp55
 70
     1
102
RTVSPost2010Prop56
140
1.0
102
RTVSPost2010PropOp56
 70
     1
102
RTVSPost2010Prop57
140
1.0
102
RTVSPost2010PropOp57
 70
     1
102
RTVSPropertyOp0
 70
     1
102
RTVSPropertyOp1
 70
     1
102
RTVSPropertyOp2
 70
     1
102
RTVSPropertyOp3
 70
     1
102
RTVSPropertyOp4
 70
     1
102
RTVSPropertyOp5
 70
     1
102
RTVSPropertyOp6
 70
     1
102
RTVSPropertyOp7
 70
     1
102
RTVSPropertyOp8
 70
     1
102
RTVSPropertyOp9
 70
     1
102
RTVSPropertyOp10
 70
     1
102
RTVSPropertyOp11
 70
     1
102
RTVSPropertyOp12
 70
     1
102
RTVSPropertyOp13
 70
     1
102
RTVSPropertyOp14
 70
     1
102
RTVSPropertyOp15
 70
     1
102
RTVSPropertyOp16
 70
     1
102
RTVSPropertyOp17
 70
     1
102
RTVSPropertyOp18
 70
     1
102
RTVSPropertyOp19
 70
     1
102
RTVSPropertyOp20
 70
     1
102
RTVSPropertyOp21
 70
     1
102
RTVSPropertyOp22
 70
     1
102
RTVSPropertyOp23
 70
     1
102
RTVSPropertyOp24
 70
     1
102
RTVSPropertyOp25
 70
     1
102
RTVSPropertyOp26
 70
     1
102
RTVSPropertyOp27
 70
     1
102
RTVSPropertyOp28
 70
     1
102
RTVSPropertyOp29
 70
     1
102
RTVSPropertyOp30
 70
     1
102
RTVSPropertyOp31
 70
     1
102
RTVSPropertyOp32
 70
     1
  0
XRECORD
  5
EE
102
{ACAD_REACTORS
330
ED
102
}
330
ED
100
AcDbXrecord
280
     1
102
RTVSPropertyOp33
 70
     1
102
RTVSPropertyOp34
 70
     1
102
RTVSPropertyOp35
 70
     1
102
RTVSPropertyOp36
 70
     1
102
RTVSPropertyOp37
 70
     1
102
RTVSPropertyOp38
 70
     1
102
RTVSPropertyOp39
 70
     1
102
RTVSPropertyOp40
 70
     1
102
RTVSPropertyOp41
 70
     1
102
RTVSPropertyOp42
 70
     1
102
RTVSPropertyOp43
 70
     1
102
RTVSPropertyOp44
 70
     1
102
RTVSPropertyOp45
 70
     1
102
RTVSPropertyOp46
 70
     1
102
RTVSPropertyOp47
 70
     1
102
RTVSPropertyOp48
 70
     1
102
RTVSPropertyOp49
 70
     1
102
RTVSPropertyOp50
 70
     1
102
RTVSPropertyOp51
 70
     0
102
RTVSPropertyOp52
 70
     0
102
RTVSPropertyOp53
 70
     1
102
RTVSPropertyOp54
 70
     1
102
RTVSPropertyOp55
 70
     1
102
RTVSPropertyOp56
 70
     1
102
RTVSPropertyOp57
 70
     1
102
RTVSPost2010Prop28
280
     0
102
RTVSPost2010PropOp28
 70
     1
102
RTVSPost2010Prop29
280
     1
102
RTVSPost2010PropOp29
 70
     1
102
RTVSPost2010Prop30
280
     1
102
RTVSPost2010PropOp30
 70
     1
102
RTVSPost2010Prop31
280
     0
102
RTVSPost2010PropOp31
 70
     1
102
RTVSPost2010Prop32
280
     0
102
RTVSPost2010PropOp32
 70
     1
102
RTVSPost2010Prop33
280
     0
102
RTVSPost2010PropOp33
 70
     1
102
RTVSPost2010Prop34
280
     0
102
RTVSPost2010PropOp34
 70
     1
102
RTVSPost2010Prop35
280
     0
102
RTVSPost2010PropOp35
 70
     1
102
RTVSPost2010Prop36
280
     0
102
RTVSPost2010PropOp36
 70
     1
102
RTVSPost2010Prop37
 90
       50
102
RTVSPost2010PropOp37
 70
     1
102
RTVSPost2010Prop38
140
0.0
102
RTVSPost2010PropOp38
 70
     1
102
RTVSPost2010Prop39
140
1.0
102
RTVSPost2010PropOp39
 70
     1
102
RTVSPost2010Prop40
 90
        0
102
RTVSPost2010PropOp40
 70
     1
102
RTVSPost2010Prop41ColorIndex
 90
       18
102
RTVSPost2010Prop41ColorRGB
 90
        0
102
RTVSPost2010PropOp41
 70
     1
102
RTVSPost2010Prop42
 90
       50
102
RTVSPost2010PropOp42
 70
     1
102
RTVSPost2010Prop43
 90
        3
102
RTVSPost2010PropOp43
 70
     1
102
RTVSPost2010Prop44ColorIndex
 90
        5
102
RTVSPost2010Prop44ColorRGB
 90
      255
102
RTVSPost2010PropOp44
 70
     1
102
RTVSPost2010Prop45
280
     0
102
RTVSPost2010PropOp45
 70
     1
102
RTVSPost2010Prop46
 90
       50
102
RTVSPost2010PropOp46
 70
     1
102
RTVSPost2010Prop47
 90
       50
102
RTVSPost2010PropOp47
 70
     1
102
RTVSPost2010Prop48
 90
       50
102
RTVSPost2010PropOp48
 70
     1
102
RTVSPost2010Prop49
280
     0
102
RTVSPost2010PropOp49
 70
     1
102
RTVSPost2010Prop50
 90
       50
102
RTVSPost2010PropOp50
 70
     1
102
RTVSPost2010Prop51ColorIndex
 90
      256
102
RTVSPost2010Prop51ColorRGB
 90
-16777216
102
RTVSPost2010PropOp51
 70
     0
102
RTVSPost2010Prop52
140
1.0
102
RTVSPost2010PropOp52
 70
     0
102
RTVSPost2010Prop53
 90
        2
102
RTVSPost2010PropOp53
 70
     1
102
RTVSPost2010Prop54
  1
strokes_ogs.tif
102
RTVSPost2010PropOp54
 70
     1
102
RTVSPost2010Prop55
280
     0
102
RTVSPost2010PropOp55
 70
     1
102
RTVSPost2010Prop56
140
1.0
102
RTVSPost2010PropOp56
 70
     1
102
RTVSPost2010Prop57
140
1.0
102
RTVSPost2010PropOp57
 70
     1
102
RTVSPropertyOp0
 70
     1
102
RTVSPropertyOp1
 70
     1
102
RTVSPropertyOp2
 70
     1
102
RTVSPropertyOp3
 70
     1
102
RTVSPropertyOp4
 70
     1
102
RTVSPropertyOp5
 70
     1
102
RTVSPropertyOp6
 70
     1
102
RTVSPropertyOp7
 70
     1
102
RTVSPropertyOp8
 70
     1
102
RTVSPropertyOp9
 70
     1
102
RTVSPropertyOp10
 70
     1
102
RTVSPropertyOp11
 70
     1
102
RTVSPropertyOp12
 70
     1
102
RTVSPropertyOp13
 70
     1
102
RTVSPropertyOp14
 70
     1
102
RTVSPropertyOp15
 70
     1
102
RTVSPropertyOp16
 70
     1
102
RTVSPropertyOp17
 70
     1
102
RTVSPropertyOp18
 70
     1
102
RTVSPropertyOp19
 70
     1
102
RTVSPropertyOp20
 70
     1
102
RTVSPropertyOp21
 70
     1
102
RTVSPropertyOp22
 70
     1
102
RTVSPropertyOp23
 70
     1
102
RTVSPropertyOp24
 70
     1
102
RTVSPropertyOp25
 70
     1
102
RTVSPropertyOp26
 70
     1
102
RTVSPropertyOp27
 70
     1
102
RTVSPropertyOp28
 70
     1
102
RTVSPropertyOp29
 70
     1
102
RTVSPropertyOp30
 70
     1
102
RTVSPropertyOp31
 70
     1
102
RTVSPropertyOp32
 70
     1
  0
XRECORD
  5
DE
102
{ACAD_REACTORS
330
DD
102
}
330
DD
100
AcDbXrecord
280
     1
102
RTVSPropertyOp33
 70
     1
102
RTVSPropertyOp34
 70
     1
102
RTVSPropertyOp35
 70
     1
102
RTVSPropertyOp36
 70
     1
102
RTVSPropertyOp37
 70
     1
102
RTVSPropertyOp38
 70
     1
102
RTVSPropertyOp39
 70
     1
102
RTVSPropertyOp40
 70
     1
102
RTVSPropertyOp41
 70
     1
102
RTVSPropertyOp42
 70
     1
102
RTVSPropertyOp43
 70
     1
102
RTVSPropertyOp44
 70
     1
102
RTVSPropertyOp45
 70
     1
102
RTVSPropertyOp46
 70
     1
102
RTVSPropertyOp47
 70
     1
102
RTVSPropertyOp48
 70
     1
102
RTVSPropertyOp49
 70
     1
102
RTVSPropertyOp50
 70
     1
102
RTVSPropertyOp51
 70
     0
102
RTVSPropertyOp52
 70
     0
102
RTVSPropertyOp53
 70
     1
102
RTVSPropertyOp54
 70
     1
102
RTVSPropertyOp55
 70
     1
102
RTVSPropertyOp56
 70
     1
102
RTVSPropertyOp57
 70
     1
102
RTVSPost2010Prop28
280
     0
102
RTVSPost2010PropOp28
 70
     1
102
RTVSPost2010Prop29
280
     1
102
RTVSPost2010PropOp29
 70
     1
102
RTVSPost2010Prop30
280
     1
102
RTVSPost2010PropOp30
 70
     1
102
RTVSPost2010Prop31
280
     0
102
RTVSPost2010PropOp31
 70
     1
102
RTVSPost2010Prop32
280
     0
102
RTVSPost2010PropOp32
 70
     1
102
RTVSPost2010Prop33
280
     0
102
RTVSPost2010PropOp33
 70
     1
102
RTVSPost2010Prop34
280
     0
102
RTVSPost2010PropOp34
 70
     1
102
RTVSPost2010Prop35
280
     0
102
RTVSPost2010PropOp35
 70
     1
102
RTVSPost2010Prop36
280
     0
102
RTVSPost2010PropOp36
 70
     1
102
RTVSPost2010Prop37
 90
       50
102
RTVSPost2010PropOp37
 70
     1
102
RTVSPost2010Prop38
140
0.0
102
RTVSPost2010PropOp38
 70
     1
102
RTVSPost2010Prop39
140
1.0
102
RTVSPost2010PropOp39
 70
     1
102
RTVSPost2010Prop40
 90
        0
102
RTVSPost2010PropOp40
 70
     1
102
RTVSPost2010Prop41ColorIndex
 90
       18
102
RTVSPost2010Prop41ColorRGB
 90
        0
102
RTVSPost2010PropOp41
 70
     1
102
RTVSPost2010Prop42
 90
       50
102
RTVSPost2010PropOp42
 70
     1
102
RTVSPost2010Prop43
 90
        3
102
RTVSPost2010PropOp43
 70
     1
102
RTVSPost2010Prop44ColorIndex
 90
        5
102
RTVSPost2010Prop44ColorRGB
 90
      255
102
RTVSPost2010PropOp44
 70
     1
102
RTVSPost2010Prop45
280
     0
102
RTVSPost2010PropOp45
 70
     1
102
RTVSPost2010Prop46
 90
       50
102
RTVSPost2010PropOp46
 70
     1
102
RTVSPost2010Prop47
 90
       50
102
RTVSPost2010PropOp47
 70
     1
102
RTVSPost2010Prop48
 90
       50
102
RTVSPost2010PropOp48
 70
     1
102
RTVSPost2010Prop49
280
     0
102
RTVSPost2010PropOp49
 70
     1
102
RTVSPost2010Prop50
 90
       50
102
RTVSPost2010PropOp50
 70
     1
102
RTVSPost2010Prop51ColorIndex
 90
      256
102
RTVSPost2010Prop51ColorRGB
 90
-16777216
102
RTVSPost2010PropOp51
 70
     0
102
RTVSPost2010Prop52
140
1.0
102
RTVSPost2010PropOp52
 70
     0
102
RTVSPost2010Prop53
 90
        2
102
RTVSPost2010PropOp53
 70
     1
102
RTVSPost2010Prop54
  1
strokes_ogs.tif
102
RTVSPost2010PropOp54
 70
     1
102
RTVSPost2010Prop55
280
     0
102
RTVSPost2010PropOp55
 70
     1
102
RTVSPost2010Prop56
140
1.0
102
RTVSPost2010PropOp56
 70
     1
102
RTVSPost2010Prop57
140
1.0
102
RTVSPost2010PropOp57
 70
     1
102
RTVSPropertyOp0
 70
     1
102
RTVSPropertyOp1
 70
     1
102
RTVSPropertyOp2
 70
     1
102
RTVSPropertyOp3
 70
     1
102
RTVSPropertyOp4
 70
     1
102
RTVSPropertyOp5
 70
     1
102
RTVSPropertyOp6
 70
     1
102
RTVSPropertyOp7
 70
     1
102
RTVSPropertyOp8
 70
     1
102
RTVSPropertyOp9
 70
     1
102
RTVSPropertyOp10
 70
     1
102
RTVSPropertyOp11
 70
     1
102
RTVSPropertyOp12
 70
     1
102
RTVSPropertyOp13
 70
     1
102
RTVSPropertyOp14
 70
     1
102
RTVSPropertyOp15
 70
     1
102
RTVSPropertyOp16
 70
     1
102
RTVSPropertyOp17
 70
     1
102
RTVSPropertyOp18
 70
     1
102
RTVSPropertyOp19
 70
     1
102
RTVSPropertyOp20
 70
     1
102
RTVSPropertyOp21
 70
     1
102
RTVSPropertyOp22
 70
     1
102
RTVSPropertyOp23
 70
     1
102
RTVSPropertyOp24
 70
     1
102
RTVSPropertyOp25
 70
     1
102
RTVSPropertyOp26
 70
     1
102
RTVSPropertyOp27
 70
     1
102
RTVSPropertyOp28
 70
     1
102
RTVSPropertyOp29
 70
     1
102
RTVSPropertyOp30
 70
     1
102
RTVSPropertyOp31
 70
     1
102
RTVSPropertyOp32
 70
     1
  0
XRECORD
  5
D0
102
{ACAD_REACTORS
330
CF
102
}
330
CF
100
AcDbXrecord
280
     1
102
RTVSPropertyOp33
 70
     1
102
RTVSPropertyOp34
 70
     1
102
RTVSPropertyOp35
 70
     1
102
RTVSPropertyOp36
 70
     1
102
RTVSPropertyOp37
 70
     1
102
RTVSPropertyOp38
 70
     1
102
RTVSPropertyOp39
 70
     1
102
RTVSPropertyOp40
 70
     1
102
RTVSPropertyOp41
 70
     1
102
RTVSPropertyOp42
 70
     1
102
RTVSPropertyOp43
 70
     1
102
RTVSPropertyOp44
 70
     1
102
RTVSPropertyOp45
 70
     1
102
RTVSPropertyOp46
 70
     1
102
RTVSPropertyOp47
 70
     1
102
RTVSPropertyOp48
 70
     1
102
RTVSPropertyOp49
 70
     1
102
RTVSPropertyOp50
 70
     1
102
RTVSPropertyOp51
 70
     0
102
RTVSPropertyOp52
 70
     0
102
RTVSPropertyOp53
 70
     1
102
RTVSPropertyOp54
 70
     1
102
RTVSPropertyOp55
 70
     1
102
RTVSPropertyOp56
 70
     1
102
RTVSPropertyOp57
 70
     1
102
RTVSPost2010Prop28
280
     0
102
RTVSPost2010PropOp28
 70
     1
102
RTVSPost2010Prop29
280
     1
102
RTVSPost2010PropOp29
 70
     1
102
RTVSPost2010Prop30
280
     1
102
RTVSPost2010PropOp30
 70
     1
102
RTVSPost2010Prop31
280
     0
102
RTVSPost2010PropOp31
 70
     1
102
RTVSPost2010Prop32
280
     0
102
RTVSPost2010PropOp32
 70
     1
102
RTVSPost2010Prop33
280
     0
102
RTVSPost2010PropOp33
 70
     1
102
RTVSPost2010Prop34
280
     0
102
RTVSPost2010PropOp34
 70
     1
102
RTVSPost2010Prop35
280
     0
102
RTVSPost2010PropOp35
 70
     1
102
RTVSPost2010Prop36
280
     0
102
RTVSPost2010PropOp36
 70
     1
102
RTVSPost2010Prop37
 90
       50
102
RTVSPost2010PropOp37
 70
     1
102
RTVSPost2010Prop38
140
0.0
102
RTVSPost2010PropOp38
 70
     1
102
RTVSPost2010Prop39
140
1.0
102
RTVSPost2010PropOp39
 70
     1
102
RTVSPost2010Prop40
 90
        0
102
RTVSPost2010PropOp40
 70
     1
102
RTVSPost2010Prop41ColorIndex
 90
       18
102
RTVSPost2010Prop41ColorRGB
 90
        0
102
RTVSPost2010PropOp41
 70
     1
102
RTVSPost2010Prop42
 90
       50
102
RTVSPost2010PropOp42
 70
     1
102
RTVSPost2010Prop43
 90
        3
102
RTVSPost2010PropOp43
 70
     1
102
RTVSPost2010Prop44ColorIndex
 90
        5
102
RTVSPost2010Prop44ColorRGB
 90
      255
102
RTVSPost2010PropOp44
 70
     1
102
RTVSPost2010Prop45
280
     0
102
RTVSPost2010PropOp45
 70
     1
102
RTVSPost2010Prop46
 90
       50
102
RTVSPost2010PropOp46
 70
     1
102
RTVSPost2010Prop47
 90
       50
102
RTVSPost2010PropOp47
 70
     1
102
RTVSPost2010Prop48
 90
       50
102
RTVSPost2010PropOp48
 70
     1
102
RTVSPost2010Prop49
280
     0
102
RTVSPost2010PropOp49
 70
     1
102
RTVSPost2010Prop50
 90
       50
102
RTVSPost2010PropOp50
 70
     1
102
RTVSPost2010Prop51ColorIndex
 90
      256
102
RTVSPost2010Prop51ColorRGB
 90
-16777216
102
RTVSPost2010PropOp51
 70
     0
102
RTVSPost2010Prop52
140
1.0
102
RTVSPost2010PropOp52
 70
     0
102
RTVSPost2010Prop53
 90
        2
102
RTVSPost2010PropOp53
 70
     1
102
RTVSPost2010Prop54
  1
strokes_ogs.tif
102
RTVSPost2010PropOp54
 70
     1
102
RTVSPost2010Prop55
280
     0
102
RTVSPost2010PropOp55
 70
     1
102
RTVSPost2010Prop56
140
1.0
102
RTVSPost2010PropOp56
 70
     1
102
RTVSPost2010Prop57
140
1.0
102
RTVSPost2010PropOp57
 70
     1
102
RTVSPropertyOp0
 70
     1
102
RTVSPropertyOp1
 70
     1
102
RTVSPropertyOp2
 70
     1
102
RTVSPropertyOp3
 70
     1
102
RTVSPropertyOp4
 70
     1
102
RTVSPropertyOp5
 70
     1
102
RTVSPropertyOp6
 70
     1
102
RTVSPropertyOp7
 70
     1
102
RTVSPropertyOp8
 70
     1
102
RTVSPropertyOp9
 70
     1
102
RTVSPropertyOp10
 70
     1
102
RTVSPropertyOp11
 70
     1
102
RTVSPropertyOp12
 70
     1
102
RTVSPropertyOp13
 70
     1
102
RTVSPropertyOp14
 70
     1
102
RTVSPropertyOp15
 70
     1
102
RTVSPropertyOp16
 70
     1
102
RTVSPropertyOp17
 70
     1
102
RTVSPropertyOp18
 70
     1
102
RTVSPropertyOp19
 70
     1
102
RTVSPropertyOp20
 70
     1
102
RTVSPropertyOp21
 70
     1
102
RTVSPropertyOp22
 70
     1
102
RTVSPropertyOp23
 70
     1
102
RTVSPropertyOp24
 70
     1
102
RTVSPropertyOp25
 70
     1
102
RTVSPropertyOp26
 70
     1
102
RTVSPropertyOp27
 70
     1
102
RTVSPropertyOp28
 70
     1
102
RTVSPropertyOp29
 70
     1
102
RTVSPropertyOp30
 70
     1
102
RTVSPropertyOp31
 70
     1
102
RTVSPropertyOp32
 70
     1
  0
XRECORD
  5
F0
102
{ACAD_REACTORS
330
EF
102
}
330
EF
100
AcDbXrecord
280
     1
102
RTVSPropertyOp33
 70
     1
102
RTVSPropertyOp34
 70
     1
102
RTVSPropertyOp35
 70
     1
102
RTVSPropertyOp36
 70
     1
102
RTVSPropertyOp37
 70
     1
102
RTVSPropertyOp38
 70
     1
102
RTVSPropertyOp39
 70
     1
102
RTVSPropertyOp40
 70
     1
102
RTVSPropertyOp41
 70
     1
102
RTVSPropertyOp42
 70
     1
102
RTVSPropertyOp43
 70
     1
102
RTVSPropertyOp44
 70
     1
102
RTVSPropertyOp45
 70
     1
102
RTVSPropertyOp46
 70
     1
102
RTVSPropertyOp47
 70
     1
102
RTVSPropertyOp48
 70
     1
102
RTVSPropertyOp49
 70
     1
102
RTVSPropertyOp50
 70
     1
102
RTVSPropertyOp51
 70
     0
102
RTVSPropertyOp52
 70
     0
102
RTVSPropertyOp53
 70
     1
102
RTVSPropertyOp54
 70
     1
102
RTVSPropertyOp55
 70
     1
102
RTVSPropertyOp56
 70
     1
102
RTVSPropertyOp57
 70
     1
102
RTVSPost2010Prop28
280
     0
102
RTVSPost2010PropOp28
 70
     1
102
RTVSPost2010Prop29
280
     1
102
RTVSPost2010PropOp29
 70
     1
102
RTVSPost2010Prop30
280
     1
102
RTVSPost2010PropOp30
 70
     1
102
RTVSPost2010Prop31
280
     0
102
RTVSPost2010PropOp31
 70
     1
102
RTVSPost2010Prop32
280
     0
102
RTVSPost2010PropOp32
 70
     1
102
RTVSPost2010Prop33
280
     0
102
RTVSPost2010PropOp33
 70
     1
102
RTVSPost2010Prop34
280
     0
102
RTVSPost2010PropOp34
 70
     1
102
RTVSPost2010Prop35
280
     0
102
RTVSPost2010PropOp35
 70
     1
102
RTVSPost2010Prop36
280
     0
102
RTVSPost2010PropOp36
 70
     1
102
RTVSPost2010Prop37
 90
       50
102
RTVSPost2010PropOp37
 70
     1
102
RTVSPost2010Prop38
140
0.0
102
RTVSPost2010PropOp38
 70
     1
102
RTVSPost2010Prop39
140
1.0
102
RTVSPost2010PropOp39
 70
     1
102
RTVSPost2010Prop40
 90
        0
102
RTVSPost2010PropOp40
 70
     1
102
RTVSPost2010Prop41ColorIndex
 90
       18
102
RTVSPost2010Prop41ColorRGB
 90
        0
102
RTVSPost2010PropOp41
 70
     1
102
RTVSPost2010Prop42
 90
       50
102
RTVSPost2010PropOp42
 70
     1
102
RTVSPost2010Prop43
 90
        3
102
RTVSPost2010PropOp43
 70
     1
102
RTVSPost2010Prop44ColorIndex
 90
        5
102
RTVSPost2010Prop44ColorRGB
 90
      255
102
RTVSPost2010PropOp44
 70
     1
102
RTVSPost2010Prop45
280
     0
102
RTVSPost2010PropOp45
 70
     1
102
RTVSPost2010Prop46
 90
       50
102
RTVSPost2010PropOp46
 70
     1
102
RTVSPost2010Prop47
 90
       50
102
RTVSPost2010PropOp47
 70
     1
102
RTVSPost2010Prop48
 90
       50
102
RTVSPost2010PropOp48
 70
     1
102
RTVSPost2010Prop49
280
     0
102
RTVSPost2010PropOp49
 70
     1
102
RTVSPost2010Prop50
 90
       50
102
RTVSPost2010PropOp50
 70
     1
102
RTVSPost2010Prop51ColorIndex
 90
      256
102
RTVSPost2010Prop51ColorRGB
 90
-16777216
102
RTVSPost2010PropOp51
 70
     0
102
RTVSPost2010Prop52
140
1.0
102
RTVSPost2010PropOp52
 70
     0
102
RTVSPost2010Prop53
 90
        2
102
RTVSPost2010PropOp53
 70
     1
102
RTVSPost2010Prop54
  1
strokes_ogs.tif
102
RTVSPost2010PropOp54
 70
     1
102
RTVSPost2010Prop55
280
     0
102
RTVSPost2010PropOp55
 70
     1
102
RTVSPost2010Prop56
140
1.0
102
RTVSPost2010PropOp56
 70
     1
102
RTVSPost2010Prop57
140
1.0
102
RTVSPost2010PropOp57
 70
     1
102
RTVSPropertyOp0
 70
     1
102
RTVSPropertyOp1
 70
     1
102
RTVSPropertyOp2
 70
     1
102
RTVSPropertyOp3
 70
     1
102
RTVSPropertyOp4
 70
     1
102
RTVSPropertyOp5
 70
     1
102
RTVSPropertyOp6
 70
     1
102
RTVSPropertyOp7
 70
     1
102
RTVSPropertyOp8
 70
     1
102
RTVSPropertyOp9
 70
     1
102
RTVSPropertyOp10
 70
     1
102
RTVSPropertyOp11
 70
     1
102
RTVSPropertyOp12
 70
     1
102
RTVSPropertyOp13
 70
     1
102
RTVSPropertyOp14
 70
     1
102
RTVSPropertyOp15
 70
     1
102
RTVSPropertyOp16
 70
     1
102
RTVSPropertyOp17
 70
     1
102
RTVSPropertyOp18
 70
     1
102
RTVSPropertyOp19
 70
     1
102
RTVSPropertyOp20
 70
     1
102
RTVSPropertyOp21
 70
     1
102
RTVSPropertyOp22
 70
     1
102
RTVSPropertyOp23
 70
     1
102
RTVSPropertyOp24
 70
     1
102
RTVSPropertyOp25
 70
     1
102
RTVSPropertyOp26
 70
     1
102
RTVSPropertyOp27
 70
     1
102
RTVSPropertyOp28
 70
     1
102
RTVSPropertyOp29
 70
     1
102
RTVSPropertyOp30
 70
     1
102
RTVSPropertyOp31
 70
     1
102
RTVSPropertyOp32
 70
     1
  0
ENDSEC
  0
EOF
