  0
SECTION
  2
HEADER
  9
$ACADVER
  1
AC1015
  9
$ACADMAINTVER
 70
    20
  9
$DWGCODEPAGE
  3
ANSI_1252
  9
$INSBASE
 10
0.0
 20
0.0
 30
0.0
  9
$EXTMIN
 10
-930.2289259345108
 20
-757.0919790129671
 30
0.0
  9
$EXTMAX
 10
498.1575
 20
439.3215
 30
0.0
  9
$LIMMIN
 10
0.0
 20
0.0
  9
$LIMMAX
 10
12.0
 20
9.0
  9
$ORTHOMODE
 70
     0
  9
$REGENMODE
 70
     1
  9
$FILLMODE
 70
     1
  9
$QTEXTMODE
 70
     0
  9
$MIRRTEXT
 70
     1
  9
$LTSCALE
 40
1.0
  9
$ATTMODE
 70
     1
  9
$TEXTSIZE
 40
0.2
  9
$TRACEWID
 40
0.05
  9
$TEXTSTYLE
  7
Standard
  9
$CLAYER
  8
0
  9
$CELTYPE
  6
ByLayer
  9
$CECOLOR
 62
   256
  9
$CELTSCALE
 40
1.0
  9
$DISPSILH
 70
     0
  9
$DIMSCALE
 40
1.0
  9
$DIMASZ
 40
0.18
  9
$DIMEXO
 40
0.0625
  9
$DIMDLI
 40
0.38
  9
$DIMRND
 40
0.0
  9
$DIMDLE
 40
0.0
  9
$DIMEXE
 40
0.18
  9
$DIMTP
 40
0.0
  9
$DIMTM
 40
0.0
  9
$DIMTXT
 40
0.18
  9
$DIMCEN
 40
0.09
  9
$DIMTSZ
 40
0.0
  9
$DIMTOL
 70
     0
  9
$DIMLIM
 70
     0
  9
$DIMTIH
 70
     1
  9
$DIMTOH
 70
     1
  9
$DIMSE1
 70
     0
  9
$DIMSE2
 70
     0
  9
$DIMTAD
 70
     0
  9
$DIMZIN
 70
     0
  9
$DIMBLK
  1

  9
$DIMASO
 70
     1
  9
$DIMSHO
 70
     1
  9
$DIMPOST
  1

  9
$DIMAPOST
  1

  9
$DIMALT
 70
     0
  9
$DIMALTD
 70
     2
  9
$DIMALTF
 40
25.4
  9
$DIMLFAC
 40
1.0
  9
$DIMTOFL
 70
     0
  9
$DIMTVP
 40
0.0
  9
$DIMTIX
 70
     0
  9
$DIMSOXD
 70
     0
  9
$DIMSAH
 70
     0
  9
$DIMBLK1
  1

  9
$DIMBLK2
  1

  9
$DIMSTYLE
  2
Standard
  9
$DIMCLRD
 70
     0
  9
$DIMCLRE
 70
     0
  9
$DIMCLRT
 70
     0
  9
$DIMTFAC
 40
1.0
  9
$DIMGAP
 40
0.09
  9
$DIMJUST
 70
     0
  9
$DIMSD1
 70
     0
  9
$DIMSD2
 70
     0
  9
$DIMTOLJ
 70
     1
  9
$DIMTZIN
 70
     0
  9
$DIMALTZ
 70
     0
  9
$DIMALTTZ
 70
     0
  9
$DIMUPT
 70
     0
  9
$DIMDEC
 70
     4
  9
$DIMTDEC
 70
     4
  9
$DIMALTU
 70
     2
  9
$DIMALTTD
 70
     2
  9
$DIMTXSTY
  7
Standard
  9
$DIMAUNIT
 70
     0
  9
$DIMADEC
 70
     0
  9
$DIMALTRND
 40
0.0
  9
$DIMAZIN
 70
     0
  9
$DIMDSEP
 70
    46
  9
$DIMATFIT
 70
     3
  9
$DIMFRAC
 70
     0
  9
$DIMLDRBLK
  1

  9
$DIMLUNIT
 70
     2
  9
$DIMLWD
 70
    -2
  9
$DIMLWE
 70
    -2
  9
$DIMTMOVE
 70
     0
  9
$LUNITS
 70
     2
  9
$LUPREC
 70
     4
  9
$SKETCHINC
 40
0.1
  9
$FILLETRAD
 40
0.5
  9
$AUNITS
 70
     0
  9
$AUPREC
 70
     0
  9
$MENU
  1
.
  9
$ELEVATION
 40
0.0
  9
$PELEVATION
 40
0.0
  9
$THICKNESS
 40
0.0
  9
$LIMCHECK
 70
     0
  9
$CHAMFERA
 40
0.0
  9
$CHAMFERB
 40
0.0
  9
$CHAMFERC
 40
0.0
  9
$CHAMFERD
 40
0.0
  9
$SKPOLY
 70
     0
  9
$TDCREATE
 40
2457648.624239931
  9
$TDUCREATE
 40
2457648.540906598
  9
$TDUPDATE
 40
2458753.506686516
  9
$TDUUPDATE
 40
2458753.423353183
  9
$TDINDWG
 40
0.0023749653
  9
$TDUSRTIMER
 40
0.0023733218
  9
$USRTIMER
 70
     1
  9
$ANGBASE
 50
0.0
  9
$ANGDIR
 70
     0
  9
$PDMODE
 70
     0
  9
$PDSIZE
 40
0.0
  9
$PLINEWID
 40
0.0
  9
$SPLFRAME
 70
     0
  9
$SPLINETYPE
 70
     6
  9
$SPLINESEGS
 70
     8
  9
$HANDSEED
  5
140
  9
$SURFTAB1
 70
     6
  9
$SURFTAB2
 70
     6
  9
$SURFTYPE
 70
     6
  9
$SURFU
 70
     6
  9
$SURFV
 70
     6
  9
$UCSBASE
  2

  9
$UCSNAME
  2

  9
$UCSORG
 10
0.0
 20
0.0
 30
0.0
  9
$UCSXDIR
 10
1.0
 20
0.0
 30
0.0
  9
$UCSYDIR
 10
0.0
 20
1.0
 30
0.0
  9
$UCSORTHOREF
  2

  9
$UCSORTHOVIEW
 70
     0
  9
$UCSORGTOP
 10
0.0
 20
0.0
 30
0.0
  9
$UCSORGBOTTOM
 10
0.0
 20
0.0
 30
0.0
  9
$UCSORGLEFT
 10
0.0
 20
0.0
 30
0.0
  9
$UCSORGRIGHT
 10
0.0
 20
0.0
 30
0.0
  9
$UCSORGFRONT
 10
0.0
 20
0.0
 30
0.0
  9
$UCSORGBACK
 10
0.0
 20
0.0
 30
0.0
  9
$PUCSBASE
  2

  9
$PUCSNAME
  2

  9
$PUCSORG
 10
0.0
 20
0.0
 30
0.0
  9
$PUCSXDIR
 10
1.0
 20
0.0
 30
0.0
  9
$PUCSYDIR
 10
0.0
 20
1.0
 30
0.0
  9
$PUCSORTHOREF
  2

  9
$PUCSORTHOVIEW
 70
     0
  9
$PUCSORGTOP
 10
0.0
 20
0.0
 30
0.0
  9
$PUCSORGBOTTOM
 10
0.0
 20
0.0
 30
0.0
  9
$PUCSORGLEFT
 10
0.0
 20
0.0
 30
0.0
  9
$PUCSORGRIGHT
 10
0.0
 20
0.0
 30
0.0
  9
$PUCSORGFRONT
 10
0.0
 20
0.0
 30
0.0
  9
$PUCSORGBACK
 10
0.0
 20
0.0
 30
0.0
  9
$USERI1
 70
     0
  9
$USERI2
 70
     0
  9
$USERI3
 70
     0
  9
$USERI4
 70
     0
  9
$USERI5
 70
     0
  9
$USERR1
 40
0.0
  9
$USERR2
 40
0.0
  9
$USERR3
 40
0.0
  9
$USERR4
 40
0.0
  9
$USERR5
 40
0.0
  9
$WORLDVIEW
 70
     1
  9
$SHADEDGE
 70
     3
  9
$SHADEDIF
 70
    70
  9
$TILEMODE
 70
     1
  9
$MAXACTVP
 70
    64
  9
$PINSBASE
 10
0.0
 20
0.0
 30
0.0
  9
$PLIMCHECK
 70
     0
  9
$PEXTMIN
 10
1.000000000000000E+20
 20
1.000000000000000E+20
 30
1.000000000000000E+20
  9
$PEXTMAX
 10
-1.000000000000000E+20
 20
-1.000000000000000E+20
 30
-1.000000000000000E+20
  9
$PLIMMIN
 10
0.0
 20
0.0
  9
$PLIMMAX
 10
12.0
 20
9.0
  9
$UNITMODE
 70
     0
  9
$VISRETAIN
 70
     1
  9
$PLINEGEN
 70
     0
  9
$PSLTSCALE
 70
     1
  9
$TREEDEPTH
 70
  3020
  9
$CMLSTYLE
  2
Standard
  9
$CMLJUST
 70
     0
  9
$CMLSCALE
 40
1.0
  9
$PROXYGRAPHICS
 70
     1
  9
$MEASUREMENT
 70
     0
  9
$CELWEIGHT
370
    -1
  9
$ENDCAPS
280
     0
  9
$JOINSTYLE
280
     0
  9
$LWDISPLAY
290
     0
  9
$INSUNITS
 70
     4
  9
$HYPERLINKBASE
  1

  9
$STYLESHEET
  1

  9
$XEDIT
290
     1
  9
$CEPSNTYPE
380
     0
  9
$PSTYLEMODE
290
     1
  9
$FINGERPRINTGUID
  2
{4E52BE1D-7033-4F05-A6CC-8D7BFCCF53BF}
  9
$VERSIONGUID
  2
{610FDA78-2C0C-45FE-8173-E5D445F49E48}
  9
$EXTNAMES
290
     1
  9
$PSVPSCALE
 40
0.0
  9
$OLESTARTUP
290
     0
  0
ENDSEC
  0
SECTION
  2
CLASSES
  0
CLASS
  1
ACDBDICTIONARYWDFLT
  2
AcDbDictionaryWithDefault
  3
ObjectDBX Classes
 90
        0
280
     0
281
     0
  0
CLASS
  1
VISUALSTYLE
  2
AcDbVisualStyle
  3
ObjectDBX Classes
 90
     4095
280
     0
281
     0
  0
CLASS
  1
MATERIAL
  2
AcDbMaterial
  3
ObjectDBX Classes
 90
     1153
280
     0
281
     0
  0
CLASS
  1
SCALE
  2
AcDbScale
  3
ObjectDBX Classes
 90
     1153
280
     0
281
     0
  0
CLASS
  1
TABLESTYLE
  2
AcDbTableStyle
  3
ObjectDBX Classes
 90
     4095
280
     0
281
     0
  0
CLASS
  1
MLEADERSTYLE
  2
AcDbMLeaderStyle
  3
ACDB_MLEADERSTYLE_CLASS
 90
     4095
280
     0
281
     0
  0
CLASS
  1
SUN
  2
AcDbSun
  3
SCENEOE
 90
    33921
280
     0
281
     0
  0
CLASS
  1
DICTIONARYVAR
  2
AcDbDictionaryVar
  3
ObjectDBX Classes
 90
        0
280
     0
281
     0
  0
CLASS
  1
CELLSTYLEMAP
  2
AcDbCellStyleMap
  3
ObjectDBX Classes
 90
     1152
280
     0
281
     0
  0
CLASS
  1
ACDBPLACEHOLDER
  2
AcDbPlaceHolder
  3
ObjectDBX Classes
 90
        0
280
     0
281
     0
  0
CLASS
  1
LAYOUT
  2
AcDbLayout
  3
ObjectDBX Classes
 90
        0
280
     0
281
     0
  0
ENDSEC
  0
SECTION
  2
TABLES
  0
TABLE
  2
VPORT
  5
8
330
0
100
AcDbSymbolTable
 70
     1
  0
VPORT
  5
29
330
8
100
AcDbSymbolTableRecord
100
AcDbViewportTableRecord
  2
*Active
 70
     0
 10
0.0
 20
0.0
 11
1.0
 21
1.0
 12
356.3635318731858
 22
-81.73235937602544
 13
0.0
 23
0.0
 14
0.5
 24
0.5
 15
0.5
 25
0.5
 16
0.0
 26
0.0
 36
1.0
 17
0.0
 27
0.0
 37
0.0
 40
3645.596796911145
 41
2.206097560975609
 42
50.0
 43
0.0
 44
0.0
 50
0.0
 51
0.0
 71
     0
 72
   100
 73
     1
 74
     3
 75
     0
 76
     0
 77
     0
 78
     0
281
     0
 65
     1
110
0.0
120
0.0
130
0.0
111
1.0
121
0.0
131
0.0
112
0.0
122
1.0
132
0.0
 79
     0
146
0.0
1001
ACAD_NAV_VCDISPLAY
1070
     3
  0
ENDTAB
  0
TABLE
  2
LTYPE
  5
5
330
0
100
AcDbSymbolTable
 70
     1
  0
LTYPE
  5
14
330
5
100
AcDbSymbolTableRecord
100
AcDbLinetypeTableRecord
  2
ByBlock
 70
     0
  3

 72
    65
 73
     0
 40
0.0
  0
LTYPE
  5
15
330
5
100
AcDbSymbolTableRecord
100
AcDbLinetypeTableRecord
  2
ByLayer
 70
     0
  3

 72
    65
 73
     0
 40
0.0
  0
LTYPE
  5
16
330
5
100
AcDbSymbolTableRecord
100
AcDbLinetypeTableRecord
  2
Continuous
 70
     0
  3
Solid line
 72
    65
 73
     0
 40
0.0
  0
ENDTAB
  0
TABLE
  2
LAYER
  5
2
330
0
100
AcDbSymbolTable
 70
     2
  0
LAYER
  5
10
102
{ACAD_XDICTIONARY
360
105
102
}
330
2
100
AcDbSymbolTableRecord
100
AcDbLayerTableRecord
  2
0
 70
     0
 62
     7
  6
Continuous
370
    -3
390
F
  0
LAYER
  5
6F
102
{ACAD_XDICTIONARY
360
107
102
}
330
2
100
AcDbSymbolTableRecord
100
AcDbLayerTableRecord
  2
Layer 1
 70
     0
 62
     7
  6
Continuous
370
    -3
390
F
  0
ENDTAB
  0
TABLE
  2
STYLE
  5
3
330
0
100
AcDbSymbolTable
 70
     1
  0
STYLE
  5
11
330
3
100
AcDbSymbolTableRecord
100
AcDbTextStyleTableRecord
  2
Standard
 70
     0
 40
0.0
 41
1.0
 50
0.0
 71
     0
 42
0.2
  3
txt
  4

  0
ENDTAB
  0
TABLE
  2
VIEW
  5
6
330
0
100
AcDbSymbolTable
 70
     0
  0
ENDTAB
  0
TABLE
  2
UCS
  5
7
330
0
100
AcDbSymbolTable
 70
     0
  0
ENDTAB
  0
TABLE
  2
APPID
  5
9
330
0
100
AcDbSymbolTable
 70
     4
  0
APPID
  5
12
330
9
100
AcDbSymbolTableRecord
100
AcDbRegAppTableRecord
  2
ACAD
 70
     0
  0
APPID
  5
6E
330
9
100
AcDbSymbolTableRecord
100
AcDbRegAppTableRecord
  2
ODA
 70
     0
  0
APPID
  5
F7
330
9
100
AcDbSymbolTableRecord
100
AcDbRegAppTableRecord
  2
ACAD_MLEADERVER
 70
     0
  0
APPID
  5
109
330
9
100
AcDbSymbolTableRecord
100
AcDbRegAppTableRecord
  2
ACAD_NAV_VCDISPLAY
 70
     0
  0
ENDTAB
  0
TABLE
  2
DIMSTYLE
  5
A
330
0
100
AcDbSymbolTable
 70
     1
100
AcDbDimStyleTable
 71
     0
  0
DIMSTYLE
105
27
330
A
100
AcDbSymbolTableRecord
100
AcDbDimStyleTableRecord
  2
Standard
 70
     0
340
11
  0
ENDTAB
  0
TABLE
  2
BLOCK_RECORD
  5
1
330
0
100
AcDbSymbolTable
 70
     1
  0
BLOCK_RECORD
  5
1F
330
1
100
AcDbSymbolTableRecord
100
AcDbBlockTableRecord
  2
*Model_Space
340
22
  0
BLOCK_RECORD
  5
1B
330
1
100
AcDbSymbolTableRecord
100
AcDbBlockTableRecord
  2
*Paper_Space
340
1E
  0
BLOCK_RECORD
  5
23
330
1
100
AcDbSymbolTableRecord
100
AcDbBlockTableRecord
  2
*Paper_Space0
340
26
  0
ENDTAB
  0
ENDSEC
  0
SECTION
  2
BLOCKS
  0
BLOCK
  5
20
330
1F
100
AcDbEntity
  8
0
100
AcDbBlockBegin
  2
*Model_Space
 70
     0
 10
0.0
 20
0.0
 30
0.0
  3
*Model_Space
  1
*Model_Space
  0
ENDBLK
  5
21
330
1F
100
AcDbEntity
  8
0
100
AcDbBlockEnd
  0
BLOCK
  5
1C
330
1B
100
AcDbEntity
 67
     1
  8
0
100
AcDbBlockBegin
  2
*Paper_Space
 70
     0
 10
0.0
 20
0.0
 30
0.0
  3
*Paper_Space
  1
*Paper_Space
  0
ENDBLK
  5
1D
330
1B
100
AcDbEntity
 67
     1
  8
0
100
AcDbBlockEnd
  0
BLOCK
  5
24
330
23
100
AcDbEntity
 67
     1
  8
0
100
AcDbBlockBegin
  2
*Paper_Space0
 70
     0
 10
0.0
 20
0.0
 30
0.0
  3
*Paper_Space0
  1
*Paper_Space0
  0
ENDBLK
  5
25
330
23
100
AcDbEntity
 67
     1
  8
0
100
AcDbBlockEnd
  0
ENDSEC
  0
SECTION
  2
ENTITIES
  0
SPLINE
  5
70
330
1F
100
AcDbEntity
  8
Layer 1
 62
   250
100
AcDbSpline
210
0.0
220
0.0
230
1.0
 70
    11
 71
     3
 72
    20
 73
    16
 74
     0
 42
0.0000000001
 43
0.0000000001
 40
0.0
 40
0.0
 40
0.0
 40
0.0
 40
0.2
 40
0.2
 40
0.2
 40
0.3
 40
0.4
 40
0.4
 40
0.4
 40
0.5
 40
0.6
 40
0.6
 40
0.6
 40
0.8
 40
1.0
 40
1.0
 40
1.0
 40
1.0
 10
-897.1117639214783
 20
-755.3280090129671
 30
0.0
 10
-897.1117639214783
 20
-755.3280090129671
 30
0.0
 10
-894.9092662214782
 20
-754.0870095129671
 30
0.0
 10
-894.9092662214782
 20
-754.0870095129671
 30
0.0
 10
-894.9092662214782
 20
-754.0870095129671
 30
0.0
 10
-894.9092662214782
 20
-754.0870095129671
 30
0.0
 10
-893.5526980214783
 20
-756.1112850129672
 30
0.0
 10
-893.5526980214783
 20
-756.1112850129672
 30
0.0
 10
-893.5526980214783
 20
-756.1112850129672
 30
0.0
 10
-893.5526980214783
 20
-756.1112850129672
 30
0.0
 10
-896.4546685214784
 20
-756.1112850129672
 30
0.0
 10
-896.4546685214784
 20
-756.1112850129672
 30
0.0
 10
-896.4546685214784
 20
-756.1112850129672
 30
0.0
 10
-896.4546685214784
 20
-756.1112850129672
 30
0.0
 10
-897.1117639214783
 20
-755.3280090129671
 30
0.0
 10
-897.1117639214783
 20
-755.3280090129671
 30
0.0
  0
SPLINE
  5
71
330
1F
100
AcDbEntity
  8
Layer 1
 62
   250
100
AcDbSpline
210
0.0
220
0.0
230
1.0
 70
     9
 71
     3
 72
    72
 73
    68
 74
     0
 42
0.0000000001
 43
0.0000000001
 40
0.0
 40
0.0
 40
0.0
 40
0.0
 40
0.0555555555555556
 40
0.0555555555555556
 40
0.0555555555555556
 40
0.0833333333333334
 40
0.1111111111111111
 40
0.1111111111111111
 40
0.1111111111111111
 40
0.1388888888888889
 40
0.1666666666666667
 40
0.1666666666666667
 40
0.1666666666666667
 40
0.1944444444444444
 40
0.2222222222222222
 40
0.2222222222222222
 40
0.2222222222222222
 40
0.25
 40
0.2777777777777778
 40
0.2777777777777778
 40
0.2777777777777778
 40
0.3055555555555556
 40
0.3333333333333333
 40
0.3333333333333333
 40
0.3333333333333333
 40
0.3611111111111111
 40
0.3888888888888889
 40
0.3888888888888889
 40
0.3888888888888889
 40
0.4166666666666666
 40
0.4444444444444445
 40
0.4444444444444445
 40
0.4444444444444445
 40
0.4722222222222224
 40
0.5
 40
0.5
 40
0.5
 40
0.5277777777777778
 40
0.5555555555555556
 40
0.5555555555555556
 40
0.5555555555555556
 40
0.5833333333333334
 40
0.6111111111111112
 40
0.6111111111111112
 40
0.6111111111111112
 40
0.638888888888889
 40
0.6666666666666666
 40
0.6666666666666666
 40
0.6666666666666666
 40
0.6944444444444446
 40
0.7222222222222224
 40
0.7222222222222224
 40
0.7222222222222224
 40
0.75
 40
0.7777777777777778
 40
0.7777777777777778
 40
0.7777777777777778
 40
0.8055555555555555
 40
0.8333333333333332
 40
0.8333333333333332
 40
0.8333333333333332
 40
0.8611111111111108
 40
0.8888888888888889
 40
0.8888888888888889
 40
0.8888888888888889
 40
0.9444444444444444
 40
1.0
 40
1.0
 40
1.0
 40
1.0
 10
-910.7484922214784
 20
-722.8361925129672
 30
0.0
 10
-910.7484922214784
 20
-722.8361925129672
 30
0.0
 10
-910.8436249214785
 20
-722.8361925129672
 30
0.0
 10
-910.8436249214785
 20
-722.8361925129672
 30
0.0
 10
-910.8436249214785
 20
-722.8361925129672
 30
0.0
 10
-911.1386287214784
 20
-722.8449441129671
 30
0.0
 10
-911.3748946214784
 20
-723.0870756129672
 30
0.0
 10
-911.3746333214784
 20
-723.384165912967
 30
0.0
 10
-911.3746333214784
 20
-723.384165912967
 30
0.0
 10
-911.3746333214784
 20
-723.384165912967
 30
0.0
 10
-911.3746333214784
 20
-723.397145112967
 30
0.0
 10
-911.3746333214784
 20
-723.397145112967
 30
0.0
 10
-911.3746333214784
 20
-723.397145112967
 30
0.0
 10
-913.8387508214783
 20
-723.5205645129671
 30
0.0
 10
-915.4414675214782
 20
-724.4342994129671
 30
0.0
 10
-916.1398288214783
 20
-726.1203396129672
 30
0.0
 10
-916.1398288214783
 20
-726.1203396129672
 30
0.0
 10
-917.2770415214783
 20
-728.8655184129671
 30
0.0
 10
-915.5461630214784
 20
-732.9395832129671
 30
0.0
 10
-913.8112324214784
 20
-735.8711625129671
 30
0.0
 10
-913.8112324214784
 20
-735.8711625129671
 30
0.0
 10
-913.8112324214784
 20
-735.8711625129671
 30
0.0
 10
-924.6891007214783
 20
-751.4528286129671
 30
0.0
 10
-924.6891007214783
 20
-751.4528286129671
 30
0.0
 10
-924.6891007214783
 20
-751.4528286129671
 30
0.0
 10
-924.6891007214783
 20
-751.4528286129671
 30
0.0
 10
-926.5455982214783
 20
-751.4528286129671
 30
0.0
 10
-926.5455982214783
 20
-751.4528286129671
 30
0.0
 10
-926.5455982214783
 20
-751.4528286129671
 30
0.0
 10
-926.5455982214783
 20
-751.4528286129671
 30
0.0
 10
-930.2292223214783
 20
-757.0919790129671
 30
0.0
 10
-930.2292223214783
 20
-757.0919790129671
 30
0.0
 10
-930.2292223214783
 20
-757.0919790129671
 30
0.0
 10
-930.2292223214783
 20
-757.0919790129671
 30
0.0
 10
-891.3811897214783
 20
-757.0919790129671
 30
0.0
 10
-891.3811897214783
 20
-757.0919790129671
 30
0.0
 10
-891.3811897214783
 20
-757.0919790129671
 30
0.0
 10
-891.3811897214783
 20
-757.0919790129671
 30
0.0
 10
-895.0647319214784
 20
-751.4528286129671
 30
0.0
 10
-895.0647319214784
 20
-751.4528286129671
 30
0.0
 10
-895.0647319214784
 20
-751.4528286129671
 30
0.0
 10
-895.0647319214784
 20
-751.4528286129671
 30
0.0
 10
-896.9213347214784
 20
-751.4528286129671
 30
0.0
 10
-896.9213347214784
 20
-751.4528286129671
 30
0.0
 10
-896.9213347214784
 20
-751.4528286129671
 30
0.0
 10
-896.9213347214784
 20
-751.4528286129671
 30
0.0
 10
-907.7725582214783
 20
-735.9091134129671
 30
0.0
 10
-907.7725582214783
 20
-735.9091134129671
 30
0.0
 10
-907.7725582214783
 20
-735.9091134129671
 30
0.0
 10
-907.5236797214783
 20
-735.4700982129672
 30
0.0
 10
-907.2817900214785
 20
-735.0189501129671
 30
0.0
 10
-907.0586281214783
 20
-734.5726263129671
 30
0.0
 10
-907.0586281214783
 20
-734.5726263129671
 30
0.0
 10
-905.9231587214783
 20
-732.3013716129671
 30
0.0
 10
-904.7063548214783
 20
-729.0848115129671
 30
0.0
 10
-905.3563249214784
 20
-726.6585162129671
 30
0.0
 10
-905.3563249214784
 20
-726.6585162129671
 30
0.0
 10
-905.7359119214783
 20
-725.2412991129671
 30
0.0
 10
-906.8953195214785
 20
-723.5674425129671
 30
0.0
 10
-910.2171562214783
 20
-723.396614712967
 30
0.0
 10
-910.2171562214783
 20
-723.396614712967
 30
0.0
 10
-910.2171562214783
 20
-723.396614712967
 30
0.0
 10
-910.2172888214784
 20
-723.3828438129672
 30
0.0
 10
-910.2172888214784
 20
-723.3828438129672
 30
0.0
 10
-910.2172888214784
 20
-723.3828438129672
 30
0.0
 10
-910.2175501214784
 20
-723.0859992129672
 30
0.0
 10
-910.4538433214784
 20
-722.8447959129671
 30
0.0
 10
-910.7484922214784
 20
-722.8361925129672
 30
0.0
  0
SPLINE
  5
72
330
1F
100
AcDbEntity
  8
Layer 1
 62
   250
100
AcDbSpline
210
0.0
220
0.0
230
1.0
 70
    11
 71
     3
 72
    20
 73
    16
 74
     0
 42
0.0000000001
 43
0.0000000001
 40
0.0
 40
0.0
 40
0.0
 40
0.0
 40
0.2
 40
0.2
 40
0.2
 40
0.3
 40
0.4
 40
0.4
 40
0.4
 40
0.5
 40
0.6
 40
0.6
 40
0.6
 40
0.8
 40
1.0
 40
1.0
 40
1.0
 40
1.0
 10
-899.5401808214783
 20
-752.4335460129671
 30
0.0
 10
-899.5401808214783
 20
-752.4335460129671
 30
0.0
 10
-896.0174005214783
 20
-752.4335460129671
 30
0.0
 10
-896.0174005214783
 20
-752.4335460129671
 30
0.0
 10
-896.0174005214783
 20
-752.4335460129671
 30
0.0
 10
-896.0174005214783
 20
-752.4335460129671
 30
0.0
 10
-895.2533047214783
 20
-753.5735433129671
 30
0.0
 10
-895.2533047214783
 20
-753.5735433129671
 30
0.0
 10
-895.2533047214783
 20
-753.5735433129671
 30
0.0
 10
-895.2533047214783
 20
-753.5735433129671
 30
0.0
 10
-897.5146027214783
 20
-754.8478566129671
 30
0.0
 10
-897.5146027214783
 20
-754.8478566129671
 30
0.0
 10
-897.5146027214783
 20
-754.8478566129671
 30
0.0
 10
-897.5146027214783
 20
-754.8478566129671
 30
0.0
 10
-899.5401808214783
 20
-752.4335460129671
 30
0.0
 10
-899.5401808214783
 20
-752.4335460129671
 30
0.0
  0
SPLINE
  5
73
330
1F
100
AcDbEntity
  8
Layer 1
 62
   250
100
AcDbSpline
210
0.0
220
0.0
230
1.0
 70
    11
 71
     3
 72
    20
 73
    16
 74
     0
 42
0.0000000001
 43
0.0000000001
 40
0.0
 40
0.0
 40
0.0
 40
0.0
 40
0.2
 40
0.2
 40
0.2
 40
0.3
 40
0.4
 40
0.4
 40
0.4
 40
0.5
 40
0.6
 40
0.6
 40
0.6
 40
0.8
 40
1.0
 40
1.0
 40
1.0
 40
1.0
 10
-900.7198255214783
 20
-756.1112850129672
 30
0.0
 10
-900.7198255214783
 20
-756.1112850129672
 30
0.0
 10
-901.5604588214783
 20
-755.1092580129671
 30
0.0
 10
-901.5604588214783
 20
-755.1092580129671
 30
0.0
 10
-901.5604588214783
 20
-755.1092580129671
 30
0.0
 10
-901.5604588214783
 20
-755.1092580129671
 30
0.0
 10
-899.5380592214784
 20
-753.9697833129671
 30
0.0
 10
-899.5380592214784
 20
-753.9697833129671
 30
0.0
 10
-899.5380592214784
 20
-753.9697833129671
 30
0.0
 10
-899.5380592214784
 20
-753.9697833129671
 30
0.0
 10
-897.7415788214782
 20
-756.1112850129672
 30
0.0
 10
-897.7415788214782
 20
-756.1112850129672
 30
0.0
 10
-897.7415788214782
 20
-756.1112850129672
 30
0.0
 10
-897.7415788214782
 20
-756.1112850129672
 30
0.0
 10
-900.7198255214783
 20
-756.1112850129672
 30
0.0
 10
-900.7198255214783
 20
-756.1112850129672
 30
0.0
  0
SPLINE
  5
74
330
1F
100
AcDbEntity
  8
Layer 1
 62
   250
100
AcDbSpline
210
0.0
220
0.0
230
1.0
 70
    11
 71
     3
 72
    20
 73
    16
 74
     0
 42
0.0000000001
 43
0.0000000001
 40
0.0
 40
0.0
 40
0.0
 40
0.0
 40
0.2
 40
0.2
 40
0.2
 40
0.3
 40
0.4
 40
0.4
 40
0.4
 40
0.5
 40
0.6
 40
0.6
 40
0.6
 40
0.8
 40
1.0
 40
1.0
 40
1.0
 40
1.0
 10
-903.8052013214784
 20
-752.4335460129671
 30
0.0
 10
-903.8052013214784
 20
-752.4335460129671
 30
0.0
 10
-900.8270872214783
 20
-752.4335460129671
 30
0.0
 10
-900.8270872214783
 20
-752.4335460129671
 30
0.0
 10
-900.8270872214783
 20
-752.4335460129671
 30
0.0
 10
-900.8270872214783
 20
-752.4335460129671
 30
0.0
 10
-899.9408980214782
 20
-753.4896387129671
 30
0.0
 10
-899.9408980214782
 20
-753.4896387129671
 30
0.0
 10
-899.9408980214782
 20
-753.4896387129671
 30
0.0
 10
-899.9408980214782
 20
-753.4896387129671
 30
0.0
 10
-901.9632976214783
 20
-754.6290939129671
 30
0.0
 10
-901.9632976214783
 20
-754.6290939129671
 30
0.0
 10
-901.9632976214783
 20
-754.6290939129671
 30
0.0
 10
-901.9632976214783
 20
-754.6290939129671
 30
0.0
 10
-903.8052013214784
 20
-752.4335460129671
 30
0.0
 10
-903.8052013214784
 20
-752.4335460129671
 30
0.0
  0
SPLINE
  5
75
330
1F
100
AcDbEntity
  8
Layer 1
 62
   250
100
AcDbSpline
210
0.0
220
0.0
230
1.0
 70
    11
 71
     3
 72
    20
 73
    16
 74
     0
 42
0.0000000001
 43
0.0000000001
 40
0.0
 40
0.0
 40
0.0
 40
0.0
 40
0.2
 40
0.2
 40
0.2
 40
0.3
 40
0.4
 40
0.4
 40
0.4
 40
0.5
 40
0.6
 40
0.6
 40
0.6
 40
0.8
 40
1.0
 40
1.0
 40
1.0
 40
1.0
 10
-904.9849786214783
 20
-756.1112850129672
 30
0.0
 10
-904.9849786214783
 20
-756.1112850129672
 30
0.0
 10
-905.9102341214783
 20
-755.0084118129671
 30
0.0
 10
-905.9102341214783
 20
-755.0084118129671
 30
0.0
 10
-905.9102341214783
 20
-755.0084118129671
 30
0.0
 10
-905.9102341214783
 20
-755.0084118129671
 30
0.0
 10
-903.8880217214783
 20
-753.8689293129671
 30
0.0
 10
-903.8880217214783
 20
-753.8689293129671
 30
0.0
 10
-903.8880217214783
 20
-753.8689293129671
 30
0.0
 10
-903.8880217214783
 20
-753.8689293129671
 30
0.0
 10
-902.0067319214783
 20
-756.1112850129672
 30
0.0
 10
-902.0067319214783
 20
-756.1112850129672
 30
0.0
 10
-902.0067319214783
 20
-756.1112850129672
 30
0.0
 10
-902.0067319214783
 20
-756.1112850129672
 30
0.0
 10
-904.9849786214783
 20
-756.1112850129672
 30
0.0
 10
-904.9849786214783
 20
-756.1112850129672
 30
0.0
  0
SPLINE
  5
76
330
1F
100
AcDbEntity
  8
Layer 1
 62
   250
100
AcDbSpline
210
0.0
220
0.0
230
1.0
 70
    11
 71
     3
 72
    20
 73
    16
 74
     0
 42
0.0000000001
 43
0.0000000001
 40
0.0
 40
0.0
 40
0.0
 40
0.0
 40
0.2
 40
0.2
 40
0.2
 40
0.3
 40
0.4
 40
0.4
 40
0.4
 40
0.5
 40
0.6
 40
0.6
 40
0.6
 40
0.8
 40
1.0
 40
1.0
 40
1.0
 40
1.0
 10
-909.2499211214784
 20
-756.1112850129672
 30
0.0
 10
-909.2499211214784
 20
-756.1112850129672
 30
0.0
 10
-910.1312938214784
 20
-755.0606874129671
 30
0.0
 10
-910.1312938214784
 20
-755.0606874129671
 30
0.0
 10
-910.1312938214784
 20
-755.0606874129671
 30
0.0
 10
-910.1312938214784
 20
-755.0606874129671
 30
0.0
 10
-908.1090775214784
 20
-753.9212127129672
 30
0.0
 10
-908.1090775214784
 20
-753.9212127129672
 30
0.0
 10
-908.1090775214784
 20
-753.9212127129672
 30
0.0
 10
-908.1090775214784
 20
-753.9212127129672
 30
0.0
 10
-906.2717836214783
 20
-756.1112850129672
 30
0.0
 10
-906.2717836214783
 20
-756.1112850129672
 30
0.0
 10
-906.2717836214783
 20
-756.1112850129672
 30
0.0
 10
-906.2717836214783
 20
-756.1112850129672
 30
0.0
 10
-909.2499211214784
 20
-756.1112850129672
 30
0.0
 10
-909.2499211214784
 20
-756.1112850129672
 30
0.0
  0
SPLINE
  5
77
330
1F
100
AcDbEntity
  8
Layer 1
 62
   250
100
AcDbSpline
210
0.0
220
0.0
230
1.0
 70
    11
 71
     3
 72
    20
 73
    16
 74
     0
 42
0.0000000001
 43
0.0000000001
 40
0.0
 40
0.0
 40
0.0
 40
0.0
 40
0.2
 40
0.2
 40
0.2
 40
0.3
 40
0.4
 40
0.4
 40
0.4
 40
0.5
 40
0.6
 40
0.6
 40
0.6
 40
0.8
 40
1.0
 40
1.0
 40
1.0
 40
1.0
 10
-912.3352462214782
 20
-752.4335460129671
 30
0.0
 10
-912.3352462214782
 20
-752.4335460129671
 30
0.0
 10
-909.3572413214783
 20
-752.4335460129671
 30
0.0
 10
-909.3572413214783
 20
-752.4335460129671
 30
0.0
 10
-909.3572413214783
 20
-752.4335460129671
 30
0.0
 10
-909.3572413214783
 20
-752.4335460129671
 30
0.0
 10
-908.5119436214784
 20
-753.4410642129671
 30
0.0
 10
-908.5119436214784
 20
-753.4410642129671
 30
0.0
 10
-908.5119436214784
 20
-753.4410642129671
 30
0.0
 10
-908.5119436214784
 20
-753.4410642129671
 30
0.0
 10
-910.5341287214784
 20
-754.5805194129671
 30
0.0
 10
-910.5341287214784
 20
-754.5805194129671
 30
0.0
 10
-910.5341287214784
 20
-754.5805194129671
 30
0.0
 10
-910.5341287214784
 20
-754.5805194129671
 30
0.0
 10
-912.3352462214782
 20
-752.4335460129671
 30
0.0
 10
-912.3352462214782
 20
-752.4335460129671
 30
0.0
  0
SPLINE
  5
78
330
1F
100
AcDbEntity
  8
Layer 1
 62
   250
100
AcDbSpline
210
0.0
220
0.0
230
1.0
 70
    11
 71
     3
 72
    20
 73
    16
 74
     0
 42
0.0000000001
 43
0.0000000001
 40
0.0
 40
0.0
 40
0.0
 40
0.0
 40
0.2
 40
0.2
 40
0.2
 40
0.3
 40
0.4
 40
0.4
 40
0.4
 40
0.5
 40
0.6
 40
0.6
 40
0.6
 40
0.8
 40
1.0
 40
1.0
 40
1.0
 40
1.0
 10
-913.5150235214783
 20
-756.1112850129672
 30
0.0
 10
-913.5150235214783
 20
-756.1112850129672
 30
0.0
 10
-914.3962363214782
 20
-755.0608317129671
 30
0.0
 10
-914.3962363214782
 20
-755.0608317129671
 30
0.0
 10
-914.3962363214782
 20
-755.0608317129671
 30
0.0
 10
-914.3962363214782
 20
-755.0608317129671
 30
0.0
 10
-912.3740473214782
 20
-753.9212127129672
 30
0.0
 10
-912.3740473214782
 20
-753.9212127129672
 30
0.0
 10
-912.3740473214782
 20
-753.9212127129672
 30
0.0
 10
-912.3740473214782
 20
-753.9212127129672
 30
0.0
 10
-910.5367534214783
 20
-756.1112850129672
 30
0.0
 10
-910.5367534214783
 20
-756.1112850129672
 30
0.0
 10
-910.5367534214783
 20
-756.1112850129672
 30
0.0
 10
-910.5367534214783
 20
-756.1112850129672
 30
0.0
 10
-913.5150235214783
 20
-756.1112850129672
 30
0.0
 10
-913.5150235214783
 20
-756.1112850129672
 30
0.0
  0
SPLINE
  5
79
330
1F
100
AcDbEntity
  8
Layer 1
 62
   250
100
AcDbSpline
210
0.0
220
0.0
230
1.0
 70
    11
 71
     3
 72
    20
 73
    16
 74
     0
 42
0.0000000001
 43
0.0000000001
 40
0.0
 40
0.0
 40
0.0
 40
0.0
 40
0.2
 40
0.2
 40
0.2
 40
0.3
 40
0.4
 40
0.4
 40
0.4
 40
0.5
 40
0.6
 40
0.6
 40
0.6
 40
0.8
 40
1.0
 40
1.0
 40
1.0
 40
1.0
 10
-916.6003486214783
 20
-752.4335460129671
 30
0.0
 10
-916.6003486214783
 20
-752.4335460129671
 30
0.0
 10
-913.6221838214783
 20
-752.4335460129671
 30
0.0
 10
-913.6221838214783
 20
-752.4335460129671
 30
0.0
 10
-913.6221838214783
 20
-752.4335460129671
 30
0.0
 10
-913.6221838214783
 20
-752.4335460129671
 30
0.0
 10
-912.7770187214784
 20
-753.4410642129671
 30
0.0
 10
-912.7770187214784
 20
-753.4410642129671
 30
0.0
 10
-912.7770187214784
 20
-753.4410642129671
 30
0.0
 10
-912.7770187214784
 20
-753.4410642129671
 30
0.0
 10
-914.7990751214784
 20
-754.5805194129671
 30
0.0
 10
-914.7990751214784
 20
-754.5805194129671
 30
0.0
 10
-914.7990751214784
 20
-754.5805194129671
 30
0.0
 10
-914.7990751214784
 20
-754.5805194129671
 30
0.0
 10
-916.6003486214783
 20
-752.4335460129671
 30
0.0
 10
-916.6003486214783
 20
-752.4335460129671
 30
0.0
  0
SPLINE
  5
7A
330
1F
100
AcDbEntity
  8
Layer 1
 62
   250
100
AcDbSpline
210
0.0
220
0.0
230
1.0
 70
    11
 71
     3
 72
    20
 73
    16
 74
     0
 42
0.0000000001
 43
0.0000000001
 40
0.0
 40
0.0
 40
0.0
 40
0.0
 40
0.2
 40
0.2
 40
0.2
 40
0.3
 40
0.4
 40
0.4
 40
0.4
 40
0.5
 40
0.6
 40
0.6
 40
0.6
 40
0.8
 40
1.0
 40
1.0
 40
1.0
 40
1.0
 10
-917.7799933214783
 20
-756.1112850129672
 30
0.0
 10
-917.7799933214783
 20
-756.1112850129672
 30
0.0
 10
-918.6100888214783
 20
-755.1217770129672
 30
0.0
 10
-918.6100888214783
 20
-755.1217770129672
 30
0.0
 10
-918.6100888214783
 20
-755.1217770129672
 30
0.0
 10
-918.6100888214783
 20
-755.1217770129672
 30
0.0
 10
-916.5879544214783
 20
-753.982314012967
 30
0.0
 10
-916.5879544214783
 20
-753.982314012967
 30
0.0
 10
-916.5879544214783
 20
-753.982314012967
 30
0.0
 10
-916.5879544214783
 20
-753.982314012967
 30
0.0
 10
-914.8019884214784
 20
-756.1112850129672
 30
0.0
 10
-914.8019884214784
 20
-756.1112850129672
 30
0.0
 10
-914.8019884214784
 20
-756.1112850129672
 30
0.0
 10
-914.8019884214784
 20
-756.1112850129672
 30
0.0
 10
-917.7799933214783
 20
-756.1112850129672
 30
0.0
 10
-917.7799933214783
 20
-756.1112850129672
 30
0.0
  0
SPLINE
  5
7B
330
1F
100
AcDbEntity
  8
Layer 1
 62
   250
100
AcDbSpline
210
0.0
220
0.0
230
1.0
 70
    11
 71
     3
 72
    20
 73
    16
 74
     0
 42
0.0000000001
 43
0.0000000001
 40
0.0
 40
0.0
 40
0.0
 40
0.0
 40
0.2
 40
0.2
 40
0.2
 40
0.3
 40
0.4
 40
0.4
 40
0.4
 40
0.5
 40
0.6
 40
0.6
 40
0.6
 40
0.8
 40
1.0
 40
1.0
 40
1.0
 40
1.0
 10
-920.8653184214783
 20
-752.4335460129671
 30
0.0
 10
-920.8653184214783
 20
-752.4335460129671
 30
0.0
 10
-917.8872862214783
 20
-752.4335460129671
 30
0.0
 10
-917.8872862214783
 20
-752.4335460129671
 30
0.0
 10
-917.8872862214783
 20
-752.4335460129671
 30
0.0
 10
-917.8872862214783
 20
-752.4335460129671
 30
0.0
 10
-916.9908439214783
 20
-753.5021382129671
 30
0.0
 10
-916.9908439214783
 20
-753.5021382129671
 30
0.0
 10
-916.9908439214783
 20
-753.5021382129671
 30
0.0
 10
-916.9908439214783
 20
-753.5021382129671
 30
0.0
 10
-919.0129276214785
 20
-754.6416090129671
 30
0.0
 10
-919.0129276214785
 20
-754.6416090129671
 30
0.0
 10
-919.0129276214785
 20
-754.6416090129671
 30
0.0
 10
-919.0129276214785
 20
-754.6416090129671
 30
0.0
 10
-920.8653184214783
 20
-752.4335460129671
 30
0.0
 10
-920.8653184214783
 20
-752.4335460129671
 30
0.0
  0
SPLINE
  5
7C
330
1F
100
AcDbEntity
  8
Layer 1
 62
   250
100
AcDbSpline
210
0.0
220
0.0
230
1.0
 70
    11
 71
     3
 72
    20
 73
    16
 74
     0
 42
0.0000000001
 43
0.0000000001
 40
0.0
 40
0.0
 40
0.0
 40
0.0
 40
0.2
 40
0.2
 40
0.2
 40
0.3
 40
0.4
 40
0.4
 40
0.4
 40
0.5
 40
0.6
 40
0.6
 40
0.6
 40
0.8
 40
1.0
 40
1.0
 40
1.0
 40
1.0
 10
-922.0450957214783
 20
-756.1112850129672
 30
0.0
 10
-922.0450957214783
 20
-756.1112850129672
 30
0.0
 10
-922.9263592214783
 20
-755.0608317129671
 30
0.0
 10
-922.9263592214783
 20
-755.0608317129671
 30
0.0
 10
-922.9263592214783
 20
-755.0608317129671
 30
0.0
 10
-922.9263592214783
 20
-755.0608317129671
 30
0.0
 10
-920.9041741214784
 20
-753.9212127129672
 30
0.0
 10
-920.9041741214784
 20
-753.9212127129672
 30
0.0
 10
-920.9041741214784
 20
-753.9212127129672
 30
0.0
 10
-920.9041741214784
 20
-753.9212127129672
 30
0.0
 10
-919.0669036214783
 20
-756.1112850129672
 30
0.0
 10
-919.0669036214783
 20
-756.1112850129672
 30
0.0
 10
-919.0669036214783
 20
-756.1112850129672
 30
0.0
 10
-919.0669036214783
 20
-756.1112850129672
 30
0.0
 10
-922.0450957214783
 20
-756.1112850129672
 30
0.0
 10
-922.0450957214783
 20
-756.1112850129672
 30
0.0
  0
SPLINE
  5
7D
330
1F
100
AcDbEntity
  8
Layer 1
 62
   250
100
AcDbSpline
210
0.0
220
0.0
230
1.0
 70
    11
 71
     3
 72
    20
 73
    16
 74
     0
 42
0.0000000001
 43
0.0000000001
 40
0.0
 40
0.0
 40
0.0
 40
0.0
 40
0.2
 40
0.2
 40
0.2
 40
0.3
 40
0.4
 40
0.4
 40
0.4
 40
0.5
 40
0.6
 40
0.6
 40
0.6
 40
0.8
 40
1.0
 40
1.0
 40
1.0
 40
1.0
 10
-925.1304208214785
 20
-752.4335460129671
 30
0.0
 10
-925.1304208214785
 20
-752.4335460129671
 30
0.0
 10
-922.1522560214783
 20
-752.4335460129671
 30
0.0
 10
-922.1522560214783
 20
-752.4335460129671
 30
0.0
 10
-922.1522560214783
 20
-752.4335460129671
 30
0.0
 10
-922.1522560214783
 20
-752.4335460129671
 30
0.0
 10
-921.3070090214783
 20
-753.4410642129671
 30
0.0
 10
-921.3070090214783
 20
-753.4410642129671
 30
0.0
 10
-921.3070090214783
 20
-753.4410642129671
 30
0.0
 10
-921.3070090214783
 20
-753.4410642129671
 30
0.0
 10
-923.3291980214785
 20
-754.5805194129671
 30
0.0
 10
-923.3291980214785
 20
-754.5805194129671
 30
0.0
 10
-923.3291980214785
 20
-754.5805194129671
 30
0.0
 10
-923.3291980214785
 20
-754.5805194129671
 30
0.0
 10
-925.1304208214785
 20
-752.4335460129671
 30
0.0
 10
-925.1304208214785
 20
-752.4335460129671
 30
0.0
  0
SPLINE
  5
7E
330
1F
100
AcDbEntity
  8
Layer 1
 62
   250
100
AcDbSpline
210
0.0
220
0.0
230
1.0
 70
    11
 71
     3
 72
    20
 73
    16
 74
     0
 42
0.0000000001
 43
0.0000000001
 40
0.0
 40
0.0
 40
0.0
 40
0.0
 40
0.2
 40
0.2
 40
0.2
 40
0.3
 40
0.4
 40
0.4
 40
0.4
 40
0.5
 40
0.6
 40
0.6
 40
0.6
 40
0.8
 40
1.0
 40
1.0
 40
1.0
 40
1.0
 10
-928.0577530214783
 20
-756.1112850129672
 30
0.0
 10
-928.0577530214783
 20
-756.1112850129672
 30
0.0
 10
-927.9395440214782
 20
-755.9152203129671
 30
0.0
 10
-927.9395440214782
 20
-755.9152203129671
 30
0.0
 10
-927.9395440214782
 20
-755.9152203129671
 30
0.0
 10
-927.9395440214782
 20
-755.9152203129671
 30
0.0
 10
-924.9164200214783
 20
-754.2226632129671
 30
0.0
 10
-924.9164200214783
 20
-754.2226632129671
 30
0.0
 10
-924.9164200214783
 20
-754.2226632129671
 30
0.0
 10
-924.9164200214783
 20
-754.2226632129671
 30
0.0
 10
-923.3319787214783
 20
-756.1112850129672
 30
0.0
 10
-923.3319787214783
 20
-756.1112850129672
 30
0.0
 10
-923.3319787214783
 20
-756.1112850129672
 30
0.0
 10
-923.3319787214783
 20
-756.1112850129672
 30
0.0
 10
-928.0577530214783
 20
-756.1112850129672
 30
0.0
 10
-928.0577530214783
 20
-756.1112850129672
 30
0.0
  0
SPLINE
  5
7F
330
1F
100
AcDbEntity
  8
Layer 1
 62
   250
100
AcDbSpline
210
0.0
220
0.0
230
1.0
 70
    11
 71
     3
 72
    16
 73
    12
 74
     0
 42
0.0000000001
 43
0.0000000001
 40
0.0
 40
0.0
 40
0.0
 40
0.0
 40
0.25
 40
0.25
 40
0.25
 40
0.375
 40
0.5
 40
0.5
 40
0.5
 40
0.75
 40
1.0
 40
1.0
 40
1.0
 40
1.0
 10
-926.0811550214784
 20
-752.8343178129671
 30
0.0
 10
-926.0811550214784
 20
-752.8343178129671
 30
0.0
 10
-925.3255105214783
 20
-753.7349409129671
 30
0.0
 10
-925.3255105214783
 20
-753.7349409129671
 30
0.0
 10
-925.3255105214783
 20
-753.7349409129671
 30
0.0
 10
-925.3255105214783
 20
-753.7349409129671
 30
0.0
 10
-927.2932711214783
 20
-754.8438591129671
 30
0.0
 10
-927.2932711214783
 20
-754.8438591129671
 30
0.0
 10
-927.2932711214783
 20
-754.8438591129671
 30
0.0
 10
-927.2932711214783
 20
-754.8438591129671
 30
0.0
 10
-926.0811550214784
 20
-752.8343178129671
 30
0.0
 10
-926.0811550214784
 20
-752.8343178129671
 30
0.0
  0
SPLINE
  5
80
330
1F
100
AcDbEntity
  8
Layer 1
 62
   250
100
AcDbSpline
210
0.0
220
0.0
230
1.0
 70
    11
 71
     3
 72
    20
 73
    16
 74
     0
 42
0.0000000001
 43
0.0000000001
 40
0.0
 40
0.0
 40
0.0
 40
0.0
 40
0.2
 40
0.2
 40
0.2
 40
0.3
 40
0.4
 40
0.4
 40
0.4
 40
0.5
 40
0.6
 40
0.6
 40
0.6
 40
0.8
 40
1.0
 40
1.0
 40
1.0
 40
1.0
 10
-904.2908566214784
 20
-753.3886482129672
 30
0.0
 10
-904.2908566214784
 20
-753.3886482129672
 30
0.0
 10
-906.3129403214784
 20
-754.5282438129671
 30
0.0
 10
-906.3129403214784
 20
-754.5282438129671
 30
0.0
 10
-906.3129403214784
 20
-754.5282438129671
 30
0.0
 10
-906.3129403214784
 20
-754.5282438129671
 30
0.0
 10
-908.0703037214783
 20
-752.4335460129671
 30
0.0
 10
-908.0703037214783
 20
-752.4335460129671
 30
0.0
 10
-908.0703037214783
 20
-752.4335460129671
 30
0.0
 10
-908.0703037214783
 20
-752.4335460129671
 30
0.0
 10
-905.0921389214783
 20
-752.4335460129671
 30
0.0
 10
-905.0921389214783
 20
-752.4335460129671
 30
0.0
 10
-905.0921389214783
 20
-752.4335460129671
 30
0.0
 10
-905.0921389214783
 20
-752.4335460129671
 30
0.0
 10
-904.2908566214784
 20
-753.3886482129672
 30
0.0
 10
-904.2908566214784
 20
-753.3886482129672
 30
0.0
  0
SPLINE
  5
81
330
1F
100
AcDbEntity
  8
Layer 1
 62
   250
100
AcDbSpline
210
0.0
220
0.0
230
1.0
 70
     9
 71
     3
 72
    20
 73
    16
 74
     0
 42
0.0000000001
 43
0.0000000001
 40
0.0
 40
0.0
 40
0.0
 40
0.0
 40
0.2
 40
0.2
 40
0.2
 40
0.3
 40
0.4
 40
0.4
 40
0.4
 40
0.5
 40
0.6
 40
0.6
 40
0.6
 40
0.8
 40
1.0
 40
1.0
 40
1.0
 40
1.0
 10
-910.6453138214783
 20
-739.3729920129672
 30
0.0
 10
-907.5103300214783
 20
-739.3729920129672
 30
0.0
 10
-904.9688755214784
 20
-741.9144465129671
 30
0.0
 10
-904.9688755214784
 20
-745.0494303129671
 30
0.0
 10
-904.9688755214784
 20
-745.0494303129671
 30
0.0
 10
-904.9688755214784
 20
-748.1845467129671
 30
0.0
 10
-907.5103300214783
 20
-750.7259739129671
 30
0.0
 10
-910.6453138214783
 20
-750.7259739129671
 30
0.0
 10
-910.6453138214783
 20
-750.7259739129671
 30
0.0
 10
-913.7802742214784
 20
-750.7259739129671
 30
0.0
 10
-916.3217248214783
 20
-748.1845467129671
 30
0.0
 10
-916.3217248214783
 20
-745.0494303129671
 30
0.0
 10
-916.3217248214783
 20
-745.0494303129671
 30
0.0
 10
-916.3217248214783
 20
-741.9144465129671
 30
0.0
 10
-913.7802742214784
 20
-739.3729920129672
 30
0.0
 10
-910.6453138214783
 20
-739.3729920129672
 30
0.0
  0
SPLINE
  5
82
330
1F
100
AcDbEntity
  8
Layer 1
 62
   250
100
AcDbSpline
210
0.0
220
0.0
230
1.0
 70
     9
 71
     3
 72
    36
 73
    32
 74
     0
 42
0.0000000001
 43
0.0000000001
 40
0.0
 40
0.0
 40
0.0
 40
0.0
 40
0.1111111111111111
 40
0.1111111111111111
 40
0.1111111111111111
 40
0.1666666666666666
 40
0.2222222222222222
 40
0.2222222222222222
 40
0.2222222222222222
 40
0.2777777777777778
 40
0.3333333333333333
 40
0.3333333333333333
 40
0.3333333333333333
 40
0.3888888888888888
 40
0.4444444444444445
 40
0.4444444444444445
 40
0.4444444444444445
 40
0.5
 40
0.5555555555555556
 40
0.5555555555555556
 40
0.5555555555555556
 40
0.6111111111111112
 40
0.6666666666666666
 40
0.6666666666666666
 40
0.6666666666666666
 40
0.7222222222222224
 40
0.7777777777777778
 40
0.7777777777777778
 40
0.7777777777777778
 40
0.8888888888888889
 40
1.0
 40
1.0
 40
1.0
 40
1.0
 10
-914.6598412214784
 20
-726.7332051129671
 30
0.0
 10
-914.2193167214783
 20
-725.6695659129672
 30
0.0
 10
-913.1396797214783
 20
-725.1011955129671
 30
0.0
 10
-911.3729914214783
 20
-725.0010825129671
 30
0.0
 10
-911.3729914214783
 20
-725.0010825129671
 30
0.0
 10
-911.3729914214783
 20
-725.0010825129671
 30
0.0
 10
-911.3705032214783
 20
-727.3177293129671
 30
0.0
 10
-911.3705032214783
 20
-727.3177293129671
 30
0.0
 10
-911.3705032214783
 20
-727.3177293129671
 30
0.0
 10
-911.3705032214783
 20
-727.3177293129671
 30
0.0
 10
-913.2543046214783
 20
-730.2016896129671
 30
0.0
 10
-913.2543046214783
 20
-730.2016896129671
 30
0.0
 10
-913.2543046214783
 20
-730.2016896129671
 30
0.0
 10
-913.2543046214783
 20
-730.2016896129671
 30
0.0
 10
-911.4090391214784
 20
-730.2016896129671
 30
0.0
 10
-911.4090391214784
 20
-730.2016896129671
 30
0.0
 10
-911.4090391214784
 20
-730.2016896129671
 30
0.0
 10
-911.4090391214784
 20
-730.2016896129671
 30
0.0
 10
-911.4068395214783
 20
-732.4268580129671
 30
0.0
 10
-911.4068395214783
 20
-732.4268580129671
 30
0.0
 10
-911.4068395214783
 20
-732.4268580129671
 30
0.0
 10
-911.4068395214783
 20
-732.4268580129671
 30
0.0
 10
-912.8000053214783
 20
-734.4225621129671
 30
0.0
 10
-912.8000053214783
 20
-734.4225621129671
 30
0.0
 10
-912.8000053214783
 20
-734.4225621129671
 30
0.0
 10
-913.0271413214783
 20
-734.0120442129671
 30
0.0
 10
-913.2514186214784
 20
-733.5822954129671
 30
0.0
 10
-913.4650723214784
 20
-733.1380074129671
 30
0.0
 10
-913.4650723214784
 20
-733.1380074129671
 30
0.0
 10
-914.7979870214783
 20
-730.3656300129671
 30
0.0
 10
-915.2223031214784
 20
-728.091095412967
 30
0.0
 10
-914.6598412214784
 20
-726.7332051129671
 30
0.0
  0
SPLINE
  5
83
330
1F
100
AcDbEntity
  8
Layer 1
 62
   250
100
AcDbSpline
210
0.0
220
0.0
230
1.0
 70
     9
 71
     3
 72
    32
 73
    28
 74
     0
 42
0.0000000001
 43
0.0000000001
 40
0.0
 40
0.0
 40
0.0
 40
0.0
 40
0.125
 40
0.125
 40
0.125
 40
0.1875
 40
0.25
 40
0.25
 40
0.25
 40
0.3125
 40
0.375
 40
0.375
 40
0.375
 40
0.4375
 40
0.5
 40
0.5
 40
0.5
 40
0.5625
 40
0.625
 40
0.625
 40
0.625
 40
0.6875
 40
0.75
 40
0.75
 40
0.75
 40
0.875
 40
1.0
 40
1.0
 40
1.0
 40
1.0
 10
-906.9857137214784
 20
-726.8139819129672
 30
0.0
 10
-906.2696113214784
 20
-728.7566616129671
 30
0.0
 10
-907.4832094214784
 20
-731.9361171129671
 30
0.0
 10
-908.8019554214783
 20
-734.4347184129672
 30
0.0
 10
-908.8019554214783
 20
-734.4347184129672
 30
0.0
 10
-908.8019554214783
 20
-734.4347184129672
 30
0.0
 10
-910.0549357214784
 20
-732.6399033129671
 30
0.0
 10
-910.0549357214784
 20
-732.6399033129671
 30
0.0
 10
-910.0549357214784
 20
-732.6399033129671
 30
0.0
 10
-910.0549357214784
 20
-732.6399033129671
 30
0.0
 10
-910.0574005214783
 20
-730.2016896129671
 30
0.0
 10
-910.0574005214783
 20
-730.2016896129671
 30
0.0
 10
-910.0574005214783
 20
-730.2016896129671
 30
0.0
 10
-910.0574005214783
 20
-730.2016896129671
 30
0.0
 10
-908.3043271214783
 20
-730.2016896129671
 30
0.0
 10
-908.3043271214783
 20
-730.2016896129671
 30
0.0
 10
-908.3043271214783
 20
-730.2016896129671
 30
0.0
 10
-908.3043271214783
 20
-730.2016896129671
 30
0.0
 10
-910.2131587214783
 20
-727.2795912129671
 30
0.0
 10
-910.2131587214783
 20
-727.2795912129671
 30
0.0
 10
-910.2131587214783
 20
-727.2795912129671
 30
0.0
 10
-910.2131587214783
 20
-727.2795912129671
 30
0.0
 10
-910.2154870214784
 20
-725.0008173129671
 30
0.0
 10
-910.2154870214784
 20
-725.0008173129671
 30
0.0
 10
-910.2154870214784
 20
-725.0008173129671
 30
0.0
 10
-908.4577258214784
 20
-725.1033132129671
 30
0.0
 10
-907.3971052214783
 20
-725.6979033129671
 30
0.0
 10
-906.9857137214784
 20
-726.8139819129672
 30
0.0
  0
SPLINE
  5
84
330
1F
100
AcDbEntity
  8
Layer 1
 62
   250
100
AcDbSpline
210
0.0
220
0.0
230
1.0
 70
     9
 71
     3
 72
   340
 73
   336
 74
     0
 42
0.0000000001
 43
0.0000000001
 40
0.0
 40
0.0
 40
0.0
 40
0.0
 40
0.0117647058823529
 40
0.0117647058823529
 40
0.0117647058823529
 40
0.0176470588235294
 40
0.0235294117647059
 40
0.0235294117647059
 40
0.0235294117647059
 40
0.0294117647058824
 40
0.0352941176470588
 40
0.0352941176470588
 40
0.0352941176470588
 40
0.0411764705882353
 40
0.0470588235294118
 40
0.0470588235294118
 40
0.0470588235294118
 40
0.0529411764705883
 40
0.0588235294117647
 40
0.0588235294117647
 40
0.0588235294117647
 40
0.0647058823529412
 40
0.0705882352941176
 40
0.0705882352941176
 40
0.0705882352941176
 40
0.0764705882352941
 40
0.0823529411764706
 40
0.0823529411764706
 40
0.0823529411764706
 40
0.0882352941176471
 40
0.0941176470588235
 40
0.0941176470588235
 40
0.0941176470588235
 40
0.1
 40
0.1058823529411765
 40
0.1058823529411765
 40
0.1058823529411765
 40
0.1117647058823529
 40
0.1176470588235294
 40
0.1176470588235294
 40
0.1176470588235294
 40
0.1235294117647059
 40
0.1294117647058824
 40
0.1294117647058824
 40
0.1294117647058824
 40
0.1352941176470588
 40
0.1411764705882353
 40
0.1411764705882353
 40
0.1411764705882353
 40
0.1470588235294117
 40
0.1529411764705882
 40
0.1529411764705882
 40
0.1529411764705882
 40
0.1588235294117647
 40
0.1647058823529412
 40
0.1647058823529412
 40
0.1647058823529412
 40
0.1705882352941177
 40
0.1764705882352941
 40
0.1764705882352941
 40
0.1764705882352941
 40
0.1823529411764706
 40
0.1882352941176471
 40
0.1882352941176471
 40
0.1882352941176471
 40
0.1941176470588235
 40
0.2
 40
0.2
 40
0.2
 40
0.2058823529411764
 40
0.2117647058823529
 40
0.2117647058823529
 40
0.2117647058823529
 40
0.2176470588235294
 40
0.2235294117647059
 40
0.2235294117647059
 40
0.2235294117647059
 40
0.2294117647058823
 40
0.2352941176470588
 40
0.2352941176470588
 40
0.2352941176470588
 40
0.2411764705882353
 40
0.2470588235294118
 40
0.2470588235294118
 40
0.2470588235294118
 40
0.2529411764705882
 40
0.2588235294117647
 40
0.2588235294117647
 40
0.2588235294117647
 40
0.2647058823529411
 40
0.2705882352941176
 40
0.2705882352941176
 40
0.2705882352941176
 40
0.2764705882352941
 40
0.2823529411764706
 40
0.2823529411764706
 40
0.2823529411764706
 40
0.288235294117647
 40
0.2941176470588235
 40
0.2941176470588235
 40
0.2941176470588235
 40
0.3
 40
0.3058823529411765
 40
0.3058823529411765
 40
0.3058823529411765
 40
0.3117647058823529
 40
0.3176470588235294
 40
0.3176470588235294
 40
0.3176470588235294
 40
0.3235294117647058
 40
0.3294117647058823
 40
0.3294117647058823
 40
0.3294117647058823
 40
0.3352941176470588
 40
0.3411764705882353
 40
0.3411764705882353
 40
0.3411764705882353
 40
0.3470588235294118
 40
0.3529411764705883
 40
0.3529411764705883
 40
0.3529411764705883
 40
0.3588235294117648
 40
0.3647058823529412
 40
0.3647058823529412
 40
0.3647058823529412
 40
0.3705882352941177
 40
0.3764705882352941
 40
0.3764705882352941
 40
0.3764705882352941
 40
0.3823529411764706
 40
0.3882352941176471
 40
0.3882352941176471
 40
0.3882352941176471
 40
0.3941176470588235
 40
0.4
 40
0.4
 40
0.4
 40
0.4058823529411766
 40
0.4117647058823529
 40
0.4117647058823529
 40
0.4117647058823529
 40
0.4176470588235295
 40
0.4235294117647059
 40
0.4235294117647059
 40
0.4235294117647059
 40
0.4294117647058825
 40
0.4352941176470588
 40
0.4352941176470588
 40
0.4352941176470588
 40
0.4411764705882355
 40
0.4470588235294118
 40
0.4470588235294118
 40
0.4470588235294118
 40
0.4529411764705884
 40
0.4588235294117647
 40
0.4588235294117647
 40
0.4588235294117647
 40
0.4647058823529413
 40
0.4705882352941176
 40
0.4705882352941176
 40
0.4705882352941176
 40
0.4764705882352942
 40
0.4823529411764706
 40
0.4823529411764706
 40
0.4823529411764706
 40
0.4882352941176471
 40
0.4941176470588238
 40
0.4941176470588238
 40
0.4941176470588238
 40
0.5
 40
0.5058823529411765
 40
0.5058823529411765
 40
0.5058823529411765
 40
0.5117647058823529
 40
0.5176470588235295
 40
0.5176470588235295
 40
0.5176470588235295
 40
0.5235294117647059
 40
0.5294117647058824
 40
0.5294117647058824
 40
0.5294117647058824
 40
0.5352941176470588
 40
0.5411764705882353
 40
0.5411764705882353
 40
0.5411764705882353
 40
0.5470588235294118
 40
0.5529411764705883
 40
0.5529411764705883
 40
0.5529411764705883
 40
0.5588235294117647
 40
0.5647058823529412
 40
0.5647058823529412
 40
0.5647058823529412
 40
0.5705882352941176
 40
0.5764705882352941
 40
0.5764705882352941
 40
0.5764705882352941
 40
0.5823529411764705
 40
0.5882352941176471
 40
0.5882352941176471
 40
0.5882352941176471
 40
0.5941176470588237
 40
0.6
 40
0.6
 40
0.6
 40
0.6058823529411767
 40
0.611764705882353
 40
0.611764705882353
 40
0.611764705882353
 40
0.6176470588235296
 40
0.6235294117647059
 40
0.6235294117647059
 40
0.6235294117647059
 40
0.6294117647058825
 40
0.6352941176470588
 40
0.6352941176470588
 40
0.6352941176470588
 40
0.6411764705882354
 40
0.6470588235294118
 40
0.6470588235294118
 40
0.6470588235294118
 40
0.6529411764705883
 40
0.6588235294117647
 40
0.6588235294117647
 40
0.6588235294117647
 40
0.6647058823529412
 40
0.6705882352941176
 40
0.6705882352941176
 40
0.6705882352941176
 40
0.6764705882352942
 40
0.6823529411764708
 40
0.6823529411764708
 40
0.6823529411764708
 40
0.6882352941176471
 40
0.6941176470588237
 40
0.6941176470588237
 40
0.6941176470588237
 40
0.7
 40
0.7058823529411767
 40
0.7058823529411767
 40
0.7058823529411767
 40
0.7117647058823531
 40
0.7176470588235296
 40
0.7176470588235296
 40
0.7176470588235296
 40
0.7235294117647059
 40
0.7294117647058825
 40
0.7294117647058825
 40
0.7294117647058825
 40
0.7352941176470589
 40
0.7411764705882355
 40
0.7411764705882355
 40
0.7411764705882355
 40
0.7470588235294118
 40
0.7529411764705884
 40
0.7529411764705884
 40
0.7529411764705884
 40
0.7588235294117647
 40
0.7647058823529413
 40
0.7647058823529413
 40
0.7647058823529413
 40
0.7705882352941176
 40
0.7764705882352942
 40
0.7764705882352942
 40
0.7764705882352942
 40
0.7823529411764705
 40
0.788235294117647
 40
0.788235294117647
 40
0.788235294117647
 40
0.7941176470588235
 40
0.8
 40
0.8
 40
0.8
 40
0.8058823529411764
 40
0.8117647058823528
 40
0.8117647058823528
 40
0.8117647058823528
 40
0.8176470588235293
 40
0.8235294117647057
 40
0.8235294117647057
 40
0.8235294117647057
 40
0.8294117647058822
 40
0.8352941176470588
 40
0.8352941176470588
 40
0.8352941176470588
 40
0.8411764705882353
 40
0.8470588235294117
 40
0.8470588235294117
 40
0.8470588235294117
 40
0.8529411764705882
 40
0.8588235294117646
 40
0.8588235294117646
 40
0.8588235294117646
 40
0.8647058823529413
 40
0.8705882352941177
 40
0.8705882352941177
 40
0.8705882352941177
 40
0.8764705882352942
 40
0.8823529411764706
 40
0.8823529411764706
 40
0.8823529411764706
 40
0.8882352941176471
 40
0.8941176470588235
 40
0.8941176470588235
 40
0.8941176470588235
 40
0.9
 40
0.9058823529411764
 40
0.9058823529411764
 40
0.9058823529411764
 40
0.9117647058823528
 40
0.9176470588235291
 40
0.9176470588235291
 40
0.9176470588235291
 40
0.9235294117647059
 40
0.9294117647058824
 40
0.9294117647058824
 40
0.9294117647058824
 40
0.9352941176470588
 40
0.9411764705882351
 40
0.9411764705882351
 40
0.9411764705882351
 40
0.9470588235294115
 40
0.9529411764705882
 40
0.9529411764705882
 40
0.9529411764705882
 40
0.9588235294117646
 40
0.9647058823529411
 40
0.9647058823529411
 40
0.9647058823529411
 40
0.9705882352941175
 40
0.976470588235294
 40
0.976470588235294
 40
0.976470588235294
 40
0.9882352941176467
 40
1.0
 40
1.0
 40
1.0
 40
1.0
 10
-914.1928825214783
 20
-749.0683803129671
 30
0.0
 10
-914.1928825214783
 20
-749.0683803129671
 30
0.0
 10
-914.0513203214783
 20
-749.1048492129671
 30
0.0
 10
-914.0513203214783
 20
-749.1048492129671
 30
0.0
 10
-914.0513203214783
 20
-749.1048492129671
 30
0.0
 10
-913.8618739214784
 20
-749.1535563129671
 30
0.0
 10
-913.7000746214784
 20
-749.2766832129671
 30
0.0
 10
-913.6026643214783
 20
-749.4464541129671
 30
0.0
 10
-913.6026643214783
 20
-749.4464541129671
 30
0.0
 10
-913.6026643214783
 20
-749.4464541129671
 30
0.0
 10
-913.5300151214783
 20
-749.5733172129671
 30
0.0
 10
-913.5300151214783
 20
-749.5733172129671
 30
0.0
 10
-913.5300151214783
 20
-749.5733172129671
 30
0.0
 10
-913.3944901214784
 20
-749.8095363129671
 30
0.0
 10
-913.1381665214783
 20
-749.9500143129671
 30
0.0
 10
-912.8663248214783
 20
-749.9370897129671
 30
0.0
 10
-912.8663248214783
 20
-749.9370897129671
 30
0.0
 10
-912.8663248214783
 20
-749.9370897129671
 30
0.0
 10
-912.7202074214784
 20
-749.9300697129671
 30
0.0
 10
-912.7202074214784
 20
-749.9300697129671
 30
0.0
 10
-912.7202074214784
 20
-749.9300697129671
 30
0.0
 10
-912.5246965214783
 20
-749.9207214129671
 30
0.0
 10
-912.3338695214783
 20
-749.9908785129671
 30
0.0
 10
-912.1907707214782
 20
-750.1243404129671
 30
0.0
 10
-912.1907707214782
 20
-750.1243404129671
 30
0.0
 10
-912.1907707214782
 20
-750.1243404129671
 30
0.0
 10
-912.0838756214784
 20
-750.2242155129671
 30
0.0
 10
-912.0838756214784
 20
-750.2242155129671
 30
0.0
 10
-912.0838756214784
 20
-750.2242155129671
 30
0.0
 10
-911.8849210214783
 20
-750.409953012967
 30
0.0
 10
-911.5984855214783
 20
-750.4686987129671
 30
0.0
 10
-911.3424271214784
 20
-750.376104912967
 30
0.0
 10
-911.3424271214784
 20
-750.376104912967
 30
0.0
 10
-911.3424271214784
 20
-750.376104912967
 30
0.0
 10
-911.2049950214784
 20
-750.3263136129671
 30
0.0
 10
-911.2049950214784
 20
-750.3263136129671
 30
0.0
 10
-911.2049950214784
 20
-750.3263136129671
 30
0.0
 10
-911.0208994214783
 20
-750.2598615129671
 30
0.0
 10
-910.8178381214784
 20
-750.2705904129672
 30
0.0
 10
-910.6417141214784
 20
-750.3560316129672
 30
0.0
 10
-910.6417141214784
 20
-750.3560316129672
 30
0.0
 10
-910.6417141214784
 20
-750.3560316129672
 30
0.0
 10
-910.5101866214784
 20
-750.4198590129671
 30
0.0
 10
-910.5101866214784
 20
-750.4198590129671
 30
0.0
 10
-910.5101866214784
 20
-750.4198590129671
 30
0.0
 10
-910.2653056214784
 20
-750.5387232129671
 30
0.0
 10
-909.9743149214784
 20
-750.5103858129671
 30
0.0
 10
-909.7569250214784
 20
-750.3463908129671
 30
0.0
 10
-909.7569250214784
 20
-750.3463908129671
 30
0.0
 10
-909.7569250214784
 20
-750.3463908129671
 30
0.0
 10
-909.6402604214784
 20
-750.2584848129671
 30
0.0
 10
-909.6402604214784
 20
-750.2584848129671
 30
0.0
 10
-909.6402604214784
 20
-750.2584848129671
 30
0.0
 10
-909.4839718214783
 20
-750.1405722129671
 30
0.0
 10
-909.2866552214783
 20
-750.0908862129671
 30
0.0
 10
-909.0933673214783
 20
-750.1207641129671
 30
0.0
 10
-909.0933673214783
 20
-750.1207641129671
 30
0.0
 10
-909.0933673214783
 20
-750.1207641129671
 30
0.0
 10
-908.9487592214783
 20
-750.1429044129671
 30
0.0
 10
-908.9487592214783
 20
-750.1429044129671
 30
0.0
 10
-908.9487592214783
 20
-750.1429044129671
 30
0.0
 10
-908.6796475214784
 20
-750.1843263129671
 30
0.0
 10
-908.4099742214784
 20
-750.0714993129671
 30
0.0
 10
-908.2506670214783
 20
-749.8508256129671
 30
0.0
 10
-908.2506670214783
 20
-749.8508256129671
 30
0.0
 10
-908.2506670214783
 20
-749.8508256129671
 30
0.0
 10
-908.1650659214783
 20
-749.7322266129671
 30
0.0
 10
-908.1650659214783
 20
-749.7322266129671
 30
0.0
 10
-908.1650659214783
 20
-749.7322266129671
 30
0.0
 10
-908.0504917214783
 20
-749.5735824129671
 30
0.0
 10
-907.8765673214784
 20
-749.4680640129671
 30
0.0
 10
-907.6829869214783
 20
-749.439434112967
 30
0.0
 10
-907.6829869214783
 20
-749.439434112967
 30
0.0
 10
-907.6829869214783
 20
-749.439434112967
 30
0.0
 10
-907.5383788214782
 20
-749.4181128129671
 30
0.0
 10
-907.5383788214782
 20
-749.4181128129671
 30
0.0
 10
-907.5383788214782
 20
-749.4181128129671
 30
0.0
 10
-907.2689980214784
 20
-749.3783601129671
 30
0.0
 10
-907.0446154214783
 20
-749.1911094129672
 30
0.0
 10
-906.9573763214783
 20
-748.9331205129671
 30
0.0
 10
-906.9573763214783
 20
-748.9331205129671
 30
0.0
 10
-906.9573763214783
 20
-748.9331205129671
 30
0.0
 10
-906.9104437214784
 20
-748.7945769129671
 30
0.0
 10
-906.9104437214784
 20
-748.7945769129671
 30
0.0
 10
-906.9104437214784
 20
-748.7945769129671
 30
0.0
 10
-906.8477278214784
 20
-748.6092606129671
 30
0.0
 10
-906.7127605214784
 20
-748.4570787129671
 30
0.0
 10
-906.5362348214783
 20
-748.3727490129671
 30
0.0
 10
-906.5362348214783
 20
-748.3727490129671
 30
0.0
 10
-906.5362348214783
 20
-748.3727490129671
 30
0.0
 10
-906.4042861214783
 20
-748.3097406129672
 30
0.0
 10
-906.4042861214783
 20
-748.3097406129672
 30
0.0
 10
-906.4042861214783
 20
-748.3097406129672
 30
0.0
 10
-906.1585588214782
 20
-748.1923857129672
 30
0.0
 10
-905.9993842214783
 20
-747.9472122129672
 30
0.0
 10
-905.9919430214783
 20
-747.6750780129671
 30
0.0
 10
-905.9919430214783
 20
-747.6750780129671
 30
0.0
 10
-905.9919430214783
 20
-747.6750780129671
 30
0.0
 10
-905.9879689214783
 20
-747.528960612967
 30
0.0
 10
-905.9879689214783
 20
-747.528960612967
 30
0.0
 10
-905.9879689214783
 20
-747.528960612967
 30
0.0
 10
-905.9825908214785
 20
-747.3333171129671
 30
0.0
 10
-905.8985302214784
 20
-747.1481334129671
 30
0.0
 10
-905.7546085214784
 20
-747.0154944129672
 30
0.0
 10
-905.7546085214784
 20
-747.0154944129672
 30
0.0
 10
-905.7546085214784
 20
-747.0154944129672
 30
0.0
 10
-905.6471596214784
 20
-746.9162823129671
 30
0.0
 10
-905.6471596214784
 20
-746.9162823129671
 30
0.0
 10
-905.6471596214784
 20
-746.9162823129671
 30
0.0
 10
-905.4471169214783
 20
-746.731788912967
 30
0.0
 10
-905.3671864214782
 20
-746.4505677129672
 30
0.0
 10
-905.4402295214783
 20
-746.1883395129671
 30
0.0
 10
-905.4402295214783
 20
-746.1883395129671
 30
0.0
 10
-905.4402295214783
 20
-746.1883395129671
 30
0.0
 10
-905.4795883214783
 20
-746.047467612967
 30
0.0
 10
-905.4795883214783
 20
-746.047467612967
 30
0.0
 10
-905.4795883214783
 20
-746.047467612967
 30
0.0
 10
-905.5321330214782
 20
-745.8589728129672
 30
0.0
 10
-905.5062838214784
 20
-745.6572609129671
 30
0.0
 10
-905.4080506214784
 20
-745.4880477129671
 30
0.0
 10
-905.4080506214784
 20
-745.4880477129671
 30
0.0
 10
-905.4080506214784
 20
-745.4880477129671
 30
0.0
 10
-905.3344498214784
 20
-745.3617423129672
 30
0.0
 10
-905.3344498214784
 20
-745.3617423129672
 30
0.0
 10
-905.3344498214784
 20
-745.3617423129672
 30
0.0
 10
-905.1976807214783
 20
-745.1263422129671
 30
0.0
 10
-905.2041430214783
 20
-744.834103512967
 30
0.0
 10
-905.3513719214784
 20
-744.6050370129671
 30
0.0
 10
-905.3513719214784
 20
-744.6050370129671
 30
0.0
 10
-905.3513719214784
 20
-744.6050370129671
 30
0.0
 10
-905.4304834214784
 20
-744.4820388129671
 30
0.0
 10
-905.4304834214784
 20
-744.4820388129671
 30
0.0
 10
-905.4304834214784
 20
-744.4820388129671
 30
0.0
 10
-905.5362670214783
 20
-744.3174861129671
 30
0.0
 10
-905.5710940214783
 20
-744.1170222129671
 30
0.0
 10
-905.5269148214783
 20
-743.9264604129671
 30
0.0
 10
-905.5269148214783
 20
-743.9264604129671
 30
0.0
 10
-905.5269148214783
 20
-743.9264604129671
 30
0.0
 10
-905.4938896214784
 20
-743.7839466129672
 30
0.0
 10
-905.4938896214784
 20
-743.7839466129672
 30
0.0
 10
-905.4938896214784
 20
-743.7839466129672
 30
0.0
 10
-905.4325231214784
 20
-743.518672512967
 30
0.0
 10
-905.5248517214783
 20
-743.2414254129671
 30
0.0
 10
-905.7330220214783
 20
-743.0658825129671
 30
0.0
 10
-905.7330220214783
 20
-743.0658825129671
 30
0.0
 10
-905.7330220214783
 20
-743.0658825129671
 30
0.0
 10
-905.8448701214784
 20
-742.9716507129671
 30
0.0
 10
-905.8448701214784
 20
-742.9716507129671
 30
0.0
 10
-905.8448701214784
 20
-742.9716507129671
 30
0.0
 10
-905.9944312214783
 20
-742.8456066129671
 30
0.0
 10
-906.0867559214782
 20
-742.6642917129671
 30
0.0
 10
-906.1007686214782
 20
-742.4691747129672
 30
0.0
 10
-906.1007686214782
 20
-742.4691747129672
 30
0.0
 10
-906.1007686214782
 20
-742.4691747129672
 30
0.0
 10
-906.1112284214784
 20
-742.3233459129671
 30
0.0
 10
-906.1112284214784
 20
-742.3233459129671
 30
0.0
 10
-906.1112284214784
 20
-742.3233459129671
 30
0.0
 10
-906.1307752214784
 20
-742.0517694129671
 30
0.0
 10
-906.3008347214784
 20
-741.8140137129671
 30
0.0
 10
-906.5515189214783
 20
-741.7076490129671
 30
0.0
 10
-906.5515189214783
 20
-741.7076490129671
 30
0.0
 10
-906.5515189214783
 20
-741.7076490129671
 30
0.0
 10
-906.6860611214783
 20
-741.6505725129671
 30
0.0
 10
-906.6860611214783
 20
-741.6505725129671
 30
0.0
 10
-906.6860611214783
 20
-741.6505725129671
 30
0.0
 10
-906.8661592214784
 20
-741.5741910129671
 30
0.0
 10
-907.0078813214784
 20
-741.4282335129671
 30
0.0
 10
-907.0787287214782
 20
-741.2457759129671
 30
0.0
 10
-907.0787287214782
 20
-741.2457759129671
 30
0.0
 10
-907.0787287214782
 20
-741.2457759129671
 30
0.0
 10
-907.1318311214783
 20
-741.1094592129671
 30
0.0
 10
-907.1318311214783
 20
-741.1094592129671
 30
0.0
 10
-907.1318311214783
 20
-741.1094592129671
 30
0.0
 10
-907.2304894214784
 20
-740.8557291129672
 30
0.0
 10
-907.4629996214783
 20
-740.6786769129671
 30
0.0
 10
-907.7338897214783
 20
-740.6510259129671
 30
0.0
 10
-907.7338897214783
 20
-740.6510259129671
 30
0.0
 10
-907.7338897214783
 20
-740.6510259129671
 30
0.0
 10
-907.8793207214784
 20
-740.636010912967
 30
0.0
 10
-907.8793207214784
 20
-740.636010912967
 30
0.0
 10
-907.8793207214784
 20
-740.636010912967
 30
0.0
 10
-908.0740126214783
 20
-740.6161989129671
 30
0.0
 10
-908.2523089214785
 20
-740.5183908129671
 30
0.0
 10
-908.3739304214784
 20
-740.3649882129671
 30
0.0
 10
-908.3739304214784
 20
-740.3649882129671
 30
0.0
 10
-908.3739304214784
 20
-740.3649882129671
 30
0.0
 10
-908.4647458214783
 20
-740.2504920129671
 30
0.0
 10
-908.4647458214783
 20
-740.2504920129671
 30
0.0
 10
-908.4647458214783
 20
-740.2504920129671
 30
0.0
 10
-908.6338264214784
 20
-740.0369709129671
 30
0.0
 10
-908.9081836214782
 20
-739.936405512967
 30
0.0
 10
-909.1752361214783
 20
-739.9896405129672
 30
0.0
 10
-909.1752361214783
 20
-739.9896405129672
 30
0.0
 10
-909.1752361214783
 20
-739.9896405129672
 30
0.0
 10
-909.3185962214784
 20
-740.0184069129672
 30
0.0
 10
-909.3185962214784
 20
-740.0184069129672
 30
0.0
 10
-909.3185962214784
 20
-740.0184069129672
 30
0.0
 10
-909.5105074214783
 20
-740.0567829129671
 30
0.0
 10
-909.7097311214783
 20
-740.0159148129671
 30
0.0
 10
-909.8711287214783
 20
-739.9051821129671
 30
0.0
 10
-909.8711287214783
 20
-739.9051821129671
 30
0.0
 10
-909.8711287214783
 20
-739.9051821129671
 30
0.0
 10
-909.9916348214783
 20
-739.8224943129671
 30
0.0
 10
-909.9916348214783
 20
-739.8224943129671
 30
0.0
 10
-909.9916348214783
 20
-739.8224943129671
 30
0.0
 10
-910.2161773214785
 20
-739.6684053129671
 30
0.0
 10
-910.5079909214783
 20
-739.652992512967
 30
0.0
 10
-910.7473885214783
 20
-739.7827143129672
 30
0.0
 10
-910.7473885214783
 20
-739.7827143129672
 30
0.0
 10
-910.7473885214783
 20
-739.7827143129672
 30
0.0
 10
-910.8760261214783
 20
-739.8523449129672
 30
0.0
 10
-910.8760261214783
 20
-739.8523449129672
 30
0.0
 10
-910.8760261214783
 20
-739.8523449129672
 30
0.0
 10
-911.0480200214784
 20
-739.9456251129671
 30
0.0
 10
-911.2505236214783
 20
-739.9653045129671
 30
0.0
 10
-911.4373765214784
 20
-739.9070892129671
 30
0.0
 10
-911.4373765214784
 20
-739.9070892129671
 30
0.0
 10
-911.4373765214784
 20
-739.9070892129671
 30
0.0
 10
-911.5768756214784
 20
-739.8634950129672
 30
0.0
 10
-911.5768756214784
 20
-739.8634950129672
 30
0.0
 10
-911.5768756214784
 20
-739.8634950129672
 30
0.0
 10
-911.8367716214784
 20
-739.7824491129671
 30
0.0
 10
-912.1201885214784
 20
-739.8538542129671
 30
0.0
 10
-912.3108790214784
 20
-740.0482809129671
 30
0.0
 10
-912.3108790214784
 20
-740.0482809129671
 30
0.0
 10
-912.3108790214784
 20
-740.0482809129671
 30
0.0
 10
-912.4131136214783
 20
-740.152816512967
 30
0.0
 10
-912.4131136214783
 20
-740.152816512967
 30
0.0
 10
-912.4131136214783
 20
-740.152816512967
 30
0.0
 10
-912.5501479214783
 20
-740.2926042129671
 30
0.0
 10
-912.7376872214783
 20
-740.3710293129671
 30
0.0
 10
-912.9334672214783
 20
-740.3704989129671
 30
0.0
 10
-912.9334672214783
 20
-740.3704989129671
 30
0.0
 10
-912.9334672214783
 20
-740.3704989129671
 30
0.0
 10
-913.0795846214784
 20
-740.3700738129671
 30
0.0
 10
-913.0795846214784
 20
-740.3700738129671
 30
0.0
 10
-913.0795846214784
 20
-740.3700738129671
 30
0.0
 10
-913.3518514214783
 20
-740.3692548129671
 30
0.0
 10
-913.6017088214783
 20
-740.5210116129672
 30
0.0
 10
-913.7264815214784
 20
-740.7630066129671
 30
0.0
 10
-913.7264815214784
 20
-740.7630066129671
 30
0.0
 10
-913.7264815214784
 20
-740.7630066129671
 30
0.0
 10
-913.7934874214783
 20
-740.8928883129671
 30
0.0
 10
-913.7934874214783
 20
-740.8928883129671
 30
0.0
 10
-913.7934874214783
 20
-740.8928883129671
 30
0.0
 10
-913.8830626214783
 20
-741.066789312967
 30
0.0
 10
-914.0392186214784
 20
-741.1972287129671
 30
0.0
 10
-914.2264654214782
 20
-741.2543325129671
 30
0.0
 10
-914.2264654214782
 20
-741.2543325129671
 30
0.0
 10
-914.2264654214782
 20
-741.2543325129671
 30
0.0
 10
-914.3662531214785
 20
-741.2969712129672
 30
0.0
 10
-914.3662531214785
 20
-741.2969712129672
 30
0.0
 10
-914.3662531214785
 20
-741.2969712129672
 30
0.0
 10
-914.6266834214783
 20
-741.3763479129671
 30
0.0
 10
-914.8206850214783
 20
-741.5951145129671
 30
0.0
 10
-914.8685692214783
 20
-741.8631147129671
 30
0.0
 10
-914.8685692214783
 20
-741.8631147129671
 30
0.0
 10
-914.8685692214783
 20
-741.8631147129671
 30
0.0
 10
-914.8942858214782
 20
-742.0070364129672
 30
0.0
 10
-914.8942858214782
 20
-742.0070364129672
 30
0.0
 10
-914.8942858214782
 20
-742.0070364129672
 30
0.0
 10
-914.9286916214784
 20
-742.1996613129671
 30
0.0
 10
-915.0394516214785
 20
-742.3702512129671
 30
0.0
 10
-915.2015122214784
 20
-742.479927012967
 30
0.0
 10
-915.2015122214784
 20
-742.479927012967
 30
0.0
 10
-915.2015122214784
 20
-742.479927012967
 30
0.0
 10
-915.3226033214783
 20
-742.5619245129671
 30
0.0
 10
-915.3226033214783
 20
-742.5619245129671
 30
0.0
 10
-915.3226033214783
 20
-742.5619245129671
 30
0.0
 10
-915.5479648214782
 20
-742.7146368129671
 30
0.0
 10
-915.6688960214784
 20
-742.9807065129671
 30
0.0
 10
-915.6356056214784
 20
-743.2509336129672
 30
0.0
 10
-915.6356056214784
 20
-743.2509336129672
 30
0.0
 10
-915.6356056214784
 20
-743.2509336129672
 30
0.0
 10
-915.6178333214782
 20
-743.3960721129671
 30
0.0
 10
-915.6178333214782
 20
-743.3960721129671
 30
0.0
 10
-915.6178333214782
 20
-743.3960721129671
 30
0.0
 10
-915.5938912214782
 20
-743.5903662129671
 30
0.0
 10
-915.6494818214783
 20
-743.7859863129671
 30
0.0
 10
-915.7719496214783
 20
-743.9385660129671
 30
0.0
 10
-915.7719496214783
 20
-743.9385660129671
 30
0.0
 10
-915.7719496214783
 20
-743.9385660129671
 30
0.0
 10
-915.8634280214783
 20
-744.0526371129671
 30
0.0
 10
-915.8634280214783
 20
-744.0526371129671
 30
0.0
 10
-915.8634280214783
 20
-744.0526371129671
 30
0.0
 10
-916.0338853214783
 20
-744.2650740129671
 30
0.0
 10
-916.0709119214784
 20
-744.5549532129671
 30
0.0
 10
-915.9595942214783
 20
-744.8032779129671
 30
0.0
 10
-915.9595942214783
 20
-744.8032779129671
 30
0.0
 10
-915.9595942214783
 20
-744.8032779129671
 30
0.0
 10
-915.8997682214783
 20
-744.9367359129671
 30
0.0
 10
-915.8997682214783
 20
-744.9367359129671
 30
0.0
 10
-915.8997682214783
 20
-744.9367359129671
 30
0.0
 10
-915.8195413214784
 20
-745.1153247129671
 30
0.0
 10
-915.8151460214783
 20
-745.3186746129671
 30
0.0
 10
-915.8871049214782
 20
-745.5005511129671
 30
0.0
 10
-915.8871049214782
 20
-745.5005511129671
 30
0.0
 10
-915.8871049214782
 20
-745.5005511129671
 30
0.0
 10
-915.9410302214784
 20
-745.636497312967
 30
0.0
 10
-915.9410302214784
 20
-745.636497312967
 30
0.0
 10
-915.9410302214784
 20
-745.636497312967
 30
0.0
 10
-916.0411978214783
 20
-745.8896424129672
 30
0.0
 10
-915.9912466214784
 20
-746.1776145129671
 30
0.0
 10
-915.8115697214784
 20
-746.3821851129671
 30
0.0
 10
-915.8115697214784
 20
-746.3821851129671
 30
0.0
 10
-915.8115697214784
 20
-746.3821851129671
 30
0.0
 10
-915.7149784214784
 20
-746.4919896129671
 30
0.0
 10
-915.7149784214784
 20
-746.4919896129671
 30
0.0
 10
-915.7149784214784
 20
-746.4919896129671
 30
0.0
 10
-915.5857870214784
 20
-746.6390625129671
 30
0.0
 10
-915.5215345214783
 20
-746.8320852129672
 30
0.0
 10
-915.5368147214783
 20
-747.0270423129671
 30
0.0
 10
-915.5368147214783
 20
-747.0270423129671
 30
0.0
 10
-915.5368147214783
 20
-747.0270423129671
 30
0.0
 10
-915.5482300214783
 20
-747.1728945129671
 30
0.0
 10
-915.5482300214783
 20
-747.1728945129671
 30
0.0
 10
-915.5482300214783
 20
-747.1728945129671
 30
0.0
 10
-915.5694187214782
 20
-747.4443423129671
 30
0.0
 10
-915.4367797214783
 20
-747.7047960129671
 30
0.0
 10
-915.2046907214783
 20
-747.8473098129671
 30
0.0
 10
-915.2046907214783
 20
-747.8473098129671
 30
0.0
 10
-915.2046907214783
 20
-747.8473098129671
 30
0.0
 10
-915.0800272214784
 20
-747.9238278129671
 30
0.0
 10
-915.0800272214784
 20
-747.9238278129671
 30
0.0
 10
-915.0800272214784
 20
-747.9238278129671
 30
0.0
 10
-914.9132788214783
 20
-748.0261911129671
 30
0.0
 10
-914.7951010214782
 20
-748.1916954129672
 30
0.0
 10
-914.7520372214783
 20
-748.382522412967
 30
0.0
 10
-914.7520372214783
 20
-748.382522412967
 30
0.0
 10
-914.7520372214783
 20
-748.382522412967
 30
0.0
 10
-914.7199909214783
 20
-748.5251961129671
 30
0.0
 10
-914.7199909214783
 20
-748.5251961129671
 30
0.0
 10
-914.7199909214783
 20
-748.5251961129671
 30
0.0
 10
-914.6602663214784
 20
-748.7908680129671
 30
0.0
 10
-914.4566473214783
 20
-749.0006841129671
 30
0.0
 10
-914.1928825214783
 20
-749.0683803129671
 30
0.0
  0
SPLINE
  5
85
330
1F
100
AcDbEntity
  8
Layer 1
 62
     7
100
AcDbSpline
210
0.0
220
0.0
230
1.0
 70
     9
 71
     3
 72
   188
 73
   184
 74
     0
 42
0.0000000001
 43
0.0000000001
 40
0.0
 40
0.0
 40
0.0
 40
0.0
 40
0.0212765957446809
 40
0.0212765957446809
 40
0.0212765957446809
 40
0.0319148936170213
 40
0.0425531914893617
 40
0.0425531914893617
 40
0.0425531914893617
 40
0.0531914893617021
 40
0.0638297872340425
 40
0.0638297872340425
 40
0.0638297872340425
 40
0.074468085106383
 40
0.0851063829787234
 40
0.0851063829787234
 40
0.0851063829787234
 40
0.0957446808510639
 40
0.1063829787234043
 40
0.1063829787234043
 40
0.1063829787234043
 40
0.1170212765957447
 40
0.1276595744680851
 40
0.1276595744680851
 40
0.1276595744680851
 40
0.1382978723404255
 40
0.148936170212766
 40
0.148936170212766
 40
0.148936170212766
 40
0.1595744680851064
 40
0.1702127659574468
 40
0.1702127659574468
 40
0.1702127659574468
 40
0.1808510638297872
 40
0.1914893617021277
 40
0.1914893617021277
 40
0.1914893617021277
 40
0.2021276595744681
 40
0.2127659574468085
 40
0.2127659574468085
 40
0.2127659574468085
 40
0.223404255319149
 40
0.2340425531914894
 40
0.2340425531914894
 40
0.2340425531914894
 40
0.2446808510638298
 40
0.2553191489361702
 40
0.2553191489361702
 40
0.2553191489361702
 40
0.2659574468085106
 40
0.2765957446808511
 40
0.2765957446808511
 40
0.2765957446808511
 40
0.2872340425531915
 40
0.2978723404255319
 40
0.2978723404255319
 40
0.2978723404255319
 40
0.3085106382978723
 40
0.3191489361702128
 40
0.3191489361702128
 40
0.3191489361702128
 40
0.3297872340425532
 40
0.3404255319148936
 40
0.3404255319148936
 40
0.3404255319148936
 40
0.351063829787234
 40
0.3617021276595745
 40
0.3617021276595745
 40
0.3617021276595745
 40
0.3723404255319149
 40
0.3829787234042553
 40
0.3829787234042553
 40
0.3829787234042553
 40
0.3936170212765957
 40
0.4042553191489361
 40
0.4042553191489361
 40
0.4042553191489361
 40
0.4148936170212766
 40
0.4255319148936171
 40
0.4255319148936171
 40
0.4255319148936171
 40
0.4361702127659576
 40
0.446808510638298
 40
0.446808510638298
 40
0.446808510638298
 40
0.4574468085106383
 40
0.4680851063829787
 40
0.4680851063829787
 40
0.4680851063829787
 40
0.4787234042553191
 40
0.4893617021276598
 40
0.4893617021276598
 40
0.4893617021276598
 40
0.5
 40
0.5106382978723404
 40
0.5106382978723404
 40
0.5106382978723404
 40
0.5212765957446808
 40
0.5319148936170213
 40
0.5319148936170213
 40
0.5319148936170213
 40
0.5425531914893618
 40
0.5531914893617022
 40
0.5531914893617022
 40
0.5531914893617022
 40
0.5638297872340427
 40
0.5744680851063829
 40
0.5744680851063829
 40
0.5744680851063829
 40
0.5851063829787233
 40
0.5957446808510638
 40
0.5957446808510638
 40
0.5957446808510638
 40
0.6063829787234045
 40
0.6170212765957447
 40
0.6170212765957447
 40
0.6170212765957447
 40
0.6276595744680851
 40
0.6382978723404256
 40
0.6382978723404256
 40
0.6382978723404256
 40
0.6489361702127661
 40
0.6595744680851065
 40
0.6595744680851065
 40
0.6595744680851065
 40
0.670212765957447
 40
0.6808510638297874
 40
0.6808510638297874
 40
0.6808510638297874
 40
0.6914893617021276
 40
0.7021276595744681
 40
0.7021276595744681
 40
0.7021276595744681
 40
0.7127659574468086
 40
0.7234042553191493
 40
0.7234042553191493
 40
0.7234042553191493
 40
0.7340425531914894
 40
0.7446808510638298
 40
0.7446808510638298
 40
0.7446808510638298
 40
0.7553191489361703
 40
0.7659574468085106
 40
0.7659574468085106
 40
0.7659574468085106
 40
0.7765957446808513
 40
0.7872340425531915
 40
0.7872340425531915
 40
0.7872340425531915
 40
0.7978723404255321
 40
0.8085106382978722
 40
0.8085106382978722
 40
0.8085106382978722
 40
0.8191489361702124
 40
0.8297872340425531
 40
0.8297872340425531
 40
0.8297872340425531
 40
0.8404255319148937
 40
0.851063829787234
 40
0.851063829787234
 40
0.851063829787234
 40
0.8617021276595744
 40
0.8723404255319149
 40
0.8723404255319149
 40
0.8723404255319149
 40
0.8829787234042553
 40
0.8936170212765956
 40
0.8936170212765956
 40
0.8936170212765956
 40
0.9042553191489359
 40
0.9148936170212763
 40
0.9148936170212763
 40
0.9148936170212763
 40
0.925531914893617
 40
0.9361702127659576
 40
0.9361702127659576
 40
0.9361702127659576
 40
0.9468085106382979
 40
0.9574468085106383
 40
0.9574468085106383
 40
0.9574468085106383
 40
0.9787234042553192
 40
1.0
 40
1.0
 40
1.0
 40
1.0
 10
-907.6657957214784
 20
-745.1239827129671
 30
0.0
 10
-907.7707837214783
 20
-744.8994714129671
 30
0.0
 10
-907.9123459214784
 20
-744.7097325129671
 30
0.0
 10
-908.0906461214784
 20
-744.5550858129671
 30
0.0
 10
-908.0906461214784
 20
-744.5550858129671
 30
0.0
 10
-908.4319858214783
 20
-744.257207712967
 30
0.0
 10
-908.8408852214783
 20
-744.1084929129671
 30
0.0
 10
-909.3174847214784
 20
-744.1084929129671
 30
0.0
 10
-909.3174847214784
 20
-744.1084929129671
 30
0.0
 10
-909.5912608214783
 20
-744.1117767129671
 30
0.0
 10
-909.8465002214783
 20
-744.165039012967
 30
0.0
 10
-910.0828519214783
 20
-744.2680926129671
 30
0.0
 10
-910.0828519214783
 20
-744.2680926129671
 30
0.0
 10
-910.2884014214783
 20
-744.3569502129671
 30
0.0
 10
-910.4632813214783
 20
-744.4789929129671
 30
0.0
 10
-910.6132402214782
 20
-744.6280002129671
 30
0.0
 10
-910.6132402214782
 20
-744.6280002129671
 30
0.0
 10
-910.6894657214784
 20
-744.4952286129671
 30
0.0
 10
-910.7783506214783
 20
-744.3762318129671
 30
0.0
 10
-910.8827809214783
 20
-744.2738685129671
 30
0.0
 10
-910.8827809214783
 20
-744.2738685129671
 30
0.0
 10
-911.1860059214784
 20
-743.9761464129672
 30
0.0
 10
-911.5488268214782
 20
-743.8272756129671
 30
0.0
 10
-911.9716063214783
 20
-743.8272756129671
 30
0.0
 10
-911.9716063214783
 20
-743.8272756129671
 30
0.0
 10
-912.2145802214784
 20
-743.8305594129671
 30
0.0
 10
-912.4411858214783
 20
-743.8838217129671
 30
0.0
 10
-912.6508420214785
 20
-743.987007912967
 30
0.0
 10
-912.6508420214785
 20
-743.987007912967
 30
0.0
 10
-912.6836059214783
 20
-744.0028185129671
 30
0.0
 10
-912.7127662214784
 20
-744.0230517129671
 30
0.0
 10
-912.7438570214783
 20
-744.0407967129671
 30
0.0
 10
-912.7438570214783
 20
-744.0407967129671
 30
0.0
 10
-912.7438570214783
 20
-744.0407967129671
 30
0.0
 10
-912.7438570214783
 20
-743.4092892129671
 30
0.0
 10
-912.7438570214783
 20
-743.4092892129671
 30
0.0
 10
-912.7438570214783
 20
-743.4092892129671
 30
0.0
 10
-912.7438570214783
 20
-743.4092892129671
 30
0.0
 10
-911.0833774214784
 20
-743.4092892129671
 30
0.0
 10
-911.0833774214784
 20
-743.4092892129671
 30
0.0
 10
-911.0833774214784
 20
-743.4092892129671
 30
0.0
 10
-911.0833774214784
 20
-743.4092892129671
 30
0.0
 10
-911.0833774214784
 20
-743.0312154129672
 30
0.0
 10
-911.0833774214784
 20
-743.0312154129672
 30
0.0
 10
-911.0833774214784
 20
-743.0312154129672
 30
0.0
 10
-911.0833774214784
 20
-743.0312154129672
 30
0.0
 10
-913.1679118214783
 20
-743.0312154129672
 30
0.0
 10
-913.1679118214783
 20
-743.0312154129672
 30
0.0
 10
-913.1679118214783
 20
-743.0312154129672
 30
0.0
 10
-913.1679118214783
 20
-743.0312154129672
 30
0.0
 10
-913.1679118214783
 20
-744.3965976129671
 30
0.0
 10
-913.1679118214783
 20
-744.3965976129671
 30
0.0
 10
-913.1679118214783
 20
-744.3965976129671
 30
0.0
 10
-913.1723071214784
 20
-744.4019484129671
 30
0.0
 10
-913.1757235214784
 20
-744.4084107129671
 30
0.0
 10
-913.1800135214783
 20
-744.4136562129671
 30
0.0
 10
-913.1800135214783
 20
-744.4136562129671
 30
0.0
 10
-913.1800135214783
 20
-744.4136562129671
 30
0.0
 10
-912.8357605214784
 20
-744.5315649129671
 30
0.0
 10
-912.8357605214784
 20
-744.5315649129671
 30
0.0
 10
-912.8357605214784
 20
-744.5315649129671
 30
0.0
 10
-912.6004969214783
 20
-744.2907906129671
 30
0.0
 10
-912.3128134214784
 20
-744.1690404129671
 30
0.0
 10
-911.9716063214783
 20
-744.1690404129671
 30
0.0
 10
-911.9716063214783
 20
-744.1690404129671
 30
0.0
 10
-911.6154076214783
 20
-744.1724568129671
 30
0.0
 10
-911.3172682214782
 20
-744.3013830129671
 30
0.0
 10
-911.0774455214784
 20
-744.5559048129671
 30
0.0
 10
-911.0774455214784
 20
-744.5559048129671
 30
0.0
 10
-910.9797661214784
 20
-744.6593562129671
 30
0.0
 10
-910.9016101214784
 20
-744.7760520129671
 30
0.0
 10
-910.8419128214784
 20
-744.9051108129671
 30
0.0
 10
-910.8419128214784
 20
-744.9051108129671
 30
0.0
 10
-910.7596228214784
 20
-745.0827207129671
 30
0.0
 10
-910.7142268214785
 20
-745.2851190129671
 30
0.0
 10
-910.7038996214784
 20
-745.5111435129671
 30
0.0
 10
-910.7038996214784
 20
-745.5111435129671
 30
0.0
 10
-910.6591939214784
 20
-745.3160538129671
 30
0.0
 10
-910.5761083214783
 20
-745.1413338129671
 30
0.0
 10
-910.4541982214783
 20
-744.9871083129671
 30
0.0
 10
-910.4541982214783
 20
-744.9871083129671
 30
0.0
 10
-910.4130688214784
 20
-744.9349614129671
 30
0.0
 10
-910.3693147214784
 20
-744.8844525129672
 30
0.0
 10
-910.3193635214784
 20
-744.836993412967
 30
0.0
 10
-910.3193635214784
 20
-744.836993412967
 30
0.0
 10
-910.0492963214783
 20
-744.5791605129671
 30
0.0
 10
-909.7152379214783
 20
-744.4502577129672
 30
0.0
 10
-909.3174847214784
 20
-744.4502577129672
 30
0.0
 10
-909.3174847214784
 20
-744.4502577129672
 30
0.0
 10
-908.9160265214783
 20
-744.4535415129671
 30
0.0
 10
-908.5800337214783
 20
-744.5824716129672
 30
0.0
 10
-908.3099665214783
 20
-744.836993412967
 30
0.0
 10
-908.3099665214783
 20
-744.836993412967
 30
0.0
 10
-908.0265496214783
 20
-745.1032191129671
 30
0.0
 10
-907.8849601214782
 20
-745.4541996129671
 30
0.0
 10
-907.8849601214782
 20
-745.8900636129672
 30
0.0
 10
-907.8849601214782
 20
-745.8900636129672
 30
0.0
 10
-907.8849601214782
 20
-746.2959210129671
 30
0.0
 10
-908.0265496214783
 20
-746.6344020129671
 30
0.0
 10
-908.3099665214783
 20
-746.9055573129671
 30
0.0
 10
-908.3099665214783
 20
-746.9055573129671
 30
0.0
 10
-908.5782358214784
 20
-747.1633863129672
 30
0.0
 10
-908.9131366214783
 20
-747.2923164129671
 30
0.0
 10
-909.3147313214783
 20
-747.2923164129671
 30
0.0
 10
-909.3147313214783
 20
-747.2923164129671
 30
0.0
 10
-909.7161934214783
 20
-747.2923164129671
 30
0.0
 10
-910.0510708214782
 20
-747.1633863129672
 30
0.0
 10
-910.3193635214784
 20
-746.9055573129671
 30
0.0
 10
-910.3193635214784
 20
-746.9055573129671
 30
0.0
 10
-910.4379625214784
 20
-746.7921999129671
 30
0.0
 10
-910.5301585214784
 20
-746.6649390129671
 30
0.0
 10
-910.5990715214783
 20
-746.5257051129671
 30
0.0
 10
-910.5990715214783
 20
-746.5257051129671
 30
0.0
 10
-910.6809364214782
 20
-746.3601735129671
 30
0.0
 10
-910.7278417214784
 20
-746.1765030129671
 30
0.0
 10
-910.7398147214784
 20
-745.9745259129671
 30
0.0
 10
-910.7398147214784
 20
-745.9745259129671
 30
0.0
 10
-910.7857645214783
 20
-746.1832539129671
 30
0.0
 10
-910.8725824214783
 20
-746.370079512967
 30
0.0
 10
-911.0015125214784
 20
-746.5342344129672
 30
0.0
 10
-911.0015125214784
 20
-746.5342344129672
 30
0.0
 10
-911.0255872214784
 20
-746.5649040129672
 30
0.0
 10
-911.0503522214784
 20
-746.5951758129671
 30
0.0
 10
-911.0774455214784
 20
-746.6243361129671
 30
0.0
 10
-911.0774455214784
 20
-746.6243361129671
 30
0.0
 10
-911.3156263214783
 20
-746.8823016129671
 30
0.0
 10
-911.6127868214784
 20
-747.0112317129672
 30
0.0
 10
-911.9691454214784
 20
-747.0112317129672
 30
0.0
 10
-911.9691454214784
 20
-747.0112317129672
 30
0.0
 10
-912.3256054214783
 20
-747.0112317129672
 30
0.0
 10
-912.6227971214783
 20
-746.8823016129671
 30
0.0
 10
-912.8608180214783
 20
-746.6243361129671
 30
0.0
 10
-912.8608180214783
 20
-746.6243361129671
 30
0.0
 10
-913.0396720214784
 20
-746.4316059129671
 30
0.0
 10
-913.1535832214783
 20
-746.2007337129671
 30
0.0
 10
-913.2051763214784
 20
-745.9331313129671
 30
0.0
 10
-913.2051763214784
 20
-745.9331313129671
 30
0.0
 10
-913.2051763214784
 20
-745.9331313129671
 30
0.0
 10
-913.5530056214784
 20
-745.9109637129671
 30
0.0
 10
-913.5530056214784
 20
-745.9109637129671
 30
0.0
 10
-913.5530056214784
 20
-745.9109637129671
 30
0.0
 10
-913.5213532214784
 20
-746.1020793129671
 30
0.0
 10
-913.4641207214784
 20
-746.2863075129671
 30
0.0
 10
-913.3751032214783
 20
-746.4621429129671
 30
0.0
 10
-913.3751032214783
 20
-746.4621429129671
 30
0.0
 10
-913.2285607214784
 20
-746.7550407129671
 30
0.0
 10
-913.0237015214785
 20
-746.978760312967
 30
0.0
 10
-912.7607830214783
 20
-747.1334070129671
 30
0.0
 10
-912.7607830214783
 20
-747.1334070129671
 30
0.0
 10
-912.5143654214783
 20
-747.2797896129671
 30
0.0
 10
-912.2504953214784
 20
-747.3529926129671
 30
0.0
 10
-911.9691454214784
 20
-747.3529926129671
 30
0.0
 10
-911.9691454214784
 20
-747.3529926129671
 30
0.0
 10
-911.7310972214784
 20
-747.3529926129671
 30
0.0
 10
-911.5038286214783
 20
-747.2997342129671
 30
0.0
 10
-911.2873903214783
 20
-747.1932642129671
 30
0.0
 10
-911.2873903214783
 20
-747.1932642129671
 30
0.0
 10
-911.1118474214784
 20
-747.1071327129672
 30
0.0
 10
-910.9612021214783
 20
-746.9896179129671
 30
0.0
 10
-910.8304975214783
 20
-746.847076812967
 30
0.0
 10
-910.8304975214783
 20
-746.847076812967
 30
0.0
 10
-910.6717207214783
 20
-747.0880110129671
 30
0.0
 10
-910.4659060214784
 20
-747.2793645129671
 30
0.0
 10
-910.2066964214783
 20
-747.4146243129671
 30
0.0
 10
-910.2066964214783
 20
-747.4146243129671
 30
0.0
 10
-909.9290242214783
 20
-747.5610069129672
 30
0.0
 10
-909.6317311214784
 20
-747.6342138129671
 30
0.0
 10
-909.3147313214783
 20
-747.6342138129671
 30
0.0
 10
-909.3147313214783
 20
-747.6342138129671
 30
0.0
 10
-909.0464386214783
 20
-747.6342138129671
 30
0.0
 10
-908.7904075214783
 20
-747.5808189129671
 30
0.0
 10
-908.5464508214784
 20
-747.4744815129671
 30
0.0
 10
-908.5464508214784
 20
-747.4744815129671
 30
0.0
 10
-908.2368961214783
 20
-747.3397794129671
 30
0.0
 10
-907.9892578214783
 20
-747.1360005129671
 30
0.0
 10
-907.8036529214783
 20
-746.8631799129671
 30
0.0
 10
-907.8036529214783
 20
-746.8631799129671
 30
0.0
 10
-907.5990550214784
 20
-746.5603761129671
 30
0.0
 10
-907.4968477214783
 20
-746.2377330129672
 30
0.0
 10
-907.4968477214783
 20
-745.8950166129672
 30
0.0
 10
-907.4968477214783
 20
-745.8950166129672
 30
0.0
 10
-907.4968477214783
 20
-745.6205268129671
 30
0.0
 10
-907.5532339214785
 20
-745.3635402129671
 30
0.0
 10
-907.6657957214784
 20
-745.1239827129671
 30
0.0
  0
SPLINE
  5
94
330
1F
100
AcDbEntity
  8
Layer 1
 62
     7
100
AcDbSpline
210
0.0
220
0.0
230
1.0
 70
    11
 71
     3
 72
   268
 73
   264
 74
     0
 42
0.0000000001
 43
0.0000000001
 40
0.0
 40
0.0
 40
0.0
 40
0.0
 40
0.0149253731343284
 40
0.0149253731343284
 40
0.0149253731343284
 40
0.0223880597014926
 40
0.0298507462686567
 40
0.0298507462686567
 40
0.0298507462686567
 40
0.0373134328358209
 40
0.0447761194029851
 40
0.0447761194029851
 40
0.0447761194029851
 40
0.0522388059701493
 40
0.0597014925373134
 40
0.0597014925373134
 40
0.0597014925373134
 40
0.0671641791044776
 40
0.0746268656716418
 40
0.0746268656716418
 40
0.0746268656716418
 40
0.082089552238806
 40
0.0895522388059701
 40
0.0895522388059701
 40
0.0895522388059701
 40
0.0970149253731343
 40
0.1044776119402985
 40
0.1044776119402985
 40
0.1044776119402985
 40
0.1119402985074627
 40
0.1194029850746269
 40
0.1194029850746269
 40
0.1194029850746269
 40
0.1268656716417911
 40
0.1343283582089552
 40
0.1343283582089552
 40
0.1343283582089552
 40
0.1417910447761194
 40
0.1492537313432836
 40
0.1492537313432836
 40
0.1492537313432836
 40
0.1567164179104477
 40
0.1641791044776119
 40
0.1641791044776119
 40
0.1641791044776119
 40
0.1716417910447761
 40
0.1791044776119403
 40
0.1791044776119403
 40
0.1791044776119403
 40
0.1865671641791045
 40
0.1940298507462687
 40
0.1940298507462687
 40
0.1940298507462687
 40
0.2014925373134328
 40
0.208955223880597
 40
0.208955223880597
 40
0.208955223880597
 40
0.2164179104477612
 40
0.2238805970149254
 40
0.2238805970149254
 40
0.2238805970149254
 40
0.2313432835820896
 40
0.2388059701492537
 40
0.2388059701492537
 40
0.2388059701492537
 40
0.2462686567164179
 40
0.2537313432835821
 40
0.2537313432835821
 40
0.2537313432835821
 40
0.2611940298507462
 40
0.2686567164179104
 40
0.2686567164179104
 40
0.2686567164179104
 40
0.2761194029850746
 40
0.2835820895522388
 40
0.2835820895522388
 40
0.2835820895522388
 40
0.2910447761194029
 40
0.2985074626865671
 40
0.2985074626865671
 40
0.2985074626865671
 40
0.3059701492537313
 40
0.3134328358208955
 40
0.3134328358208955
 40
0.3134328358208955
 40
0.3208955223880597
 40
0.3283582089552239
 40
0.3283582089552239
 40
0.3283582089552239
 40
0.335820895522388
 40
0.3432835820895522
 40
0.3432835820895522
 40
0.3432835820895522
 40
0.3507462686567164
 40
0.3582089552238806
 40
0.3582089552238806
 40
0.3582089552238806
 40
0.3656716417910448
 40
0.373134328358209
 40
0.373134328358209
 40
0.373134328358209
 40
0.3805970149253731
 40
0.3880597014925373
 40
0.3880597014925373
 40
0.3880597014925373
 40
0.3955223880597015
 40
0.4029850746268659
 40
0.4029850746268659
 40
0.4029850746268659
 40
0.41044776119403
 40
0.417910447761194
 40
0.417910447761194
 40
0.417910447761194
 40
0.4253731343283583
 40
0.4328358208955226
 40
0.4328358208955226
 40
0.4328358208955226
 40
0.4402985074626866
 40
0.4477611940298508
 40
0.4477611940298508
 40
0.4477611940298508
 40
0.4552238805970151
 40
0.4626865671641793
 40
0.4626865671641793
 40
0.4626865671641793
 40
0.4701492537313433
 40
0.4776119402985075
 40
0.4776119402985075
 40
0.4776119402985075
 40
0.4850746268656718
 40
0.4925373134328358
 40
0.4925373134328358
 40
0.4925373134328358
 40
0.5
 40
0.5074626865671644
 40
0.5074626865671644
 40
0.5074626865671644
 40
0.5149253731343286
 40
0.5223880597014925
 40
0.5223880597014925
 40
0.5223880597014925
 40
0.5298507462686568
 40
0.5373134328358209
 40
0.5373134328358209
 40
0.5373134328358209
 40
0.5447761194029851
 40
0.5522388059701493
 40
0.5522388059701493
 40
0.5522388059701493
 40
0.5597014925373136
 40
0.5671641791044776
 40
0.5671641791044776
 40
0.5671641791044776
 40
0.5746268656716418
 40
0.582089552238806
 40
0.582089552238806
 40
0.582089552238806
 40
0.5895522388059702
 40
0.5970149253731343
 40
0.5970149253731343
 40
0.5970149253731343
 40
0.6044776119402985
 40
0.6119402985074628
 40
0.6119402985074628
 40
0.6119402985074628
 40
0.6194029850746269
 40
0.6268656716417911
 40
0.6268656716417911
 40
0.6268656716417911
 40
0.6343283582089552
 40
0.6417910447761194
 40
0.6417910447761194
 40
0.6417910447761194
 40
0.6492537313432836
 40
0.6567164179104478
 40
0.6567164179104478
 40
0.6567164179104478
 40
0.6641791044776121
 40
0.6716417910447762
 40
0.6716417910447762
 40
0.6716417910447762
 40
0.6791044776119404
 40
0.6865671641791045
 40
0.6865671641791045
 40
0.6865671641791045
 40
0.6940298507462687
 40
0.7014925373134329
 40
0.7014925373134329
 40
0.7014925373134329
 40
0.7089552238805971
 40
0.7164179104477612
 40
0.7164179104477612
 40
0.7164179104477612
 40
0.7238805970149254
 40
0.7313432835820896
 40
0.7313432835820896
 40
0.7313432835820896
 40
0.7388059701492537
 40
0.746268656716418
 40
0.746268656716418
 40
0.746268656716418
 40
0.7537313432835822
 40
0.7611940298507463
 40
0.7611940298507463
 40
0.7611940298507463
 40
0.7686567164179105
 40
0.7761194029850747
 40
0.7761194029850747
 40
0.7761194029850747
 40
0.7835820895522387
 40
0.791044776119403
 40
0.791044776119403
 40
0.791044776119403
 40
0.7985074626865673
 40
0.8059701492537312
 40
0.8059701492537312
 40
0.8059701492537312
 40
0.8134328358208955
 40
0.8208955223880597
 40
0.8208955223880597
 40
0.8208955223880597
 40
0.8283582089552238
 40
0.8358208955223879
 40
0.8358208955223879
 40
0.8358208955223879
 40
0.8432835820895521
 40
0.8507462686567164
 40
0.8507462686567164
 40
0.8507462686567164
 40
0.8582089552238805
 40
0.8656716417910445
 40
0.8656716417910445
 40
0.8656716417910445
 40
0.8731343283582088
 40
0.8805970149253731
 40
0.8805970149253731
 40
0.8805970149253731
 40
0.8880597014925372
 40
0.8955223880597015
 40
0.8955223880597015
 40
0.8955223880597015
 40
0.9029850746268655
 40
0.9104477611940298
 40
0.9104477611940298
 40
0.9104477611940298
 40
0.9179104477611939
 40
0.9253731343283584
 40
0.9253731343283584
 40
0.9253731343283584
 40
0.9328358208955224
 40
0.9402985074626863
 40
0.9402985074626863
 40
0.9402985074626863
 40
0.9477611940298508
 40
0.9552238805970148
 40
0.9552238805970148
 40
0.9552238805970148
 40
0.9626865671641787
 40
0.9701492537313431
 40
0.9701492537313431
 40
0.9701492537313431
 40
0.9850746268656715
 40
1.0
 40
1.0
 40
1.0
 40
1.0
 10
-914.5668535214783
 20
-744.3081105129671
 30
0.0
 10
-914.5668535214783
 20
-744.3081105129671
 30
0.0
 10
-914.5091959214784
 20
-744.2658930129671
 30
0.0
 10
-914.5091959214784
 20
-744.2658930129671
 30
0.0
 10
-914.5091959214784
 20
-744.2658930129671
 30
0.0
 10
-914.5091959214784
 20
-744.2658930129671
 30
0.0
 10
-914.4606214214784
 20
-744.318176412967
 30
0.0
 10
-914.4606214214784
 20
-744.318176412967
 30
0.0
 10
-914.4606214214784
 20
-744.318176412967
 30
0.0
 10
-914.4606214214784
 20
-744.318176412967
 30
0.0
 10
-914.3959711214783
 20
-744.2876394129671
 30
0.0
 10
-914.3959711214783
 20
-744.2876394129671
 30
0.0
 10
-914.3959711214783
 20
-744.2876394129671
 30
0.0
 10
-914.3959711214783
 20
-744.2876394129671
 30
0.0
 10
-914.3581216214784
 20
-744.3482883129671
 30
0.0
 10
-914.3581216214784
 20
-744.3482883129671
 30
0.0
 10
-914.3581216214784
 20
-744.3482883129671
 30
0.0
 10
-914.3581216214784
 20
-744.3482883129671
 30
0.0
 10
-914.2889161214784
 20
-744.3305433129672
 30
0.0
 10
-914.2889161214784
 20
-744.3305433129672
 30
0.0
 10
-914.2889161214784
 20
-744.3305433129672
 30
0.0
 10
-914.2889161214784
 20
-744.3305433129672
 30
0.0
 10
-914.2631995214783
 20
-744.3971280129671
 30
0.0
 10
-914.2631995214783
 20
-744.3971280129671
 30
0.0
 10
-914.2631995214783
 20
-744.3971280129671
 30
0.0
 10
-914.2631995214783
 20
-744.3971280129671
 30
0.0
 10
-914.1919309214783
 20
-744.3928653129671
 30
0.0
 10
-914.1919309214783
 20
-744.3928653129671
 30
0.0
 10
-914.1919309214783
 20
-744.3928653129671
 30
0.0
 10
-914.1919309214783
 20
-744.3928653129671
 30
0.0
 10
-914.1792715214783
 20
-744.4631823129671
 30
0.0
 10
-914.1792715214783
 20
-744.4631823129671
 30
0.0
 10
-914.1792715214783
 20
-744.4631823129671
 30
0.0
 10
-914.1792715214783
 20
-744.4631823129671
 30
0.0
 10
-914.1085528214784
 20
-744.4723980129671
 30
0.0
 10
-914.1085528214784
 20
-744.4723980129671
 30
0.0
 10
-914.1085528214784
 20
-744.4723980129671
 30
0.0
 10
-914.1085528214784
 20
-744.4723980129671
 30
0.0
 10
-914.1093757214784
 20
-744.5438031129671
 30
0.0
 10
-914.1093757214784
 20
-744.5438031129671
 30
0.0
 10
-914.1093757214784
 20
-744.5438031129671
 30
0.0
 10
-914.1093757214784
 20
-744.5438031129671
 30
0.0
 10
-914.0416795214784
 20
-744.5663685129671
 30
0.0
 10
-914.0416795214784
 20
-744.5663685129671
 30
0.0
 10
-914.0416795214784
 20
-744.5663685129671
 30
0.0
 10
-914.0416795214784
 20
-744.5663685129671
 30
0.0
 10
-914.0560081214784
 20
-744.6362604129671
 30
0.0
 10
-914.0560081214784
 20
-744.6362604129671
 30
0.0
 10
-914.0560081214784
 20
-744.6362604129671
 30
0.0
 10
-914.0560081214784
 20
-744.6362604129671
 30
0.0
 10
-913.9936627214783
 20
-744.6711966129671
 30
0.0
 10
-913.9936627214783
 20
-744.6711966129671
 30
0.0
 10
-913.9936627214783
 20
-744.6711966129671
 30
0.0
 10
-913.9936627214783
 20
-744.6711966129671
 30
0.0
 10
-914.0210485214783
 20
-744.7372509129671
 30
0.0
 10
-914.0210485214783
 20
-744.7372509129671
 30
0.0
 10
-914.0210485214783
 20
-744.7372509129671
 30
0.0
 10
-914.0210485214783
 20
-744.7372509129671
 30
0.0
 10
-913.9665694214784
 20
-744.7833333129671
 30
0.0
 10
-913.9665694214784
 20
-744.7833333129671
 30
0.0
 10
-913.9665694214784
 20
-744.7833333129671
 30
0.0
 10
-913.9665694214784
 20
-744.7833333129671
 30
0.0
 10
-914.0059243214784
 20
-744.8429253129671
 30
0.0
 10
-914.0059243214784
 20
-744.8429253129671
 30
0.0
 10
-914.0059243214784
 20
-744.8429253129671
 30
0.0
 10
-914.0059243214784
 20
-744.8429253129671
 30
0.0
 10
-913.9610587214784
 20
-744.898492512967
 30
0.0
 10
-913.9610587214784
 20
-744.898492512967
 30
0.0
 10
-913.9610587214784
 20
-744.898492512967
 30
0.0
 10
-913.9610587214784
 20
-744.898492512967
 30
0.0
 10
-914.0110099214783
 20
-744.9495279129671
 30
0.0
 10
-914.0110099214783
 20
-744.9495279129671
 30
0.0
 10
-914.0110099214783
 20
-744.9495279129671
 30
0.0
 10
-914.0110099214783
 20
-744.9495279129671
 30
0.0
 10
-913.9774270214783
 20
-745.0125636129671
 30
0.0
 10
-913.9774270214783
 20
-745.0125636129671
 30
0.0
 10
-913.9774270214783
 20
-745.0125636129671
 30
0.0
 10
-913.9774270214783
 20
-745.0125636129671
 30
0.0
 10
-914.0361961214784
 20
-745.0532679129671
 30
0.0
 10
-914.0361961214784
 20
-745.0532679129671
 30
0.0
 10
-914.0361961214784
 20
-745.0532679129671
 30
0.0
 10
-914.0361961214784
 20
-745.0532679129671
 30
0.0
 10
-914.0151400214783
 20
-745.1215218129671
 30
0.0
 10
-914.0151400214783
 20
-745.1215218129671
 30
0.0
 10
-914.0151400214783
 20
-745.1215218129671
 30
0.0
 10
-914.0151400214783
 20
-745.1215218129671
 30
0.0
 10
-914.0804806214784
 20
-745.1504169129671
 30
0.0
 10
-914.0804806214784
 20
-745.1504169129671
 30
0.0
 10
-914.0804806214784
 20
-745.1504169129671
 30
0.0
 10
-914.0804806214784
 20
-745.1504169129671
 30
0.0
 10
-914.0727742214783
 20
-745.2213969129672
 30
0.0
 10
-914.0727742214783
 20
-745.2213969129672
 30
0.0
 10
-914.0727742214783
 20
-745.2213969129672
 30
0.0
 10
-914.0727742214783
 20
-745.2213969129672
 30
0.0
 10
-914.1424009214784
 20
-745.2373674129671
 30
0.0
 10
-914.1424009214784
 20
-745.2373674129671
 30
0.0
 10
-914.1424009214784
 20
-745.2373674129671
 30
0.0
 10
-914.1424009214784
 20
-745.2373674129671
 30
0.0
 10
-914.1483094214784
 20
-745.3084800129671
 30
0.0
 10
-914.1483094214784
 20
-745.3084800129671
 30
0.0
 10
-914.1483094214784
 20
-745.3084800129671
 30
0.0
 10
-914.1483094214784
 20
-745.3084800129671
 30
0.0
 10
-914.2197106214783
 20
-745.3109682129671
 30
0.0
 10
-914.2197106214783
 20
-745.3109682129671
 30
0.0
 10
-914.2197106214783
 20
-745.3109682129671
 30
0.0
 10
-914.2197106214783
 20
-745.3109682129671
 30
0.0
 10
-914.2389922214784
 20
-745.3797525129671
 30
0.0
 10
-914.2389922214784
 20
-745.3797525129671
 30
0.0
 10
-914.2389922214784
 20
-745.3797525129671
 30
0.0
 10
-914.2389922214784
 20
-745.3797525129671
 30
0.0
 10
-914.3095783214784
 20
-745.3687584129672
 30
0.0
 10
-914.3095783214784
 20
-745.3687584129672
 30
0.0
 10
-914.3095783214784
 20
-745.3687584129672
 30
0.0
 10
-914.3095783214784
 20
-745.3687584129672
 30
0.0
 10
-914.3414920214784
 20
-745.432589712967
 30
0.0
 10
-914.3414920214784
 20
-745.432589712967
 30
0.0
 10
-914.3414920214784
 20
-745.432589712967
 30
0.0
 10
-914.3414920214784
 20
-745.432589712967
 30
0.0
 10
-914.4086305214782
 20
-745.4083824129671
 30
0.0
 10
-914.4086305214782
 20
-745.4083824129671
 30
0.0
 10
-914.4086305214782
 20
-745.4083824129671
 30
0.0
 10
-914.4086305214782
 20
-745.4083824129671
 30
0.0
 10
-914.4520921214784
 20
-745.4650611129672
 30
0.0
 10
-914.4520921214784
 20
-745.4650611129672
 30
0.0
 10
-914.4520921214784
 20
-745.4650611129672
 30
0.0
 10
-914.4520921214784
 20
-745.4650611129672
 30
0.0
 10
-914.5134586214783
 20
-745.4286156129671
 30
0.0
 10
-914.5134586214783
 20
-745.4286156129671
 30
0.0
 10
-914.5134586214783
 20
-745.4286156129671
 30
0.0
 10
-914.5134586214783
 20
-745.4286156129671
 30
0.0
 10
-914.5668535214783
 20
-745.4760786129671
 30
0.0
 10
-914.5668535214783
 20
-745.4760786129671
 30
0.0
 10
-914.5668535214783
 20
-745.4760786129671
 30
0.0
 10
-914.5668535214783
 20
-745.4760786129671
 30
0.0
 10
-914.6202211214783
 20
-745.4286156129671
 30
0.0
 10
-914.6202211214783
 20
-745.4286156129671
 30
0.0
 10
-914.6202211214783
 20
-745.4286156129671
 30
0.0
 10
-914.6202211214783
 20
-745.4286156129671
 30
0.0
 10
-914.6815837214782
 20
-745.4650611129672
 30
0.0
 10
-914.6815837214782
 20
-745.4650611129672
 30
0.0
 10
-914.6815837214782
 20
-745.4650611129672
 30
0.0
 10
-914.6815837214782
 20
-745.4650611129672
 30
0.0
 10
-914.7250726214783
 20
-745.4083824129671
 30
0.0
 10
-914.7250726214783
 20
-745.4083824129671
 30
0.0
 10
-914.7250726214783
 20
-745.4083824129671
 30
0.0
 10
-914.7250726214783
 20
-745.4083824129671
 30
0.0
 10
-914.7922150214784
 20
-745.432589712967
 30
0.0
 10
-914.7922150214784
 20
-745.432589712967
 30
0.0
 10
-914.7922150214784
 20
-745.432589712967
 30
0.0
 10
-914.7922150214784
 20
-745.432589712967
 30
0.0
 10
-914.8241287214784
 20
-745.3687584129672
 30
0.0
 10
-914.8241287214784
 20
-745.3687584129672
 30
0.0
 10
-914.8241287214784
 20
-745.3687584129672
 30
0.0
 10
-914.8241287214784
 20
-745.3687584129672
 30
0.0
 10
-914.8947109214784
 20
-745.3797525129671
 30
0.0
 10
-914.8947109214784
 20
-745.3797525129671
 30
0.0
 10
-914.8947109214784
 20
-745.3797525129671
 30
0.0
 10
-914.8947109214784
 20
-745.3797525129671
 30
0.0
 10
-914.9139652214783
 20
-745.3109682129671
 30
0.0
 10
-914.9139652214783
 20
-745.3109682129671
 30
0.0
 10
-914.9139652214783
 20
-745.3109682129671
 30
0.0
 10
-914.9139652214783
 20
-745.3109682129671
 30
0.0
 10
-914.9853703214784
 20
-745.3084800129671
 30
0.0
 10
-914.9853703214784
 20
-745.3084800129671
 30
0.0
 10
-914.9853703214784
 20
-745.3084800129671
 30
0.0
 10
-914.9853703214784
 20
-745.3084800129671
 30
0.0
 10
-914.9913022214784
 20
-745.2373674129671
 30
0.0
 10
-914.9913022214784
 20
-745.2373674129671
 30
0.0
 10
-914.9913022214784
 20
-745.2373674129671
 30
0.0
 10
-914.9913022214784
 20
-745.2373674129671
 30
0.0
 10
-915.0609055214784
 20
-745.2213969129672
 30
0.0
 10
-915.0609055214784
 20
-745.2213969129672
 30
0.0
 10
-915.0609055214784
 20
-745.2213969129672
 30
0.0
 10
-915.0609055214784
 20
-745.2213969129672
 30
0.0
 10
-915.0531991214784
 20
-745.1504169129671
 30
0.0
 10
-915.0531991214784
 20
-745.1504169129671
 30
0.0
 10
-915.0531991214784
 20
-745.1504169129671
 30
0.0
 10
-915.0531991214784
 20
-745.1504169129671
 30
0.0
 10
-915.1185631214783
 20
-745.1215218129671
 30
0.0
 10
-915.1185631214783
 20
-745.1215218129671
 30
0.0
 10
-915.1185631214783
 20
-745.1215218129671
 30
0.0
 10
-915.1185631214783
 20
-745.1215218129671
 30
0.0
 10
-915.0975070214784
 20
-745.0532679129671
 30
0.0
 10
-915.0975070214784
 20
-745.0532679129671
 30
0.0
 10
-915.0975070214784
 20
-745.0532679129671
 30
0.0
 10
-915.0975070214784
 20
-745.0532679129671
 30
0.0
 10
-915.1562527214784
 20
-745.0125636129671
 30
0.0
 10
-915.1562527214784
 20
-745.0125636129671
 30
0.0
 10
-915.1562527214784
 20
-745.0125636129671
 30
0.0
 10
-915.1562527214784
 20
-745.0125636129671
 30
0.0
 10
-915.1226932214783
 20
-744.9495279129671
 30
0.0
 10
-915.1226932214783
 20
-744.9495279129671
 30
0.0
 10
-915.1226932214783
 20
-744.9495279129671
 30
0.0
 10
-915.1226932214783
 20
-744.9495279129671
 30
0.0
 10
-915.1726171214784
 20
-744.898492512967
 30
0.0
 10
-915.1726171214784
 20
-744.898492512967
 30
0.0
 10
-915.1726171214784
 20
-744.898492512967
 30
0.0
 10
-915.1726171214784
 20
-744.898492512967
 30
0.0
 10
-915.1277788214784
 20
-744.8429253129671
 30
0.0
 10
-915.1277788214784
 20
-744.8429253129671
 30
0.0
 10
-915.1277788214784
 20
-744.8429253129671
 30
0.0
 10
-915.1277788214784
 20
-744.8429253129671
 30
0.0
 10
-915.1671103214784
 20
-744.7833333129671
 30
0.0
 10
-915.1671103214784
 20
-744.7833333129671
 30
0.0
 10
-915.1671103214784
 20
-744.7833333129671
 30
0.0
 10
-915.1671103214784
 20
-744.7833333129671
 30
0.0
 10
-915.1124986214783
 20
-744.7372509129671
 30
0.0
 10
-915.1124986214783
 20
-744.7372509129671
 30
0.0
 10
-915.1124986214783
 20
-744.7372509129671
 30
0.0
 10
-915.1124986214783
 20
-744.7372509129671
 30
0.0
 10
-915.1400170214783
 20
-744.6711966129671
 30
0.0
 10
-915.1400170214783
 20
-744.6711966129671
 30
0.0
 10
-915.1400170214783
 20
-744.6711966129671
 30
0.0
 10
-915.1400170214783
 20
-744.6711966129671
 30
0.0
 10
-915.0776950214783
 20
-744.6362604129671
 30
0.0
 10
-915.0776950214783
 20
-744.6362604129671
 30
0.0
 10
-915.0776950214783
 20
-744.6362604129671
 30
0.0
 10
-915.0776950214783
 20
-744.6362604129671
 30
0.0
 10
-915.0919963214784
 20
-744.5663685129671
 30
0.0
 10
-915.0919963214784
 20
-744.5663685129671
 30
0.0
 10
-915.0919963214784
 20
-744.5663685129671
 30
0.0
 10
-915.0919963214784
 20
-744.5663685129671
 30
0.0
 10
-915.0243040214784
 20
-744.5438031129671
 30
0.0
 10
-915.0243040214784
 20
-744.5438031129671
 30
0.0
 10
-915.0243040214784
 20
-744.5438031129671
 30
0.0
 10
-915.0243040214784
 20
-744.5438031129671
 30
0.0
 10
-915.0251230214784
 20
-744.4723980129671
 30
0.0
 10
-915.0251230214784
 20
-744.4723980129671
 30
0.0
 10
-915.0251230214784
 20
-744.4723980129671
 30
0.0
 10
-915.0251230214784
 20
-744.4723980129671
 30
0.0
 10
-914.9544355214784
 20
-744.4631823129671
 30
0.0
 10
-914.9544355214784
 20
-744.4631823129671
 30
0.0
 10
-914.9544355214784
 20
-744.4631823129671
 30
0.0
 10
-914.9544355214784
 20
-744.4631823129671
 30
0.0
 10
-914.9417488214783
 20
-744.3928653129671
 30
0.0
 10
-914.9417488214783
 20
-744.3928653129671
 30
0.0
 10
-914.9417488214783
 20
-744.3928653129671
 30
0.0
 10
-914.9417488214783
 20
-744.3928653129671
 30
0.0
 10
-914.8704763214784
 20
-744.3971280129671
 30
0.0
 10
-914.8704763214784
 20
-744.3971280129671
 30
0.0
 10
-914.8704763214784
 20
-744.3971280129671
 30
0.0
 10
-914.8704763214784
 20
-744.3971280129671
 30
0.0
 10
-914.8447597214783
 20
-744.3305433129672
 30
0.0
 10
-914.8447597214783
 20
-744.3305433129672
 30
0.0
 10
-914.8447597214783
 20
-744.3305433129672
 30
0.0
 10
-914.8447597214783
 20
-744.3305433129672
 30
0.0
 10
-914.7755542214783
 20
-744.3482883129671
 30
0.0
 10
-914.7755542214783
 20
-744.3482883129671
 30
0.0
 10
-914.7755542214783
 20
-744.3482883129671
 30
0.0
 10
-914.7755542214783
 20
-744.3482883129671
 30
0.0
 10
-914.7377359214784
 20
-744.2876394129671
 30
0.0
 10
-914.7377359214784
 20
-744.2876394129671
 30
0.0
 10
-914.7377359214784
 20
-744.2876394129671
 30
0.0
 10
-914.7377359214784
 20
-744.2876394129671
 30
0.0
 10
-914.6730583214784
 20
-744.318176412967
 30
0.0
 10
-914.6730583214784
 20
-744.318176412967
 30
0.0
 10
-914.6730583214784
 20
-744.318176412967
 30
0.0
 10
-914.6730583214784
 20
-744.318176412967
 30
0.0
 10
-914.6245111214783
 20
-744.2658930129671
 30
0.0
 10
-914.6245111214783
 20
-744.2658930129671
 30
0.0
 10
-914.6245111214783
 20
-744.2658930129671
 30
0.0
 10
-914.6245111214783
 20
-744.2658930129671
 30
0.0
 10
-914.5668535214783
 20
-744.3081105129671
 30
0.0
 10
-914.5668535214783
 20
-744.3081105129671
 30
0.0
  0
SPLINE
  5
95
330
1F
100
AcDbEntity
  8
Layer 1
 62
     7
100
AcDbSpline
210
0.0
220
0.0
230
1.0
 70
    11
 71
     3
 72
   268
 73
   264
 74
     0
 42
0.0000000001
 43
0.0000000001
 40
0.0
 40
0.0
 40
0.0
 40
0.0
 40
0.0149253731343284
 40
0.0149253731343284
 40
0.0149253731343284
 40
0.0223880597014926
 40
0.0298507462686567
 40
0.0298507462686567
 40
0.0298507462686567
 40
0.0373134328358209
 40
0.0447761194029851
 40
0.0447761194029851
 40
0.0447761194029851
 40
0.0522388059701493
 40
0.0597014925373134
 40
0.0597014925373134
 40
0.0597014925373134
 40
0.0671641791044776
 40
0.0746268656716418
 40
0.0746268656716418
 40
0.0746268656716418
 40
0.082089552238806
 40
0.0895522388059701
 40
0.0895522388059701
 40
0.0895522388059701
 40
0.0970149253731343
 40
0.1044776119402985
 40
0.1044776119402985
 40
0.1044776119402985
 40
0.1119402985074627
 40
0.1194029850746269
 40
0.1194029850746269
 40
0.1194029850746269
 40
0.1268656716417911
 40
0.1343283582089552
 40
0.1343283582089552
 40
0.1343283582089552
 40
0.1417910447761194
 40
0.1492537313432836
 40
0.1492537313432836
 40
0.1492537313432836
 40
0.1567164179104477
 40
0.1641791044776119
 40
0.1641791044776119
 40
0.1641791044776119
 40
0.1716417910447761
 40
0.1791044776119403
 40
0.1791044776119403
 40
0.1791044776119403
 40
0.1865671641791045
 40
0.1940298507462687
 40
0.1940298507462687
 40
0.1940298507462687
 40
0.2014925373134328
 40
0.208955223880597
 40
0.208955223880597
 40
0.208955223880597
 40
0.2164179104477612
 40
0.2238805970149254
 40
0.2238805970149254
 40
0.2238805970149254
 40
0.2313432835820896
 40
0.2388059701492537
 40
0.2388059701492537
 40
0.2388059701492537
 40
0.2462686567164179
 40
0.2537313432835821
 40
0.2537313432835821
 40
0.2537313432835821
 40
0.2611940298507462
 40
0.2686567164179104
 40
0.2686567164179104
 40
0.2686567164179104
 40
0.2761194029850746
 40
0.2835820895522388
 40
0.2835820895522388
 40
0.2835820895522388
 40
0.2910447761194029
 40
0.2985074626865671
 40
0.2985074626865671
 40
0.2985074626865671
 40
0.3059701492537313
 40
0.3134328358208955
 40
0.3134328358208955
 40
0.3134328358208955
 40
0.3208955223880597
 40
0.3283582089552239
 40
0.3283582089552239
 40
0.3283582089552239
 40
0.335820895522388
 40
0.3432835820895522
 40
0.3432835820895522
 40
0.3432835820895522
 40
0.3507462686567164
 40
0.3582089552238806
 40
0.3582089552238806
 40
0.3582089552238806
 40
0.3656716417910448
 40
0.373134328358209
 40
0.373134328358209
 40
0.373134328358209
 40
0.3805970149253731
 40
0.3880597014925373
 40
0.3880597014925373
 40
0.3880597014925373
 40
0.3955223880597015
 40
0.4029850746268659
 40
0.4029850746268659
 40
0.4029850746268659
 40
0.41044776119403
 40
0.417910447761194
 40
0.417910447761194
 40
0.417910447761194
 40
0.4253731343283583
 40
0.4328358208955226
 40
0.4328358208955226
 40
0.4328358208955226
 40
0.4402985074626866
 40
0.4477611940298508
 40
0.4477611940298508
 40
0.4477611940298508
 40
0.4552238805970151
 40
0.4626865671641793
 40
0.4626865671641793
 40
0.4626865671641793
 40
0.4701492537313433
 40
0.4776119402985075
 40
0.4776119402985075
 40
0.4776119402985075
 40
0.4850746268656718
 40
0.4925373134328358
 40
0.4925373134328358
 40
0.4925373134328358
 40
0.5
 40
0.5074626865671644
 40
0.5074626865671644
 40
0.5074626865671644
 40
0.5149253731343286
 40
0.5223880597014925
 40
0.5223880597014925
 40
0.5223880597014925
 40
0.5298507462686568
 40
0.5373134328358209
 40
0.5373134328358209
 40
0.5373134328358209
 40
0.5447761194029851
 40
0.5522388059701493
 40
0.5522388059701493
 40
0.5522388059701493
 40
0.5597014925373136
 40
0.5671641791044776
 40
0.5671641791044776
 40
0.5671641791044776
 40
0.5746268656716418
 40
0.582089552238806
 40
0.582089552238806
 40
0.582089552238806
 40
0.5895522388059702
 40
0.5970149253731343
 40
0.5970149253731343
 40
0.5970149253731343
 40
0.6044776119402985
 40
0.6119402985074628
 40
0.6119402985074628
 40
0.6119402985074628
 40
0.6194029850746269
 40
0.6268656716417911
 40
0.6268656716417911
 40
0.6268656716417911
 40
0.6343283582089552
 40
0.6417910447761194
 40
0.6417910447761194
 40
0.6417910447761194
 40
0.6492537313432836
 40
0.6567164179104478
 40
0.6567164179104478
 40
0.6567164179104478
 40
0.6641791044776121
 40
0.6716417910447762
 40
0.6716417910447762
 40
0.6716417910447762
 40
0.6791044776119404
 40
0.6865671641791045
 40
0.6865671641791045
 40
0.6865671641791045
 40
0.6940298507462687
 40
0.7014925373134329
 40
0.7014925373134329
 40
0.7014925373134329
 40
0.7089552238805971
 40
0.7164179104477612
 40
0.7164179104477612
 40
0.7164179104477612
 40
0.7238805970149254
 40
0.7313432835820896
 40
0.7313432835820896
 40
0.7313432835820896
 40
0.7388059701492537
 40
0.746268656716418
 40
0.746268656716418
 40
0.746268656716418
 40
0.7537313432835822
 40
0.7611940298507463
 40
0.7611940298507463
 40
0.7611940298507463
 40
0.7686567164179105
 40
0.7761194029850747
 40
0.7761194029850747
 40
0.7761194029850747
 40
0.7835820895522387
 40
0.791044776119403
 40
0.791044776119403
 40
0.791044776119403
 40
0.7985074626865673
 40
0.8059701492537312
 40
0.8059701492537312
 40
0.8059701492537312
 40
0.8134328358208955
 40
0.8208955223880597
 40
0.8208955223880597
 40
0.8208955223880597
 40
0.8283582089552238
 40
0.8358208955223879
 40
0.8358208955223879
 40
0.8358208955223879
 40
0.8432835820895521
 40
0.8507462686567164
 40
0.8507462686567164
 40
0.8507462686567164
 40
0.8582089552238805
 40
0.8656716417910445
 40
0.8656716417910445
 40
0.8656716417910445
 40
0.8731343283582088
 40
0.8805970149253731
 40
0.8805970149253731
 40
0.8805970149253731
 40
0.8880597014925372
 40
0.8955223880597015
 40
0.8955223880597015
 40
0.8955223880597015
 40
0.9029850746268655
 40
0.9104477611940298
 40
0.9104477611940298
 40
0.9104477611940298
 40
0.9179104477611939
 40
0.9253731343283584
 40
0.9253731343283584
 40
0.9253731343283584
 40
0.9328358208955224
 40
0.9402985074626863
 40
0.9402985074626863
 40
0.9402985074626863
 40
0.9477611940298508
 40
0.9552238805970148
 40
0.9552238805970148
 40
0.9552238805970148
 40
0.9626865671641787
 40
0.9701492537313431
 40
0.9701492537313431
 40
0.9701492537313431
 40
0.9850746268656715
 40
1.0
 40
1.0
 40
1.0
 40
1.0
 10
-906.5215084214784
 20
-744.3081105129671
 30
0.0
 10
-906.5215084214784
 20
-744.3081105129671
 30
0.0
 10
-906.4638508214782
 20
-744.2658930129671
 30
0.0
 10
-906.4638508214782
 20
-744.2658930129671
 30
0.0
 10
-906.4638508214782
 20
-744.2658930129671
 30
0.0
 10
-906.4638508214782
 20
-744.2658930129671
 30
0.0
 10
-906.4151710214783
 20
-744.318176412967
 30
0.0
 10
-906.4151710214783
 20
-744.318176412967
 30
0.0
 10
-906.4151710214783
 20
-744.318176412967
 30
0.0
 10
-906.4151710214783
 20
-744.318176412967
 30
0.0
 10
-906.3506299214783
 20
-744.2876394129671
 30
0.0
 10
-906.3506299214783
 20
-744.2876394129671
 30
0.0
 10
-906.3506299214783
 20
-744.2876394129671
 30
0.0
 10
-906.3506299214783
 20
-744.2876394129671
 30
0.0
 10
-906.3127804214783
 20
-744.3482883129671
 30
0.0
 10
-906.3127804214783
 20
-744.3482883129671
 30
0.0
 10
-906.3127804214783
 20
-744.3482883129671
 30
0.0
 10
-906.3127804214783
 20
-744.3482883129671
 30
0.0
 10
-906.2435749214783
 20
-744.3305433129672
 30
0.0
 10
-906.2435749214783
 20
-744.3305433129672
 30
0.0
 10
-906.2435749214783
 20
-744.3305433129672
 30
0.0
 10
-906.2435749214783
 20
-744.3305433129672
 30
0.0
 10
-906.2178583214784
 20
-744.3971280129671
 30
0.0
 10
-906.2178583214784
 20
-744.3971280129671
 30
0.0
 10
-906.2178583214784
 20
-744.3971280129671
 30
0.0
 10
-906.2178583214784
 20
-744.3971280129671
 30
0.0
 10
-906.1465858214784
 20
-744.3928653129671
 30
0.0
 10
-906.1465858214784
 20
-744.3928653129671
 30
0.0
 10
-906.1465858214784
 20
-744.3928653129671
 30
0.0
 10
-906.1465858214784
 20
-744.3928653129671
 30
0.0
 10
-906.1339264214783
 20
-744.4631823129671
 30
0.0
 10
-906.1339264214783
 20
-744.4631823129671
 30
0.0
 10
-906.1339264214783
 20
-744.4631823129671
 30
0.0
 10
-906.1339264214783
 20
-744.4631823129671
 30
0.0
 10
-906.0630790214784
 20
-744.4723980129671
 30
0.0
 10
-906.0630790214784
 20
-744.4723980129671
 30
0.0
 10
-906.0630790214784
 20
-744.4723980129671
 30
0.0
 10
-906.0630790214784
 20
-744.4723980129671
 30
0.0
 10
-906.0640618214783
 20
-744.5438031129671
 30
0.0
 10
-906.0640618214783
 20
-744.5438031129671
 30
0.0
 10
-906.0640618214783
 20
-744.5438031129671
 30
0.0
 10
-906.0640618214783
 20
-744.5438031129671
 30
0.0
 10
-905.9962057214784
 20
-744.5663685129671
 30
0.0
 10
-905.9962057214784
 20
-744.5663685129671
 30
0.0
 10
-905.9962057214784
 20
-744.5663685129671
 30
0.0
 10
-905.9962057214784
 20
-744.5663685129671
 30
0.0
 10
-906.0106669214784
 20
-744.6362604129671
 30
0.0
 10
-906.0106669214784
 20
-744.6362604129671
 30
0.0
 10
-906.0106669214784
 20
-744.6362604129671
 30
0.0
 10
-906.0106669214784
 20
-744.6362604129671
 30
0.0
 10
-905.9483215214784
 20
-744.6711966129671
 30
0.0
 10
-905.9483215214784
 20
-744.6711966129671
 30
0.0
 10
-905.9483215214784
 20
-744.6711966129671
 30
0.0
 10
-905.9483215214784
 20
-744.6711966129671
 30
0.0
 10
-905.9757073214782
 20
-744.7372509129671
 30
0.0
 10
-905.9757073214782
 20
-744.7372509129671
 30
0.0
 10
-905.9757073214782
 20
-744.7372509129671
 30
0.0
 10
-905.9757073214782
 20
-744.7372509129671
 30
0.0
 10
-905.9210917214782
 20
-744.7833333129671
 30
0.0
 10
-905.9210917214782
 20
-744.7833333129671
 30
0.0
 10
-905.9210917214782
 20
-744.7833333129671
 30
0.0
 10
-905.9210917214782
 20
-744.7833333129671
 30
0.0
 10
-905.9605831214783
 20
-744.8429253129671
 30
0.0
 10
-905.9605831214783
 20
-744.8429253129671
 30
0.0
 10
-905.9605831214783
 20
-744.8429253129671
 30
0.0
 10
-905.9605831214783
 20
-744.8429253129671
 30
0.0
 10
-905.9155849214784
 20
-744.898492512967
 30
0.0
 10
-905.9155849214784
 20
-744.898492512967
 30
0.0
 10
-905.9155849214784
 20
-744.898492512967
 30
0.0
 10
-905.9155849214784
 20
-744.898492512967
 30
0.0
 10
-905.9655361214783
 20
-744.9495279129671
 30
0.0
 10
-905.9655361214783
 20
-744.9495279129671
 30
0.0
 10
-905.9655361214783
 20
-744.9495279129671
 30
0.0
 10
-905.9655361214783
 20
-744.9495279129671
 30
0.0
 10
-905.9321131214783
 20
-745.0125636129671
 30
0.0
 10
-905.9321131214783
 20
-745.0125636129671
 30
0.0
 10
-905.9321131214783
 20
-745.0125636129671
 30
0.0
 10
-905.9321131214783
 20
-745.0125636129671
 30
0.0
 10
-905.9906950214783
 20
-745.0532679129671
 30
0.0
 10
-905.9906950214783
 20
-745.0532679129671
 30
0.0
 10
-905.9906950214783
 20
-745.0532679129671
 30
0.0
 10
-905.9906950214783
 20
-745.0532679129671
 30
0.0
 10
-905.9697988214782
 20
-745.1215218129671
 30
0.0
 10
-905.9697988214782
 20
-745.1215218129671
 30
0.0
 10
-905.9697988214782
 20
-745.1215218129671
 30
0.0
 10
-905.9697988214782
 20
-745.1215218129671
 30
0.0
 10
-906.0351667214783
 20
-745.1504169129671
 30
0.0
 10
-906.0351667214783
 20
-745.1504169129671
 30
0.0
 10
-906.0351667214783
 20
-745.1504169129671
 30
0.0
 10
-906.0351667214783
 20
-745.1504169129671
 30
0.0
 10
-906.0274564214784
 20
-745.2213969129672
 30
0.0
 10
-906.0274564214784
 20
-745.2213969129672
 30
0.0
 10
-906.0274564214784
 20
-745.2213969129672
 30
0.0
 10
-906.0274564214784
 20
-745.2213969129672
 30
0.0
 10
-906.0970597214783
 20
-745.2373674129671
 30
0.0
 10
-906.0970597214783
 20
-745.2373674129671
 30
0.0
 10
-906.0970597214783
 20
-745.2373674129671
 30
0.0
 10
-906.0970597214783
 20
-745.2373674129671
 30
0.0
 10
-906.1029682214783
 20
-745.3084800129671
 30
0.0
 10
-906.1029682214783
 20
-745.3084800129671
 30
0.0
 10
-906.1029682214783
 20
-745.3084800129671
 30
0.0
 10
-906.1029682214783
 20
-745.3084800129671
 30
0.0
 10
-906.1742641214783
 20
-745.3109682129671
 30
0.0
 10
-906.1742641214783
 20
-745.3109682129671
 30
0.0
 10
-906.1742641214783
 20
-745.3109682129671
 30
0.0
 10
-906.1742641214783
 20
-745.3109682129671
 30
0.0
 10
-906.1935184214783
 20
-745.3797525129671
 30
0.0
 10
-906.1935184214783
 20
-745.3797525129671
 30
0.0
 10
-906.1935184214783
 20
-745.3797525129671
 30
0.0
 10
-906.1935184214783
 20
-745.3797525129671
 30
0.0
 10
-906.2641006214784
 20
-745.3687584129672
 30
0.0
 10
-906.2641006214784
 20
-745.3687584129672
 30
0.0
 10
-906.2641006214784
 20
-745.3687584129672
 30
0.0
 10
-906.2641006214784
 20
-745.3687584129672
 30
0.0
 10
-906.2960143214784
 20
-745.432589712967
 30
0.0
 10
-906.2960143214784
 20
-745.432589712967
 30
0.0
 10
-906.2960143214784
 20
-745.432589712967
 30
0.0
 10
-906.2960143214784
 20
-745.432589712967
 30
0.0
 10
-906.3632893214784
 20
-745.4083824129671
 30
0.0
 10
-906.3632893214784
 20
-745.4083824129671
 30
0.0
 10
-906.3632893214784
 20
-745.4083824129671
 30
0.0
 10
-906.3632893214784
 20
-745.4083824129671
 30
0.0
 10
-906.4066183214784
 20
-745.4650611129672
 30
0.0
 10
-906.4066183214784
 20
-745.4650611129672
 30
0.0
 10
-906.4066183214784
 20
-745.4650611129672
 30
0.0
 10
-906.4066183214784
 20
-745.4650611129672
 30
0.0
 10
-906.4681174214783
 20
-745.4286156129671
 30
0.0
 10
-906.4681174214783
 20
-745.4286156129671
 30
0.0
 10
-906.4681174214783
 20
-745.4286156129671
 30
0.0
 10
-906.4681174214783
 20
-745.4286156129671
 30
0.0
 10
-906.5215084214784
 20
-745.4760786129671
 30
0.0
 10
-906.5215084214784
 20
-745.4760786129671
 30
0.0
 10
-906.5215084214784
 20
-745.4760786129671
 30
0.0
 10
-906.5215084214784
 20
-745.4760786129671
 30
0.0
 10
-906.5748760214784
 20
-745.4286156129671
 30
0.0
 10
-906.5748760214784
 20
-745.4286156129671
 30
0.0
 10
-906.5748760214784
 20
-745.4286156129671
 30
0.0
 10
-906.5748760214784
 20
-745.4286156129671
 30
0.0
 10
-906.6362425214784
 20
-745.4650611129672
 30
0.0
 10
-906.6362425214784
 20
-745.4650611129672
 30
0.0
 10
-906.6362425214784
 20
-745.4650611129672
 30
0.0
 10
-906.6362425214784
 20
-745.4650611129672
 30
0.0
 10
-906.6795988214783
 20
-745.4083824129671
 30
0.0
 10
-906.6795988214783
 20
-745.4083824129671
 30
0.0
 10
-906.6795988214783
 20
-745.4083824129671
 30
0.0
 10
-906.6795988214783
 20
-745.4083824129671
 30
0.0
 10
-906.7468699214783
 20
-745.432589712967
 30
0.0
 10
-906.7468699214783
 20
-745.432589712967
 30
0.0
 10
-906.7468699214783
 20
-745.432589712967
 30
0.0
 10
-906.7468699214783
 20
-745.432589712967
 30
0.0
 10
-906.7787875214785
 20
-745.3687584129672
 30
0.0
 10
-906.7787875214785
 20
-745.3687584129672
 30
0.0
 10
-906.7787875214785
 20
-745.3687584129672
 30
0.0
 10
-906.7787875214785
 20
-745.3687584129672
 30
0.0
 10
-906.8493697214783
 20
-745.3797525129671
 30
0.0
 10
-906.8493697214783
 20
-745.3797525129671
 30
0.0
 10
-906.8493697214783
 20
-745.3797525129671
 30
0.0
 10
-906.8493697214783
 20
-745.3797525129671
 30
0.0
 10
-906.8686240214784
 20
-745.3109682129671
 30
0.0
 10
-906.8686240214784
 20
-745.3109682129671
 30
0.0
 10
-906.8686240214784
 20
-745.3109682129671
 30
0.0
 10
-906.8686240214784
 20
-745.3109682129671
 30
0.0
 10
-906.9398965214784
 20
-745.3084800129671
 30
0.0
 10
-906.9398965214784
 20
-745.3084800129671
 30
0.0
 10
-906.9398965214784
 20
-745.3084800129671
 30
0.0
 10
-906.9398965214784
 20
-745.3084800129671
 30
0.0
 10
-906.9458284214784
 20
-745.2373674129671
 30
0.0
 10
-906.9458284214784
 20
-745.2373674129671
 30
0.0
 10
-906.9458284214784
 20
-745.2373674129671
 30
0.0
 10
-906.9458284214784
 20
-745.2373674129671
 30
0.0
 10
-907.0154317214784
 20
-745.2213969129672
 30
0.0
 10
-907.0154317214784
 20
-745.2213969129672
 30
0.0
 10
-907.0154317214784
 20
-745.2213969129672
 30
0.0
 10
-907.0154317214784
 20
-745.2213969129672
 30
0.0
 10
-907.0077214214784
 20
-745.1504169129671
 30
0.0
 10
-907.0077214214784
 20
-745.1504169129671
 30
0.0
 10
-907.0077214214784
 20
-745.1504169129671
 30
0.0
 10
-907.0077214214784
 20
-745.1504169129671
 30
0.0
 10
-907.0730893214784
 20
-745.1215218129671
 30
0.0
 10
-907.0730893214784
 20
-745.1215218129671
 30
0.0
 10
-907.0730893214784
 20
-745.1215218129671
 30
0.0
 10
-907.0730893214784
 20
-745.1215218129671
 30
0.0
 10
-907.0521658214785
 20
-745.0532679129671
 30
0.0
 10
-907.0521658214785
 20
-745.0532679129671
 30
0.0
 10
-907.0521658214785
 20
-745.0532679129671
 30
0.0
 10
-907.0521658214785
 20
-745.0532679129671
 30
0.0
 10
-907.1107750214784
 20
-745.0125636129671
 30
0.0
 10
-907.1107750214784
 20
-745.0125636129671
 30
0.0
 10
-907.1107750214784
 20
-745.0125636129671
 30
0.0
 10
-907.1107750214784
 20
-745.0125636129671
 30
0.0
 10
-907.0773520214784
 20
-744.9495279129671
 30
0.0
 10
-907.0773520214784
 20
-744.9495279129671
 30
0.0
 10
-907.0773520214784
 20
-744.9495279129671
 30
0.0
 10
-907.0773520214784
 20
-744.9495279129671
 30
0.0
 10
-907.1272759214783
 20
-744.898492512967
 30
0.0
 10
-907.1272759214783
 20
-744.898492512967
 30
0.0
 10
-907.1272759214783
 20
-744.898492512967
 30
0.0
 10
-907.1272759214783
 20
-744.898492512967
 30
0.0
 10
-907.0823050214784
 20
-744.8429253129671
 30
0.0
 10
-907.0823050214784
 20
-744.8429253129671
 30
0.0
 10
-907.0823050214784
 20
-744.8429253129671
 30
0.0
 10
-907.0823050214784
 20
-744.8429253129671
 30
0.0
 10
-907.1217925214783
 20
-744.7833333129671
 30
0.0
 10
-907.1217925214783
 20
-744.7833333129671
 30
0.0
 10
-907.1217925214783
 20
-744.7833333129671
 30
0.0
 10
-907.1217925214783
 20
-744.7833333129671
 30
0.0
 10
-907.0671808214783
 20
-744.7372509129671
 30
0.0
 10
-907.0671808214783
 20
-744.7372509129671
 30
0.0
 10
-907.0671808214783
 20
-744.7372509129671
 30
0.0
 10
-907.0671808214783
 20
-744.7372509129671
 30
0.0
 10
-907.0945393214783
 20
-744.6711966129671
 30
0.0
 10
-907.0945393214783
 20
-744.6711966129671
 30
0.0
 10
-907.0945393214783
 20
-744.6711966129671
 30
0.0
 10
-907.0945393214783
 20
-744.6711966129671
 30
0.0
 10
-907.0322212214783
 20
-744.6362604129671
 30
0.0
 10
-907.0322212214783
 20
-744.6362604129671
 30
0.0
 10
-907.0322212214783
 20
-744.6362604129671
 30
0.0
 10
-907.0322212214783
 20
-744.6362604129671
 30
0.0
 10
-907.0466551214783
 20
-744.5663685129671
 30
0.0
 10
-907.0466551214783
 20
-744.5663685129671
 30
0.0
 10
-907.0466551214783
 20
-744.5663685129671
 30
0.0
 10
-907.0466551214783
 20
-744.5663685129671
 30
0.0
 10
-906.9788263214784
 20
-744.5438031129671
 30
0.0
 10
-906.9788263214784
 20
-744.5438031129671
 30
0.0
 10
-906.9788263214784
 20
-744.5438031129671
 30
0.0
 10
-906.9788263214784
 20
-744.5438031129671
 30
0.0
 10
-906.9798091214783
 20
-744.4723980129671
 30
0.0
 10
-906.9798091214783
 20
-744.4723980129671
 30
0.0
 10
-906.9798091214783
 20
-744.4723980129671
 30
0.0
 10
-906.9798091214783
 20
-744.4723980129671
 30
0.0
 10
-906.9089344214784
 20
-744.4631823129671
 30
0.0
 10
-906.9089344214784
 20
-744.4631823129671
 30
0.0
 10
-906.9089344214784
 20
-744.4631823129671
 30
0.0
 10
-906.9089344214784
 20
-744.4631823129671
 30
0.0
 10
-906.8962984214783
 20
-744.3928653129671
 30
0.0
 10
-906.8962984214783
 20
-744.3928653129671
 30
0.0
 10
-906.8962984214783
 20
-744.3928653129671
 30
0.0
 10
-906.8962984214783
 20
-744.3928653129671
 30
0.0
 10
-906.8250298214783
 20
-744.3971280129671
 30
0.0
 10
-906.8250298214783
 20
-744.3971280129671
 30
0.0
 10
-906.8250298214783
 20
-744.3971280129671
 30
0.0
 10
-906.8250298214783
 20
-744.3971280129671
 30
0.0
 10
-906.7992859214783
 20
-744.3305433129672
 30
0.0
 10
-906.7992859214783
 20
-744.3305433129672
 30
0.0
 10
-906.7992859214783
 20
-744.3305433129672
 30
0.0
 10
-906.7992859214783
 20
-744.3305433129672
 30
0.0
 10
-906.7302130214782
 20
-744.3482883129671
 30
0.0
 10
-906.7302130214782
 20
-744.3482883129671
 30
0.0
 10
-906.7302130214782
 20
-744.3482883129671
 30
0.0
 10
-906.7302130214782
 20
-744.3482883129671
 30
0.0
 10
-906.6922582214784
 20
-744.2876394129671
 30
0.0
 10
-906.6922582214784
 20
-744.2876394129671
 30
0.0
 10
-906.6922582214784
 20
-744.2876394129671
 30
0.0
 10
-906.6922582214784
 20
-744.2876394129671
 30
0.0
 10
-906.6277171214784
 20
-744.318176412967
 30
0.0
 10
-906.6277171214784
 20
-744.318176412967
 30
0.0
 10
-906.6277171214784
 20
-744.318176412967
 30
0.0
 10
-906.6277171214784
 20
-744.318176412967
 30
0.0
 10
-906.5791699214784
 20
-744.2658930129671
 30
0.0
 10
-906.5791699214784
 20
-744.2658930129671
 30
0.0
 10
-906.5791699214784
 20
-744.2658930129671
 30
0.0
 10
-906.5791699214784
 20
-744.2658930129671
 30
0.0
 10
-906.5215084214784
 20
-744.3081105129671
 30
0.0
 10
-906.5215084214784
 20
-744.3081105129671
 30
0.0
  0
SPLINE
  5
96
330
1F
100
AcDbEntity
  8
Layer 1
 62
     7
100
AcDbSpline
210
0.0
220
0.0
230
1.0
 70
    11
 71
     3
 72
   108
 73
   104
 74
     0
 42
0.0000000001
 43
0.0000000001
 40
0.0
 40
0.0
 40
0.0
 40
0.0
 40
0.037037037037037
 40
0.037037037037037
 40
0.037037037037037
 40
0.0555555555555556
 40
0.0740740740740741
 40
0.0740740740740741
 40
0.0740740740740741
 40
0.0925925925925926
 40
0.1111111111111111
 40
0.1111111111111111
 40
0.1111111111111111
 40
0.1296296296296296
 40
0.1481481481481481
 40
0.1481481481481481
 40
0.1481481481481481
 40
0.1666666666666666
 40
0.1851851851851852
 40
0.1851851851851852
 40
0.1851851851851852
 40
0.2037037037037037
 40
0.2222222222222222
 40
0.2222222222222222
 40
0.2222222222222222
 40
0.2407407407407407
 40
0.2592592592592592
 40
0.2592592592592592
 40
0.2592592592592592
 40
0.2777777777777777
 40
0.2962962962962963
 40
0.2962962962962963
 40
0.2962962962962963
 40
0.3148148148148148
 40
0.3333333333333333
 40
0.3333333333333333
 40
0.3333333333333333
 40
0.3518518518518518
 40
0.3703703703703703
 40
0.3703703703703703
 40
0.3703703703703703
 40
0.3888888888888888
 40
0.4074074074074074
 40
0.4074074074074074
 40
0.4074074074074074
 40
0.4259259259259261
 40
0.4444444444444445
 40
0.4444444444444445
 40
0.4444444444444445
 40
0.462962962962963
 40
0.4814814814814815
 40
0.4814814814814815
 40
0.4814814814814815
 40
0.5
 40
0.5185185185185186
 40
0.5185185185185186
 40
0.5185185185185186
 40
0.5370370370370372
 40
0.5555555555555556
 40
0.5555555555555556
 40
0.5555555555555556
 40
0.5740740740740741
 40
0.5925925925925926
 40
0.5925925925925926
 40
0.5925925925925926
 40
0.6111111111111112
 40
0.6296296296296297
 40
0.6296296296296297
 40
0.6296296296296297
 40
0.6481481481481481
 40
0.6666666666666666
 40
0.6666666666666666
 40
0.6666666666666666
 40
0.6851851851851852
 40
0.7037037037037038
 40
0.7037037037037038
 40
0.7037037037037038
 40
0.7222222222222224
 40
0.7407407407407407
 40
0.7407407407407407
 40
0.7407407407407407
 40
0.7592592592592595
 40
0.7777777777777778
 40
0.7777777777777778
 40
0.7777777777777778
 40
0.7962962962962963
 40
0.8148148148148147
 40
0.8148148148148147
 40
0.8148148148148147
 40
0.8333333333333332
 40
0.8518518518518519
 40
0.8518518518518519
 40
0.8518518518518519
 40
0.8703703703703704
 40
0.8888888888888889
 40
0.8888888888888889
 40
0.8888888888888889
 40
0.9074074074074074
 40
0.9259259259259259
 40
0.9259259259259259
 40
0.9259259259259259
 40
0.9629629629629627
 40
1.0
 40
1.0
 40
1.0
 40
1.0
 10
-909.4061044214784
 20
-746.821914012967
 30
0.0
 10
-909.4061044214784
 20
-746.821914012967
 30
0.0
 10
-909.3099109214783
 20
-746.821914012967
 30
0.0
 10
-909.3099109214783
 20
-746.821914012967
 30
0.0
 10
-909.3099109214783
 20
-746.821914012967
 30
0.0
 10
-909.3099109214783
 20
-746.821914012967
 30
0.0
 10
-909.1404052214782
 20
-746.4172773129671
 30
0.0
 10
-909.1404052214782
 20
-746.4172773129671
 30
0.0
 10
-909.1404052214782
 20
-746.4172773129671
 30
0.0
 10
-909.1404052214782
 20
-746.4172773129671
 30
0.0
 10
-909.0369577214785
 20
-746.351090412967
 30
0.0
 10
-909.0369577214785
 20
-746.351090412967
 30
0.0
 10
-909.0369577214785
 20
-746.351090412967
 30
0.0
 10
-909.0369577214785
 20
-746.351090412967
 30
0.0
 10
-908.8097944214784
 20
-746.3687028129672
 30
0.0
 10
-908.8097944214784
 20
-746.3687028129672
 30
0.0
 10
-908.8097944214784
 20
-746.3687028129672
 30
0.0
 10
-908.8097944214784
 20
-746.3687028129672
 30
0.0
 10
-908.5390369214783
 20
-746.2325187129671
 30
0.0
 10
-908.5390369214783
 20
-746.2325187129671
 30
0.0
 10
-908.5390369214783
 20
-746.2325187129671
 30
0.0
 10
-908.5390369214783
 20
-746.2325187129671
 30
0.0
 10
-908.5093189214783
 20
-746.094926712967
 30
0.0
 10
-908.5093189214783
 20
-746.094926712967
 30
0.0
 10
-908.5093189214783
 20
-746.094926712967
 30
0.0
 10
-908.5093189214783
 20
-746.094926712967
 30
0.0
 10
-908.5046311214783
 20
-745.9406778129671
 30
0.0
 10
-908.5046311214783
 20
-745.9406778129671
 30
0.0
 10
-908.5046311214783
 20
-745.9406778129671
 30
0.0
 10
-908.5046311214783
 20
-745.9406778129671
 30
0.0
 10
-908.3758609214784
 20
-745.8218136129671
 30
0.0
 10
-908.3758609214784
 20
-745.8218136129671
 30
0.0
 10
-908.3758609214784
 20
-745.8218136129671
 30
0.0
 10
-908.3758609214784
 20
-745.8218136129671
 30
0.0
 10
-908.3041672214783
 20
-745.7878329129671
 30
0.0
 10
-908.3041672214783
 20
-745.7878329129671
 30
0.0
 10
-908.3041672214783
 20
-745.7878329129671
 30
0.0
 10
-908.3041672214783
 20
-745.7878329129671
 30
0.0
 10
-908.3056765214784
 20
-745.6305654129671
 30
0.0
 10
-908.3056765214784
 20
-745.6305654129671
 30
0.0
 10
-908.3056765214784
 20
-745.6305654129671
 30
0.0
 10
-908.3056765214784
 20
-745.6305654129671
 30
0.0
 10
-908.3877013214785
 20
-745.4738790129671
 30
0.0
 10
-908.3877013214785
 20
-745.4738790129671
 30
0.0
 10
-908.3877013214785
 20
-745.4738790129671
 30
0.0
 10
-908.3877013214785
 20
-745.4738790129671
 30
0.0
 10
-908.6335612214783
 20
-745.2174228129671
 30
0.0
 10
-908.6335612214783
 20
-745.2174228129671
 30
0.0
 10
-908.6335612214783
 20
-745.2174228129671
 30
0.0
 10
-908.6335612214783
 20
-745.2174228129671
 30
0.0
 10
-908.7899824214783
 20
-745.0729473129671
 30
0.0
 10
-908.7899824214783
 20
-745.0729473129671
 30
0.0
 10
-908.7899824214783
 20
-745.0729473129671
 30
0.0
 10
-908.7899824214783
 20
-745.0729473129671
 30
0.0
 10
-908.9028094214784
 20
-745.0494303129671
 30
0.0
 10
-908.9028094214784
 20
-745.0494303129671
 30
0.0
 10
-908.9028094214784
 20
-745.0494303129671
 30
0.0
 10
-908.9028094214784
 20
-745.0494303129671
 30
0.0
 10
-909.0494845214783
 20
-745.0700613129671
 30
0.0
 10
-909.0494845214783
 20
-745.0700613129671
 30
0.0
 10
-909.0494845214783
 20
-745.0700613129671
 30
0.0
 10
-909.0494845214783
 20
-745.0700613129671
 30
0.0
 10
-909.1478503214784
 20
-745.1574369129671
 30
0.0
 10
-909.1478503214784
 20
-745.1574369129671
 30
0.0
 10
-909.1478503214784
 20
-745.1574369129671
 30
0.0
 10
-909.1478503214784
 20
-745.1574369129671
 30
0.0
 10
-909.3264391214784
 20
-745.1696712129671
 30
0.0
 10
-909.3264391214784
 20
-745.1696712129671
 30
0.0
 10
-909.3264391214784
 20
-745.1696712129671
 30
0.0
 10
-909.3264391214784
 20
-745.1696712129671
 30
0.0
 10
-909.3838042214784
 20
-745.2837150129671
 30
0.0
 10
-909.3838042214784
 20
-745.2837150129671
 30
0.0
 10
-909.3838042214784
 20
-745.2837150129671
 30
0.0
 10
-909.3838042214784
 20
-745.2837150129671
 30
0.0
 10
-909.6120517214783
 20
-745.3409748129671
 30
0.0
 10
-909.6120517214783
 20
-745.3409748129671
 30
0.0
 10
-909.6120517214783
 20
-745.3409748129671
 30
0.0
 10
-909.6120517214783
 20
-745.3409748129671
 30
0.0
 10
-909.8803444214784
 20
-745.8022941129671
 30
0.0
 10
-909.8803444214784
 20
-745.8022941129671
 30
0.0
 10
-909.8803444214784
 20
-745.8022941129671
 30
0.0
 10
-909.8803444214784
 20
-745.8022941129671
 30
0.0
 10
-910.1112166214782
 20
-745.9551390129671
 30
0.0
 10
-910.1112166214782
 20
-745.9551390129671
 30
0.0
 10
-910.1112166214782
 20
-745.9551390129671
 30
0.0
 10
-910.1112166214782
 20
-745.9551390129671
 30
0.0
 10
-909.9315163214784
 20
-746.3476467129671
 30
0.0
 10
-909.9315163214784
 20
-746.3476467129671
 30
0.0
 10
-909.9315163214784
 20
-746.3476467129671
 30
0.0
 10
-909.9315163214784
 20
-746.3476467129671
 30
0.0
 10
-909.8708362214784
 20
-746.405171712967
 30
0.0
 10
-909.8708362214784
 20
-746.405171712967
 30
0.0
 10
-909.8708362214784
 20
-746.405171712967
 30
0.0
 10
-909.8708362214784
 20
-746.405171712967
 30
0.0
 10
-909.8316412214783
 20
-746.5302369129671
 30
0.0
 10
-909.8316412214783
 20
-746.5302369129671
 30
0.0
 10
-909.8316412214783
 20
-746.5302369129671
 30
0.0
 10
-909.8316412214783
 20
-746.5302369129671
 30
0.0
 10
-909.7457749214784
 20
-746.6712687129671
 30
0.0
 10
-909.7457749214784
 20
-746.6712687129671
 30
0.0
 10
-909.7457749214784
 20
-746.6712687129671
 30
0.0
 10
-909.7457749214784
 20
-746.6712687129671
 30
0.0
 10
-909.4061044214784
 20
-746.821914012967
 30
0.0
 10
-909.4061044214784
 20
-746.821914012967
 30
0.0
  0
SPLINE
  5
BD
330
1F
100
AcDbEntity
  8
Layer 1
 62
     7
100
AcDbSpline
210
0.0
220
0.0
230
1.0
 70
     9
 71
     3
 72
    36
 73
    32
 74
     0
 42
0.0000000001
 43
0.0000000001
 40
0.0
 40
0.0
 40
0.0
 40
0.0
 40
0.1111111111111111
 40
0.1111111111111111
 40
0.1111111111111111
 40
0.1666666666666666
 40
0.2222222222222222
 40
0.2222222222222222
 40
0.2222222222222222
 40
0.2777777777777778
 40
0.3333333333333333
 40
0.3333333333333333
 40
0.3333333333333333
 40
0.3888888888888888
 40
0.4444444444444445
 40
0.4444444444444445
 40
0.4444444444444445
 40
0.5
 40
0.5555555555555556
 40
0.5555555555555556
 40
0.5555555555555556
 40
0.6111111111111112
 40
0.6666666666666666
 40
0.6666666666666666
 40
0.6666666666666666
 40
0.7222222222222224
 40
0.7777777777777778
 40
0.7777777777777778
 40
0.7777777777777778
 40
0.8888888888888889
 40
1.0
 40
1.0
 40
1.0
 40
1.0
 10
-906.5444716214782
 20
-745.7582475129671
 30
0.0
 10
-906.6282709214783
 20
-745.7582475129671
 30
0.0
 10
-906.7078075214784
 20
-745.7432598129671
 30
0.0
 10
-906.7848520214784
 20
-745.7222037129671
 30
0.0
 10
-906.7848520214784
 20
-745.7222037129671
 30
0.0
 10
-906.8097457214784
 20
-745.7153163129671
 30
0.0
 10
-906.8342455214784
 20
-745.7081637129671
 30
0.0
 10
-906.8581876214784
 20
-745.6993731129671
 30
0.0
 10
-906.8581876214784
 20
-745.6993731129671
 30
0.0
 10
-907.2076315214783
 20
-745.5707355129671
 30
0.0
 10
-907.4588695214783
 20
-745.2375000129672
 30
0.0
 10
-907.4588695214783
 20
-744.844009512967
 30
0.0
 10
-907.4588695214783
 20
-744.844009512967
 30
0.0
 10
-907.4588695214783
 20
-744.4955211129671
 30
0.0
 10
-907.2606013214784
 20
-744.1955760129672
 30
0.0
 10
-906.9732142214784
 20
-744.0413544129671
 30
0.0
 10
-906.9732142214784
 20
-744.0413544129671
 30
0.0
 10
-906.9500638214783
 20
-744.0289602129671
 30
0.0
 10
-906.9286138214783
 20
-744.0143937129671
 30
0.0
 10
-906.9044065214782
 20
-744.0040626129671
 30
0.0
 10
-906.9044065214782
 20
-744.0040626129671
 30
0.0
 10
-906.7937752214785
 20
-743.9564709129671
 30
0.0
 10
-906.6723175214784
 20
-743.9296389129671
 30
0.0
 10
-906.5444716214782
 20
-743.9296389129671
 30
0.0
 10
-906.5444716214782
 20
-743.9296389129671
 30
0.0
 10
-906.0403810214785
 20
-743.9296389129671
 30
0.0
 10
-905.6302336214784
 20
-744.3397629129671
 30
0.0
 10
-905.6302336214784
 20
-744.844009512967
 30
0.0
 10
-905.6302336214784
 20
-744.844009512967
 30
0.0
 10
-905.6302336214784
 20
-745.3481274129671
 30
0.0
 10
-906.0403810214785
 20
-745.7582475129671
 30
0.0
 10
-906.5444716214782
 20
-745.7582475129671
 30
0.0
  0
SPLINE
  5
BE
330
1F
100
AcDbEntity
  8
Layer 1
 62
     7
100
AcDbSpline
210
0.0
220
0.0
230
1.0
 70
     9
 71
     3
 72
    44
 73
    40
 74
     0
 42
0.0000000001
 43
0.0000000001
 40
0.0
 40
0.0
 40
0.0
 40
0.0
 40
0.0909090909090909
 40
0.0909090909090909
 40
0.0909090909090909
 40
0.1363636363636363
 40
0.1818181818181818
 40
0.1818181818181818
 40
0.1818181818181818
 40
0.2272727272727272
 40
0.2727272727272727
 40
0.2727272727272727
 40
0.2727272727272727
 40
0.3181818181818181
 40
0.3636363636363636
 40
0.3636363636363636
 40
0.3636363636363636
 40
0.4090909090909091
 40
0.4545454545454545
 40
0.4545454545454545
 40
0.4545454545454545
 40
0.5
 40
0.5454545454545455
 40
0.5454545454545455
 40
0.5454545454545455
 40
0.590909090909091
 40
0.6363636363636364
 40
0.6363636363636364
 40
0.6363636363636364
 40
0.6818181818181819
 40
0.7272727272727275
 40
0.7272727272727275
 40
0.7272727272727275
 40
0.7727272727272727
 40
0.8181818181818181
 40
0.8181818181818181
 40
0.8181818181818181
 40
0.9090909090909091
 40
1.0
 40
1.0
 40
1.0
 40
1.0
 10
-910.6784755214784
 20
-749.0033049129671
 30
0.0
 10
-912.5754667214783
 20
-749.0033049129671
 30
0.0
 10
-914.1545065214783
 20
-747.6287031129672
 30
0.0
 10
-914.4799030214782
 20
-745.8238806129672
 30
0.0
 10
-914.4799030214782
 20
-745.8238806129672
 30
0.0
 10
-913.9826725214783
 20
-745.7715972129671
 30
0.0
 10
-913.5922006214784
 20
-745.3548549129672
 30
0.0
 10
-913.5922006214784
 20
-744.844009512967
 30
0.0
 10
-913.5922006214784
 20
-744.844009512967
 30
0.0
 10
-913.5922006214784
 20
-744.3888912129671
 30
0.0
 10
-913.9026055214783
 20
-744.0083292129672
 30
0.0
 10
-914.3215201214783
 20
-743.8930374129671
 30
0.0
 10
-914.3215201214783
 20
-743.8930374129671
 30
0.0
 10
-913.8054604214785
 20
-742.3657233129671
 30
0.0
 10
-912.3645391214784
 20
-741.2613213129672
 30
0.0
 10
-910.6651258214784
 20
-741.2613213129672
 30
0.0
 10
-910.6651258214784
 20
-741.2613213129672
 30
0.0
 10
-908.9416105214784
 20
-741.2613213129672
 30
0.0
 10
-907.4840284214783
 20
-742.3975044129671
 30
0.0
 10
-906.9870904214782
 20
-743.9585340129671
 30
0.0
 10
-906.9870904214782
 20
-743.9585340129671
 30
0.0
 10
-906.9870904214782
 20
-743.9585340129671
 30
0.0
 10
-906.9861388214784
 20
-743.9623755129671
 30
0.0
 10
-906.9861388214784
 20
-743.9623755129671
 30
0.0
 10
-906.9861388214784
 20
-743.9623755129671
 30
0.0
 10
-906.9974215214783
 20
-743.9688378129671
 30
0.0
 10
-906.9830929214784
 20
-743.961131412967
 30
0.0
 10
-906.9946642214784
 20
-743.9670633129671
 30
0.0
 10
-906.9946642214784
 20
-743.9670633129671
 30
0.0
 10
-907.3137310214784
 20
-744.1316160129671
 30
0.0
 10
-907.5346699214783
 20
-744.4608501129671
 30
0.0
 10
-907.5346699214783
 20
-744.844009512967
 30
0.0
 10
-907.5346699214783
 20
-744.844009512967
 30
0.0
 10
-907.5346699214783
 20
-745.2754782129671
 30
0.0
 10
-907.2555157214782
 20
-745.639515912967
 30
0.0
 10
-906.8697355214784
 20
-745.774908312967
 30
0.0
 10
-906.8697355214784
 20
-745.774908312967
 30
0.0
 10
-907.1750275214784
 20
-747.6036495129672
 30
0.0
 10
-908.7642658214784
 20
-749.0033049129671
 30
0.0
 10
-910.6784755214784
 20
-749.0033049129671
 30
0.0
  0
SPLINE
  5
BF
330
1F
100
AcDbEntity
  8
Layer 1
 62
     7
100
AcDbSpline
210
0.0
220
0.0
230
1.0
 70
     9
 71
     3
 72
    36
 73
    32
 74
     0
 42
0.0000000001
 43
0.0000000001
 40
0.0
 40
0.0
 40
0.0
 40
0.0
 40
0.1111111111111111
 40
0.1111111111111111
 40
0.1111111111111111
 40
0.1666666666666666
 40
0.2222222222222222
 40
0.2222222222222222
 40
0.2222222222222222
 40
0.2777777777777778
 40
0.3333333333333333
 40
0.3333333333333333
 40
0.3333333333333333
 40
0.3888888888888888
 40
0.4444444444444445
 40
0.4444444444444445
 40
0.4444444444444445
 40
0.5
 40
0.5555555555555556
 40
0.5555555555555556
 40
0.5555555555555556
 40
0.6111111111111112
 40
0.6666666666666666
 40
0.6666666666666666
 40
0.6666666666666666
 40
0.7222222222222224
 40
0.7777777777777778
 40
0.7777777777777778
 40
0.7777777777777778
 40
0.8888888888888889
 40
1.0
 40
1.0
 40
1.0
 40
1.0
 10
-914.5668535214783
 20
-745.7567382129671
 30
0.0
 10
-914.5722004214784
 20
-745.7567382129671
 30
0.0
 10
-914.5771534214784
 20
-745.7582475129671
 30
0.0
 10
-914.5825315214784
 20
-745.7582475129671
 30
0.0
 10
-914.5825315214784
 20
-745.7582475129671
 30
0.0
 10
-915.0866494214783
 20
-745.7582475129671
 30
0.0
 10
-915.4967695214784
 20
-745.3481274129671
 30
0.0
 10
-915.4967695214784
 20
-744.844009512967
 30
0.0
 10
-915.4967695214784
 20
-744.844009512967
 30
0.0
 10
-915.4967695214784
 20
-744.3397629129671
 30
0.0
 10
-915.0866494214783
 20
-743.9296389129671
 30
0.0
 10
-914.5825315214784
 20
-743.9296389129671
 30
0.0
 10
-914.5825315214784
 20
-743.9296389129671
 30
0.0
 10
-914.5318939214783
 20
-743.9296389129671
 30
0.0
 10
-914.4831868214783
 20
-743.936658912967
 30
0.0
 10
-914.4349048214785
 20
-743.9446305129671
 30
0.0
 10
-914.4349048214785
 20
-743.9446305129671
 30
0.0
 10
-914.4094534214783
 20
-743.9487645129672
 30
0.0
 10
-914.4263755214783
 20
-743.9454534129671
 30
0.0
 10
-914.3599234214784
 20
-743.9603085129671
 30
0.0
 10
-914.3599234214784
 20
-743.9603085129671
 30
0.0
 10
-913.9635508214784
 20
-744.0603435129672
 30
0.0
 10
-913.6681609214784
 20
-744.4169400129672
 30
0.0
 10
-913.6681609214784
 20
-744.844009512967
 30
0.0
 10
-913.6681609214784
 20
-744.844009512967
 30
0.0
 10
-913.6681609214784
 20
-745.3168767129672
 30
0.0
 10
-914.0303968214784
 20
-745.7025243129671
 30
0.0
 10
-914.4913183214784
 20
-745.7490318129671
 30
0.0
 10
-914.4913183214784
 20
-745.7490318129671
 30
0.0
 10
-914.5164772214783
 20
-745.7516526129672
 30
0.0
 10
-914.5411096214784
 20
-745.7563170129672
 30
0.0
 10
-914.5668535214783
 20
-745.7567382129671
 30
0.0
  0
SPLINE
  5
C0
330
1F
100
AcDbEntity
  8
Layer 1
 62
     7
100
AcDbSpline
210
0.0
220
0.0
230
1.0
 70
     9
 71
     3
 72
    56
 73
    52
 74
     0
 42
0.0000000001
 43
0.0000000001
 40
0.0
 40
0.0
 40
0.0
 40
0.0
 40
0.0714285714285714
 40
0.0714285714285714
 40
0.0714285714285714
 40
0.1071428571428571
 40
0.1428571428571428
 40
0.1428571428571428
 40
0.1428571428571428
 40
0.1785714285714286
 40
0.2142857142857143
 40
0.2142857142857143
 40
0.2142857142857143
 40
0.25
 40
0.2857142857142857
 40
0.2857142857142857
 40
0.2857142857142857
 40
0.3214285714285714
 40
0.3571428571428572
 40
0.3571428571428572
 40
0.3571428571428572
 40
0.3928571428571428
 40
0.4285714285714285
 40
0.4285714285714285
 40
0.4285714285714285
 40
0.4642857142857144
 40
0.5
 40
0.5
 40
0.5
 40
0.5357142857142857
 40
0.5714285714285714
 40
0.5714285714285714
 40
0.5714285714285714
 40
0.6071428571428572
 40
0.6428571428571429
 40
0.6428571428571429
 40
0.6428571428571429
 40
0.6785714285714288
 40
0.7142857142857145
 40
0.7142857142857145
 40
0.7142857142857145
 40
0.75
 40
0.7857142857142857
 40
0.7857142857142857
 40
0.7857142857142857
 40
0.8214285714285713
 40
0.8571428571428571
 40
0.8571428571428571
 40
0.8571428571428571
 40
0.9285714285714286
 40
1.0
 40
1.0
 40
1.0
 40
1.0
 10
-906.5444716214782
 20
-743.8536825129671
 30
0.0
 10
-906.6765802214783
 20
-743.8536825129671
 30
0.0
 10
-906.8024644214784
 20
-743.8803780129672
 30
0.0
 10
-906.9177523214783
 20
-743.927443212967
 30
0.0
 10
-906.9177523214783
 20
-743.927443212967
 30
0.0
 10
-907.4266633214783
 20
-742.3399794129672
 30
0.0
 10
-908.9105158214783
 20
-741.1853883129671
 30
0.0
 10
-910.6651258214784
 20
-741.1853883129671
 30
0.0
 10
-910.6651258214784
 20
-741.1853883129671
 30
0.0
 10
-912.3997639214783
 20
-741.1853883129671
 30
0.0
 10
-913.8702667214785
 20
-742.3141302129671
 30
0.0
 10
-914.3949922214783
 20
-743.874313512967
 30
0.0
 10
-914.3949922214783
 20
-743.874313512967
 30
0.0
 10
-914.3994148214783
 20
-743.8733580129671
 30
0.0
 10
-914.4036775214784
 20
-743.8721139129671
 30
0.0
 10
-914.4080728214785
 20
-743.8714275129671
 30
0.0
 10
-914.4080728214785
 20
-743.8714275129671
 30
0.0
 10
-914.4648841214783
 20
-743.8612563129671
 30
0.0
 10
-914.5228069214784
 20
-743.8536825129671
 30
0.0
 10
-914.5825315214784
 20
-743.8536825129671
 30
0.0
 10
-914.5825315214784
 20
-743.8536825129671
 30
0.0
 10
-915.1284691214783
 20
-743.8536825129671
 30
0.0
 10
-915.5727025214783
 20
-744.2979432129671
 30
0.0
 10
-915.5727025214783
 20
-744.844009512967
 30
0.0
 10
-915.5727025214783
 20
-744.844009512967
 30
0.0
 10
-915.5727025214783
 20
-745.3900797129671
 30
0.0
 10
-915.1284691214783
 20
-745.8342078129671
 30
0.0
 10
-914.5825315214784
 20
-745.8342078129671
 30
0.0
 10
-914.5825315214784
 20
-745.8342078129671
 30
0.0
 10
-914.5731832214783
 20
-745.8342078129671
 30
0.0
 10
-914.5646539214784
 20
-745.8317196129671
 30
0.0
 10
-914.5554382214784
 20
-745.831454412967
 30
0.0
 10
-914.5554382214784
 20
-745.831454412967
 30
0.0
 10
-914.2260442214784
 20
-747.674656812967
 30
0.0
 10
-912.6149542214783
 20
-749.0792379129672
 30
0.0
 10
-910.6784755214784
 20
-749.0792379129672
 30
0.0
 10
-910.6784755214784
 20
-749.0792379129672
 30
0.0
 10
-908.7304177214784
 20
-749.0792379129672
 30
0.0
 10
-907.1120230214784
 20
-747.6573330129671
 30
0.0
 10
-906.7965325214784
 20
-745.797606312967
 30
0.0
 10
-906.7965325214784
 20
-745.797606312967
 30
0.0
 10
-906.7154866214783
 20
-745.819060212967
 30
0.0
 10
-906.6321124214784
 20
-745.8342078129671
 30
0.0
 10
-906.5444716214782
 20
-745.8342078129671
 30
0.0
 10
-906.5444716214782
 20
-745.8342078129671
 30
0.0
 10
-905.9985613214784
 20
-745.8342078129671
 30
0.0
 10
-905.5543006214783
 20
-745.3900797129671
 30
0.0
 10
-905.5543006214783
 20
-744.844009512967
 30
0.0
 10
-905.5543006214783
 20
-744.844009512967
 30
0.0
 10
-905.5543006214783
 20
-744.2979432129671
 30
0.0
 10
-905.9985613214784
 20
-743.8536825129671
 30
0.0
 10
-906.5444716214782
 20
-743.8536825129671
 30
0.0
  0
SPLINE
  5
C1
330
1F
100
AcDbEntity
  8
Layer 1
 62
     7
100
AcDbSpline
210
0.0
220
0.0
230
1.0
 70
    11
 71
     3
 72
    20
 73
    16
 74
     0
 42
0.0000000001
 43
0.0000000001
 40
0.0
 40
0.0
 40
0.0
 40
0.0
 40
0.2
 40
0.2
 40
0.2
 40
0.3
 40
0.4
 40
0.4
 40
0.4
 40
0.5
 40
0.6
 40
0.6
 40
0.6
 40
0.8
 40
1.0
 40
1.0
 40
1.0
 40
1.0
 10
-906.9162430214785
 20
-743.9343033129671
 30
0.0
 10
-906.9162430214785
 20
-743.9343033129671
 30
0.0
 10
-906.9166408214783
 20
-743.9305944129671
 30
0.0
 10
-906.9166408214783
 20
-743.9305944129671
 30
0.0
 10
-906.9166408214783
 20
-743.9305944129671
 30
0.0
 10
-906.9166408214783
 20
-743.9305944129671
 30
0.0
 10
-906.9870904214782
 20
-743.9585340129671
 30
0.0
 10
-906.9870904214782
 20
-743.9585340129671
 30
0.0
 10
-906.9870904214782
 20
-743.9585340129671
 30
0.0
 10
-906.9865366214784
 20
-743.9601759129672
 30
0.0
 10
-906.9859789214783
 20
-743.961950412967
 30
0.0
 10
-906.9854485214783
 20
-743.9637522129672
 30
0.0
 10
-906.9854485214783
 20
-743.9637522129672
 30
0.0
 10
-906.9854485214783
 20
-743.9637522129672
 30
0.0
 10
-906.9162430214785
 20
-743.9343033129671
 30
0.0
 10
-906.9162430214785
 20
-743.9343033129671
 30
0.0
  0
ENDSEC
  0
SECTION
  2
OBJECTS
  0
DICTIONARY
  5
C
330
0
100
AcDbDictionary
281
     1
  3
ACAD_2007HEADERVARS_RT
350
137
  3
ACAD_CIP_PREVIOUS_PRODUCT_INFO
350
104
  3
ACAD_COLOR
350
101
  3
ACAD_DETAILVIEWSTYLE
350
FD
  3
ACAD_GROUP
350
D
  3
ACAD_LAYOUT
350
1A
  3
ACAD_MATERIAL
350
43
  3
ACAD_MLEADERSTYLE
350
6B
  3
ACAD_MLINESTYLE
350
17
  3
ACAD_PLOTSETTINGS
350
19
  3
ACAD_PLOTSTYLENAME
350
E
  3
ACAD_SCALELIST
350
47
  3
ACAD_SECTIONVIEWSTYLE
350
FE
  3
ACAD_TABLESTYLE
350
69
  3
ACAD_VISUALSTYLE
350
2A
  3
ACDB_RECOMPOSE_DATA
350
135
  3
AcDbVariableDictionary
350
C2
  3
DWGPROPS
350
136
  0
DICTIONARY
  5
105
330
10
100
AcDbDictionary
280
     1
281
     1
  3
ADSK_XREC_LAYER_RECONCILED
360
106
  0
DICTIONARY
  5
107
330
6F
100
AcDbDictionary
280
     1
281
     1
  3
ADSK_XREC_LAYER_RECONCILED
360
108
  0
DICTIONARY
  5
137
102
{ACAD_REACTORS
330
C
102
}
330
C
100
AcDbDictionary
281
     1
  3
INTERFERECOLOR
350
138
  0
XRECORD
  5
104
102
{ACAD_REACTORS
330
C
102
}
330
C
100
AcDbXrecord
280
     1
300
ACD
300
2012
300
ACD_F_S
  0
DICTIONARY
  5
101
102
{ACAD_REACTORS
330
C
102
}
330
C
100
AcDbDictionary
281
     1
  0
DICTIONARY
  5
FD
102
{ACAD_REACTORS
330
C
102
}
330
C
100
AcDbDictionary
281
     1
  0
DICTIONARY
  5
D
102
{ACAD_REACTORS
330
C
102
}
330
C
100
AcDbDictionary
281
     1
  0
DICTIONARY
  5
1A
102
{ACAD_REACTORS
330
C
102
}
330
C
100
AcDbDictionary
281
     1
  3
Layout1
350
1E
  3
Layout2
350
26
  3
Model
350
22
  0
DICTIONARY
  5
43
102
{ACAD_REACTORS
330
C
102
}
330
C
100
AcDbDictionary
281
     1
  3
ByBlock
350
45
  3
ByLayer
350
44
  3
Global
350
46
  0
DICTIONARY
  5
6B
102
{ACAD_REACTORS
330
C
102
}
330
C
100
AcDbDictionary
281
     1
  3
Standard
350
6C
  0
DICTIONARY
  5
17
102
{ACAD_REACTORS
330
C
102
}
330
C
100
AcDbDictionary
281
     1
  3
Standard
350
18
  0
DICTIONARY
  5
19
102
{ACAD_REACTORS
330
C
102
}
330
C
100
AcDbDictionary
281
     1
  0
ACDBDICTIONARYWDFLT
  5
E
102
{ACAD_REACTORS
330
C
102
}
330
C
100
AcDbDictionary
281
     1
  3
Normal
350
F
100
AcDbDictionaryWithDefault
340
F
  0
DICTIONARY
  5
47
102
{ACAD_REACTORS
330
C
102
}
330
C
100
AcDbDictionary
281
     1
  3
A0
350
48
  3
A1
350
49
  3
A2
350
4A
  3
A3
350
4B
  3
A4
350
4C
  3
A5
350
4D
  3
A6
350
4E
  3
A7
350
4F
  3
A8
350
50
  3
A9
350
51
  3
B0
350
52
  3
B1
350
53
  3
B2
350
54
  3
B3
350
55
  3
B4
350
56
  3
B5
350
57
  3
B6
350
58
  3
B7
350
59
  3
B8
350
5A
  3
B9
350
5B
  3
C0
350
5C
  3
C1
350
5D
  3
C2
350
5E
  3
C3
350
5F
  3
C4
350
60
  3
C5
350
61
  3
C6
350
62
  3
C7
350
63
  3
C8
350
64
  3
C9
350
65
  3
D0
350
66
  3
D1
350
67
  3
D2
350
68
  0
DICTIONARY
  5
FE
102
{ACAD_REACTORS
330
C
102
}
330
C
100
AcDbDictionary
281
     1
  0
DICTIONARY
  5
69
102
{ACAD_REACTORS
330
C
102
}
330
C
100
AcDbDictionary
281
     1
  3
Standard
350
6A
  0
DICTIONARY
  5
2A
102
{ACAD_REACTORS
330
C
102
}
330
C
100
AcDbDictionary
281
     1
  3
2dWireframe
350
2F
  3
Basic
350
32
  3
Brighten
350
36
  3
ColorChange
350
3A
  3
Conceptual
350
34
  3
Dim
350
35
  3
EdgeColorOff
350
3D
  3
Facepattern
350
39
  3
Flat
350
2B
  3
FlatWithEdges
350
2C
  3
Gouraud
350
2D
  3
GouraudWithEdges
350
2E
  3
Hidden
350
31
  3
JitterOff
350
3B
  3
Linepattern
350
38
  3
OverhangOff
350
3C
  3
Realistic
350
33
  3
Shaded
350
42
  3
Shaded with edges
350
41
  3
Shades of Gray
350
3E
  3
Sketchy
350
3F
  3
Thicken
350
37
  3
Wireframe
350
30
  3
X-Ray
350
40
  0
XRECORD
  5
135
102
{ACAD_REACTORS
330
C
102
}
330
C
100
AcDbXrecord
280
     1
 90
        1
330
6A
  0
DICTIONARY
  5
C2
102
{ACAD_REACTORS
330
C
102
}
330
C
100
AcDbDictionary
281
     1
  3
CANNOSCALE
350
C3
  3
CMLEADERSTYLE
350
FC
  3
CTABLESTYLE
350
FB
  3
DGNFRAME
350
116
  3
DIMASSOC
350
115
  3
HIDETEXT
350
114
  3
INDEXCTL
350
113
  3
LAYEREVAL
350
10A
  3
LAYERNOTIFY
350
10B
  3
LIGHTINGUNITS
350
111
  3
LOFTANG1
350
131
  3
LOFTANG2
350
132
  3
MSLTSCALE
350
110
  3
SORTENTS
350
112
  3
XCLIPFRAME
350
133
  0
XRECORD
  5
136
102
{ACAD_REACTORS
330
C
102
}
330
C
100
AcDbXrecord
280
     1
  1
DWGPROPS COOKIE
  2

  3

  4

  6

  7

  8
Masoft
  9

300
=
301
=
302
=
303
=
304
=
305
=
306
=
307
=
308
=
309
=
 40
0.002374537037037
 41
2457648.624239931
 42
2458753.506686516
  1

 90
        0
  0
XRECORD
  5
106
102
{ACAD_REACTORS
330
105
102
}
330
105
100
AcDbXrecord
280
     1
290
     1
  0
XRECORD
  5
108
102
{ACAD_REACTORS
330
107
102
}
330
107
100
AcDbXrecord
280
     1
290
     1
  0
XRECORD
  5
138
102
{ACAD_REACTORS
330
137
102
}
330
137
100
AcDbXrecord
280
     1
1004
1800000001000000000000C0000000000000000000000000
  0
LAYOUT
  5
1E
102
{ACAD_XDICTIONARY
360
139
102
}
102
{ACAD_REACTORS
330
1A
102
}
330
1A
100
AcDbPlotSettings
  1

  2
none_device
  4

  6

 40
0.0
 41
0.0
 42
0.0
 43
0.0
 44
0.0
 45
0.0
 46
0.0
 47
0.0
 48
0.0
 49
0.0
140
0.0
141
0.0
142
1.0
143
1.0
 70
   688
 72
     0
 73
     0
 74
     5
  7

 75
    16
147
1.0
148
0.0
149
0.0
100
AcDbLayout
  1
Layout1
 70
     1
 71
     1
 10
0.0
 20
0.0
 11
12.0
 21
9.0
 12
0.0
 22
0.0
 32
0.0
 14
1.000000000000000E+20
 24
1.000000000000000E+20
 34
1.000000000000000E+20
 15
-1.000000000000000E+20
 25
-1.000000000000000E+20
 35
-1.000000000000000E+20
146
0.0
 13
0.0
 23
0.0
 33
0.0
 16
1.0
 26
0.0
 36
0.0
 17
0.0
 27
1.0
 37
0.0
 76
     0
330
1B
  0
LAYOUT
  5
26
102
{ACAD_XDICTIONARY
360
13D
102
}
102
{ACAD_REACTORS
330
1A
102
}
330
1A
100
AcDbPlotSettings
  1

  2
none_device
  4

  6

 40
0.0
 41
0.0
 42
0.0
 43
0.0
 44
0.0
 45
0.0
 46
0.0
 47
0.0
 48
0.0
 49
0.0
140
0.0
141
0.0
142
1.0
143
1.0
 70
   688
 72
     0
 73
     0
 74
     5
  7

 75
    16
147
1.0
148
0.0
149
0.0
100
AcDbLayout
  1
Layout2
 70
     1
 71
     2
 10
0.0
 20
0.0
 11
0.0
 21
0.0
 12
0.0
 22
0.0
 32
0.0
 14
0.0
 24
0.0
 34
0.0
 15
0.0
 25
0.0
 35
0.0
146
0.0
 13
0.0
 23
0.0
 33
0.0
 16
1.0
 26
0.0
 36
0.0
 17
0.0
 27
1.0
 37
0.0
 76
     0
330
23
  0
LAYOUT
  5
22
102
{ACAD_XDICTIONARY
360
13B
102
}
102
{ACAD_REACTORS
330
1A
102
}
330
1A
100
AcDbPlotSettings
  1

  2
none_device
  4
Letter_(8.50_x_11.00_Inches)
  6

 40
6.349999999999998
 41
6.349999999999998
 42
6.350005079999998
 43
6.350005079999998
 44
215.9
 45
279.4
 46
0.0
 47
0.0
 48
0.0
 49
0.0
140
0.0
141
0.0
142
1.0
143
1.0
 70
  1712
 72
     0
 73
     0
 74
     0
  7

 75
     0
147
1.0
148
0.0
149
0.0
100
AcDbLayout
  1
Model
 70
     1
 71
     0
 10
0.0
 20
0.0
 11
12.0
 21
9.0
 12
0.0
 22
0.0
 32
0.0
 14
-497.9459
 24
-439.032
 34
0.0
 15
498.1575
 25
439.3215
 35
0.0
146
0.0
 13
0.0
 23
0.0
 33
0.0
 16
1.0
 26
0.0
 36
0.0
 17
0.0
 27
1.0
 37
0.0
 76
     0
330
1F
331
29
  0
MATERIAL
  5
45
102
{ACAD_XDICTIONARY
360
128
102
}
102
{ACAD_REACTORS
330
43
102
}
330
43
100
AcDbMaterial
  1
ByBlock
  0
MATERIAL
  5
44
102
{ACAD_XDICTIONARY
360
126
102
}
102
{ACAD_REACTORS
330
43
102
}
330
43
100
AcDbMaterial
  1
ByLayer
  0
MATERIAL
  5
46
102
{ACAD_XDICTIONARY
360
12A
102
}
102
{ACAD_REACTORS
330
43
102
}
330
43
100
AcDbMaterial
  1
Global
  0
MLEADERSTYLE
  5
6C
102
{ACAD_REACTORS
330
6B
102
}
330
6B
100
AcDbMLeaderStyle
170
     2
171
     1
172
     0
 90
        2
 40
0.0
 41
0.0
173
     1
 91
-1056964608
340
14
 92
       -2
290
     1
 42
0.09
291
     1
 43
0.36
  3
Standard
 44
0.18
300

342
11
174
     1
178
     6
175
     1
176
     0
 93
-1056964608
 45
0.18
292
     0
297
     0
 46
0.18
 94
-1056964608
 47
1.0
 49
1.0
140
1.0
293
     1
141
0.0
294
     1
177
     0
142
1.0
295
     0
296
     0
143
0.125
1001
ACAD_MLEADERVER
1070
     2
  0
MLINESTYLE
  5
18
102
{ACAD_REACTORS
330
17
102
}
330
17
100
AcDbMlineStyle
  2
STANDARD
 70
     0
  3

 62
   256
 51
90.0
 52
90.0
 71
     2
 49
0.5
 62
   256
  6
BYLAYER
 49
-0.5
 62
   256
  6
BYLAYER
  0
ACDBPLACEHOLDER
  5
F
102
{ACAD_REACTORS
330
E
102
}
330
E
  0
SCALE
  5
48
102
{ACAD_REACTORS
330
47
102
}
330
47
100
AcDbScale
 70
     0
300
1:1
140
1.0
141
1.0
290
     1
  0
SCALE
  5
49
102
{ACAD_REACTORS
330
47
102
}
330
47
100
AcDbScale
 70
     0
300
1:2
140
1.0
141
2.0
290
     0
  0
SCALE
  5
4A
102
{ACAD_REACTORS
330
47
102
}
330
47
100
AcDbScale
 70
     0
300
1:4
140
1.0
141
4.0
290
     0
  0
SCALE
  5
4B
102
{ACAD_REACTORS
330
47
102
}
330
47
100
AcDbScale
 70
     0
300
1:5
140
1.0
141
5.0
290
     0
  0
SCALE
  5
4C
102
{ACAD_REACTORS
330
47
102
}
330
47
100
AcDbScale
 70
     0
300
1:8
140
1.0
141
8.0
290
     0
  0
SCALE
  5
4D
102
{ACAD_REACTORS
330
47
102
}
330
47
100
AcDbScale
 70
     0
300
1:10
140
1.0
141
10.0
290
     0
  0
SCALE
  5
4E
102
{ACAD_REACTORS
330
47
102
}
330
47
100
AcDbScale
 70
     0
300
1:16
140
1.0
141
16.0
290
     0
  0
SCALE
  5
4F
102
{ACAD_REACTORS
330
47
102
}
330
47
100
AcDbScale
 70
     0
300
1:20
140
1.0
141
20.0
290
     0
  0
SCALE
  5
50
102
{ACAD_REACTORS
330
47
102
}
330
47
100
AcDbScale
 70
     0
300
1:30
140
1.0
141
30.0
290
     0
  0
SCALE
  5
51
102
{ACAD_REACTORS
330
47
102
}
330
47
100
AcDbScale
 70
     0
300
1:40
140
1.0
141
40.0
290
     0
  0
SCALE
  5
52
102
{ACAD_REACTORS
330
47
102
}
330
47
100
AcDbScale
 70
     0
300
1:50
140
1.0
141
50.0
290
     0
  0
SCALE
  5
53
102
{ACAD_REACTORS
330
47
102
}
330
47
100
AcDbScale
 70
     0
300
1:100
140
1.0
141
100.0
290
     0
  0
SCALE
  5
54
102
{ACAD_REACTORS
330
47
102
}
330
47
100
AcDbScale
 70
     0
300
2:1
140
2.0
141
1.0
290
     0
  0
SCALE
  5
55
102
{ACAD_REACTORS
330
47
102
}
330
47
100
AcDbScale
 70
     0
300
4:1
140
4.0
141
1.0
290
     0
  0
SCALE
  5
56
102
{ACAD_REACTORS
330
47
102
}
330
47
100
AcDbScale
 70
     0
300
8:1
140
8.0
141
1.0
290
     0
  0
SCALE
  5
57
102
{ACAD_REACTORS
330
47
102
}
330
47
100
AcDbScale
 70
     0
300
10:1
140
10.0
141
1.0
290
     0
  0
SCALE
  5
58
102
{ACAD_REACTORS
330
47
102
}
330
47
100
AcDbScale
 70
     0
300
100:1
140
100.0
141
1.0
290
     0
  0
SCALE
  5
59
102
{ACAD_REACTORS
330
47
102
}
330
47
100
AcDbScale
 70
     0
300
1/128" = 1'-0"
140
0.0078125
141
12.0
290
     0
  0
SCALE
  5
5A
102
{ACAD_REACTORS
330
47
102
}
330
47
100
AcDbScale
 70
     0
300
1/64" = 1'-0"
140
0.015625
141
12.0
290
     0
  0
SCALE
  5
5B
102
{ACAD_REACTORS
330
47
102
}
330
47
100
AcDbScale
 70
     0
300
1/32" = 1'-0"
140
0.03125
141
12.0
290
     0
  0
SCALE
  5
5C
102
{ACAD_REACTORS
330
47
102
}
330
47
100
AcDbScale
 70
     0
300
1/16" = 1'-0"
140
0.0625
141
12.0
290
     0
  0
SCALE
  5
5D
102
{ACAD_REACTORS
330
47
102
}
330
47
100
AcDbScale
 70
     0
300
3/32" = 1'-0"
140
0.09375
141
12.0
290
     0
  0
SCALE
  5
5E
102
{ACAD_REACTORS
330
47
102
}
330
47
100
AcDbScale
 70
     0
300
1/8" = 1'-0"
140
0.125
141
12.0
290
     0
  0
SCALE
  5
5F
102
{ACAD_REACTORS
330
47
102
}
330
47
100
AcDbScale
 70
     0
300
3/16" = 1'-0"
140
0.1875
141
12.0
290
     0
  0
SCALE
  5
60
102
{ACAD_REACTORS
330
47
102
}
330
47
100
AcDbScale
 70
     0
300
1/4" = 1'-0"
140
0.25
141
12.0
290
     0
  0
SCALE
  5
61
102
{ACAD_REACTORS
330
47
102
}
330
47
100
AcDbScale
 70
     0
300
3/8" = 1'-0"
140
0.375
141
12.0
290
     0
  0
SCALE
  5
62
102
{ACAD_REACTORS
330
47
102
}
330
47
100
AcDbScale
 70
     0
300
1/2" = 1'-0"
140
0.5
141
12.0
290
     0
  0
SCALE
  5
63
102
{ACAD_REACTORS
330
47
102
}
330
47
100
AcDbScale
 70
     0
300
3/4" = 1'-0"
140
0.75
141
12.0
290
     0
  0
SCALE
  5
64
102
{ACAD_REACTORS
330
47
102
}
330
47
100
AcDbScale
 70
     0
300
1" = 1'-0"
140
1.0
141
12.0
290
     0
  0
SCALE
  5
65
102
{ACAD_REACTORS
330
47
102
}
330
47
100
AcDbScale
 70
     0
300
1-1/2" = 1'-0"
140
1.5
141
12.0
290
     0
  0
SCALE
  5
66
102
{ACAD_REACTORS
330
47
102
}
330
47
100
AcDbScale
 70
     0
300
3" = 1'-0"
140
3.0
141
12.0
290
     0
  0
SCALE
  5
67
102
{ACAD_REACTORS
330
47
102
}
330
47
100
AcDbScale
 70
     0
300
6" = 1'-0"
140
6.0
141
12.0
290
     0
  0
SCALE
  5
68
102
{ACAD_REACTORS
330
47
102
}
330
47
100
AcDbScale
 70
     0
300
1'-0" = 1'-0"
140
12.0
141
12.0
290
     0
  0
TABLESTYLE
  5
6A
102
{ACAD_XDICTIONARY
360
F5
102
}
102
{ACAD_REACTORS
330
69
102
}
330
69
100
AcDbTableStyle
  3
Standard
 70
     0
 71
     0
 40
0.06
 41
0.06
280
     0
281
     0
  7
Standard
140
0.18
170
     2
 62
     0
 63
     7
283
     0
274
    -2
284
     1
 64
     0
275
    -2
285
     1
 65
     0
276
    -2
286
     1
 66
     0
277
    -2
287
     1
 67
     0
278
    -2
288
     1
 68
     0
279
    -2
289
     1
 69
     0
  7
Standard
140
0.25
170
     5
 62
     0
 63
     7
283
     0
274
    -2
284
     1
 64
     0
275
    -2
285
     1
 65
     0
276
    -2
286
     1
 66
     0
277
    -2
287
     1
 67
     0
278
    -2
288
     1
 68
     0
279
    -2
289
     1
 69
     0
  7
Standard
140
0.18
170
     5
 62
     0
 63
     7
283
     0
274
    -2
284
     1
 64
     0
275
    -2
285
     1
 65
     0
276
    -2
286
     1
 66
     0
277
    -2
287
     1
 67
     0
278
    -2
288
     1
 68
     0
279
    -2
289
     1
 69
     0
  0
VISUALSTYLE
  5
2F
102
{ACAD_XDICTIONARY
360
CD
102
}
102
{ACAD_REACTORS
330
2A
102
}
330
2A
100
AcDbVisualStyle
  2

 70
     4
 71
     0
 72
     2
 73
     0
 90
        0
 40
-0.6
 41
-30.0
 62
     5
 63
     7
 74
     1
 91
        4
 64
     7
 65
   257
 75
     1
175
     1
 42
1.0
 92
        0
 66
   257
 43
1.0
 76
     1
 77
     6
 78
     2
 67
     7
 79
     5
170
     0
171
     0
290
     0
174
     0
 93
        1
 44
0.0
173
     0
291
     0
 45
0.0
1001
ACAD
1000
AcDbSavedByObjectVersion
1070
     0
  0
VISUALSTYLE
  5
32
102
{ACAD_XDICTIONARY
360
D3
102
}
102
{ACAD_REACTORS
330
2A
102
}
330
2A
100
AcDbVisualStyle
  2

 70
     7
 71
     1
 72
     0
 73
     1
 90
        0
 40
-0.6
 41
-30.0
 62
     5
 63
     7
 74
     0
 91
        4
 64
     7
 65
   257
 75
     1
175
     1
 42
1.0
 92
        8
 66
     7
 43
1.0
 76
     1
 77
     6
 78
     2
 67
     7
 79
     5
170
     0
171
     0
290
     0
174
     0
 93
        1
 44
0.0
173
     0
291
     1
 45
0.0
1001
ACAD
1000
AcDbSavedByObjectVersion
1070
     0
  0
VISUALSTYLE
  5
36
102
{ACAD_XDICTIONARY
360
DB
102
}
102
{ACAD_REACTORS
330
2A
102
}
330
2A
100
AcDbVisualStyle
  2

 70
    12
 71
     2
 72
     2
 73
     0
 90
        0
 40
-0.6
 41
-30.0
 62
     5
 63
     7
 74
     1
 91
        4
 64
     7
 65
   257
 75
     1
175
     1
 42
1.0
 92
        8
 66
     7
 43
1.0
 76
     1
 77
     6
 78
     2
 67
     7
 79
     5
170
     0
171
     0
290
     0
174
     0
 93
        1
 44
50.0
173
     0
291
     1
 45
0.0
1001
ACAD
1000
AcDbSavedByObjectVersion
1070
     0
  0
VISUALSTYLE
  5
3A
102
{ACAD_XDICTIONARY
360
E3
102
}
102
{ACAD_REACTORS
330
2A
102
}
330
2A
100
AcDbVisualStyle
  2

 70
    16
 71
     2
 72
     2
 73
     3
 90
        0
 40
-0.6
 41
-30.0
 62
     5
 63
     8
 74
     1
 91
        4
 64
     7
 65
   257
 75
     1
175
     1
 42
1.0
 92
        8
 66
     8
 43
1.0
 76
     1
 77
     6
 78
     2
 67
     7
 79
     5
170
     0
171
     0
290
     0
174
     0
 93
        1
 44
0.0
173
     0
291
     1
 45
0.0
1001
ACAD
1000
AcDbSavedByObjectVersion
1070
     0
  0
VISUALSTYLE
  5
34
102
{ACAD_XDICTIONARY
360
D7
102
}
102
{ACAD_REACTORS
330
2A
102
}
330
2A
100
AcDbVisualStyle
  2

 70
     9
 71
     3
 72
     2
 73
     0
 90
        0
 40
-0.6
 41
-30.0
 62
     5
 63
     7
 74
     2
 91
        2
 64
     7
 65
   257
 75
     1
175
     1
 42
179.0
 92
        8
 66
     7
 43
1.0
 76
     1
 77
     6
 78
     2
 67
     7
 79
     3
170
     0
171
     0
290
     0
174
     0
 93
        1
 44
0.0
173
     0
291
     0
 45
0.0
1001
ACAD
1000
AcDbSavedByObjectVersion
1070
     0
  0
VISUALSTYLE
  5
35
102
{ACAD_XDICTIONARY
360
D9
102
}
102
{ACAD_REACTORS
330
2A
102
}
330
2A
100
AcDbVisualStyle
  2

 70
    11
 71
     2
 72
     2
 73
     0
 90
        0
 40
-0.6
 41
-30.0
 62
     5
 63
     7
 74
     1
 91
        4
 64
     7
 65
   257
 75
     1
175
     1
 42
1.0
 92
        8
 66
     7
 43
1.0
 76
     1
 77
     6
 78
     2
 67
     7
 79
     5
170
     0
171
     0
290
     0
174
     0
 93
        1
 44
-50.0
173
     0
291
     1
 45
0.0
1001
ACAD
1000
AcDbSavedByObjectVersion
1070
     0
  0
VISUALSTYLE
  5
3D
102
{ACAD_XDICTIONARY
360
E9
102
}
102
{ACAD_REACTORS
330
2A
102
}
330
2A
100
AcDbVisualStyle
  2

 70
    22
 71
     2
 72
     2
 73
     0
 90
        0
 40
-0.6
 41
-30.0
 62
     5
 63
     7
 74
     1
 91
        4
 64
     7
 65
   257
 75
     1
175
     1
 42
1.0
 92
        8
 66
     7
 43
1.0
 76
     1
 77
     6
 78
     2
 67
     7
 79
     5
170
     0
171
     0
290
     0
174
     0
 93
        1
 44
0.0
173
     0
291
     1
 45
0.0
1001
ACAD
1000
AcDbSavedByObjectVersion
1070
     0
  0
VISUALSTYLE
  5
39
102
{ACAD_XDICTIONARY
360
E1
102
}
102
{ACAD_REACTORS
330
2A
102
}
330
2A
100
AcDbVisualStyle
  2

 70
    15
 71
     2
 72
     2
 73
     0
 90
        0
 40
-0.6
 41
-30.0
 62
     5
 63
     7
 74
     1
 91
        4
 64
     7
 65
   257
 75
     1
175
     1
 42
1.0
 92
        8
 66
     7
 43
1.0
 76
     1
 77
     6
 78
     2
 67
     7
 79
     5
170
     0
171
     0
290
     0
174
     0
 93
        1
 44
0.0
173
     0
291
     1
 45
0.0
1001
ACAD
1000
AcDbSavedByObjectVersion
1070
     0
  0
VISUALSTYLE
  5
2B
102
{ACAD_XDICTIONARY
360
C5
102
}
102
{ACAD_REACTORS
330
2A
102
}
330
2A
100
AcDbVisualStyle
  2

 70
     0
 71
     2
 72
     1
 73
     1
 90
        2
 40
-0.6
 41
30.0
 62
     5
 63
     7
 74
     0
 91
        0
 64
     7
 65
   257
 75
     1
175
     1
 42
1.0
 92
        8
 66
     7
 43
1.0
 76
     1
 77
     6
 78
     2
 67
     7
 79
     5
170
     0
171
     0
290
     0
174
     0
 93
       13
 44
0.0
173
     0
291
     1
 45
0.0
1001
ACAD
1000
AcDbSavedByObjectVersion
1070
     0
  0
VISUALSTYLE
  5
2C
102
{ACAD_XDICTIONARY
360
C7
102
}
102
{ACAD_REACTORS
330
2A
102
}
330
2A
100
AcDbVisualStyle
  2

 70
     1
 71
     2
 72
     1
 73
     1
 90
        2
 40
-0.6
 41
30.0
 62
     5
 63
     7
 74
     1
 91
        0
 64
     7
 65
   257
 75
     1
175
     1
 42
1.0
 92
        0
 66
   257
 43
1.0
 76
     1
 77
     6
 78
     2
 67
     7
 79
     5
170
     0
171
     0
290
     0
174
     0
 93
       13
 44
0.0
173
     0
291
     1
 45
0.0
1001
ACAD
1000
AcDbSavedByObjectVersion
1070
     0
  0
VISUALSTYLE
  5
2D
102
{ACAD_XDICTIONARY
360
C9
102
}
102
{ACAD_REACTORS
330
2A
102
}
330
2A
100
AcDbVisualStyle
  2

 70
     2
 71
     2
 72
     2
 73
     1
 90
        2
 40
-0.6
 41
30.0
 62
     5
 63
     7
 74
     0
 91
        0
 64
     7
 65
   257
 75
     1
175
     1
 42
1.0
 92
        0
 66
     7
 43
1.0
 76
     1
 77
     6
 78
     2
 67
     7
 79
     5
170
     0
171
     0
290
     0
174
     0
 93
       13
 44
0.0
173
     0
291
     1
 45
0.0
1001
ACAD
1000
AcDbSavedByObjectVersion
1070
     0
  0
VISUALSTYLE
  5
2E
102
{ACAD_XDICTIONARY
360
CB
102
}
102
{ACAD_REACTORS
330
2A
102
}
330
2A
100
AcDbVisualStyle
  2

 70
     3
 71
     2
 72
     2
 73
     1
 90
        2
 40
-0.6
 41
30.0
 62
     5
 63
     7
 74
     1
 91
        0
 64
     7
 65
   257
 75
     1
175
     1
 42
1.0
 92
        0
 66
   257
 43
1.0
 76
     1
 77
     6
 78
     2
 67
     7
 79
     5
170
     0
171
     0
290
     0
174
     0
 93
       13
 44
0.0
173
     0
291
     1
 45
0.0
1001
ACAD
1000
AcDbSavedByObjectVersion
1070
     0
  0
VISUALSTYLE
  5
31
102
{ACAD_XDICTIONARY
360
D1
102
}
102
{ACAD_REACTORS
330
2A
102
}
330
2A
100
AcDbVisualStyle
  2

 70
     6
 71
     1
 72
     2
 73
     2
 90
        0
 40
-0.6
 41
-30.0
 62
     5
 63
     7
 74
     2
 91
        2
 64
     7
 65
   257
 75
     2
175
     1
 42
40.0
 92
        0
 66
   257
 43
1.0
 76
     1
 77
     6
 78
     2
 67
     7
 79
     3
170
     0
171
     0
290
     0
174
     0
 93
        1
 44
0.0
173
     0
291
     0
 45
0.0
1001
ACAD
1000
AcDbSavedByObjectVersion
1070
     0
  0
VISUALSTYLE
  5
3B
102
{ACAD_XDICTIONARY
360
E5
102
}
102
{ACAD_REACTORS
330
2A
102
}
330
2A
100
AcDbVisualStyle
  2

 70
    20
 71
     2
 72
     2
 73
     0
 90
        0
 40
-0.6
 41
-30.0
 62
     5
 63
     7
 74
     1
 91
        4
 64
     7
 65
   257
 75
     1
175
     1
 42
1.0
 92
       10
 66
     7
 43
1.0
 76
     1
 77
     6
 78
     2
 67
     7
 79
     5
170
     0
171
     0
290
     0
174
     0
 93
        1
 44
0.0
173
     0
291
     1
 45
0.0
1001
ACAD
1000
AcDbSavedByObjectVersion
1070
     0
  0
VISUALSTYLE
  5
38
102
{ACAD_XDICTIONARY
360
DF
102
}
102
{ACAD_REACTORS
330
2A
102
}
330
2A
100
AcDbVisualStyle
  2

 70
    14
 71
     2
 72
     2
 73
     0
 90
        0
 40
-0.6
 41
-30.0
 62
     5
 63
     7
 74
     1
 91
        4
 64
     7
 65
   257
 75
     7
175
     7
 42
1.0
 92
        8
 66
     7
 43
1.0
 76
     1
 77
     6
 78
     2
 67
     7
 79
     5
170
     0
171
     0
290
     0
174
     0
 93
        1
 44
0.0
173
     0
291
     1
 45
0.0
1001
ACAD
1000
AcDbSavedByObjectVersion
1070
     0
  0
VISUALSTYLE
  5
3C
102
{ACAD_XDICTIONARY
360
E7
102
}
102
{ACAD_REACTORS
330
2A
102
}
330
2A
100
AcDbVisualStyle
  2

 70
    21
 71
     2
 72
     2
 73
     0
 90
        0
 40
-0.6
 41
-30.0
 62
     5
 63
     7
 74
     1
 91
        4
 64
     7
 65
   257
 75
     1
175
     1
 42
1.0
 92
        9
 66
     7
 43
1.0
 76
     1
 77
     6
 78
     2
 67
     7
 79
     5
170
     0
171
     0
290
     0
174
     0
 93
        1
 44
0.0
173
     0
291
     1
 45
0.0
1001
ACAD
1000
AcDbSavedByObjectVersion
1070
     0
  0
VISUALSTYLE
  5
33
102
{ACAD_XDICTIONARY
360
D5
102
}
102
{ACAD_REACTORS
330
2A
102
}
330
2A
100
AcDbVisualStyle
  2

 70
     8
 71
     2
 72
     3
 73
     0
 90
        2
 40
-0.6
 41
30.0
 62
     5
 63
     7
 74
     0
 91
        0
 64
     7
 65
   257
 75
     1
175
     1
 42
1.0
 92
        8
 66
   257
 43
1.0
 76
     1
 77
     6
 78
     2
 67
     7
 79
     3
170
     0
171
     0
290
     0
174
     0
 93
       13
 44
0.0
173
     0
291
     0
 45
0.0
1001
ACAD
1000
AcDbSavedByObjectVersion
1070
     0
  0
VISUALSTYLE
  5
42
102
{ACAD_XDICTIONARY
360
F3
102
}
102
{ACAD_REACTORS
330
2A
102
}
330
2A
100
AcDbVisualStyle
  2

 70
    27
 71
     2
 72
     2
 73
     1
 90
        2
 40
-0.6
 41
30.0
 62
     5
 63
     7
 74
     0
 91
        4
 64
     7
 65
   257
 75
     1
175
     1
 42
1.0
 92
        8
 66
   257
 43
1.0
 76
     1
 77
     6
 78
     2
 67
     8
 79
     3
170
     0
171
     0
290
     0
174
     0
 93
        5
 44
0.0
173
     0
291
     0
 45
0.0
1001
ACAD
1000
AcDbSavedByObjectVersion
1070
     0
  0
VISUALSTYLE
  5
41
102
{ACAD_XDICTIONARY
360
F1
102
}
102
{ACAD_REACTORS
330
2A
102
}
330
2A
100
AcDbVisualStyle
  2

 70
    26
 71
     2
 72
     2
 73
     1
 90
        2
 40
-0.6
 41
30.0
 62
     5
 63
     7
 74
     1
 91
       10
 64
     7
 65
   257
 75
     2
175
     1
 42
1.0
 92
        8
 66
   257
 43
1.0
 76
     1
 77
     6
 78
     2
 67
     7
 79
     3
170
     0
171
     0
290
     0
174
     0
 93
        5
 44
0.0
173
     0
291
     0
 45
0.0
1001
ACAD
1000
AcDbSavedByObjectVersion
1070
     0
  0
VISUALSTYLE
  5
3E
102
{ACAD_XDICTIONARY
360
EB
102
}
102
{ACAD_REACTORS
330
2A
102
}
330
2A
100
AcDbVisualStyle
  2

 70
    23
 71
     2
 72
     2
 73
     3
 90
        0
 40
-0.6
 41
-30.0
 62
     5
 63
     7
 74
     2
 91
        2
 64
     7
 65
     7
 75
     1
175
     1
 42
40.0
 92
        8
 66
     7
 43
1.0
 76
     1
 77
     6
 78
     2
 67
     7
 79
     3
170
     0
171
     0
290
     0
174
     0
 93
        1
 44
0.0
173
     0
291
     0
 45
0.0
1001
ACAD
1000
AcDbSavedByObjectVersion
1070
     0
  0
VISUALSTYLE
  5
3F
102
{ACAD_XDICTIONARY
360
ED
102
}
102
{ACAD_REACTORS
330
2A
102
}
330
2A
100
AcDbVisualStyle
  2

 70
    24
 71
     1
 72
     2
 73
     2
 90
        0
 40
-0.6
 41
-30.0
 62
     5
 63
     7
 74
     2
 91
        2
 64
     7
 65
     7
 75
     1
175
     1
 42
40.0
 92
       11
 66
     7
 43
1.0
 76
     1
 77
     6
 78
     2
 67
     7
 79
     6
170
     0
171
     0
290
     0
174
     0
 93
        1
 44
0.0
173
     0
291
     0
 45
0.0
1001
ACAD
1000
AcDbSavedByObjectVersion
1070
     0
  0
VISUALSTYLE
  5
37
102
{ACAD_XDICTIONARY
360
DD
102
}
102
{ACAD_REACTORS
330
2A
102
}
330
2A
100
AcDbVisualStyle
  2

 70
    13
 71
     2
 72
     2
 73
     0
 90
        0
 40
-0.6
 41
-30.0
 62
     5
 63
     7
 74
     1
 91
        4
 64
     7
 65
   257
 75
     1
175
     1
 42
1.0
 92
       12
 66
     7
 43
1.0
 76
     1
 77
     6
 78
     2
 67
     7
 79
     5
170
     0
171
     0
290
     0
174
     0
 93
        1
 44
0.0
173
     0
291
     1
 45
0.0
1001
ACAD
1000
AcDbSavedByObjectVersion
1070
     0
  0
VISUALSTYLE
  5
30
102
{ACAD_XDICTIONARY
360
CF
102
}
102
{ACAD_REACTORS
330
2A
102
}
330
2A
100
AcDbVisualStyle
  2

 70
     5
 71
     0
 72
     2
 73
     0
 90
        0
 40
-0.6
 41
-30.0
 62
     5
 63
     7
 74
     1
 91
        4
 64
     7
 65
   257
 75
     1
175
     1
 42
1.0
 92
        0
 66
   257
 43
1.0
 76
     1
 77
     6
 78
     2
 67
     7
 79
     3
170
     0
171
     0
290
     0
174
     0
 93
        1
 44
0.0
173
     0
291
     0
 45
0.0
1001
ACAD
1000
AcDbSavedByObjectVersion
1070
     0
  0
VISUALSTYLE
  5
40
102
{ACAD_XDICTIONARY
360
EF
102
}
102
{ACAD_REACTORS
330
2A
102
}
330
2A
100
AcDbVisualStyle
  2

 70
    25
 71
     2
 72
     2
 73
     1
 90
        1
 40
0.5
 41
-30.0
 62
     5
 63
     7
 74
     1
 91
        0
 64
     7
 65
   257
 75
     1
175
     1
 42
1.0
 92
        8
 66
     7
 43
1.0
 76
     1
 77
     6
 78
     2
 67
     7
 79
     3
170
     0
171
     0
290
     0
174
     0
 93
       13
 44
0.0
173
     0
291
     0
 45
0.0
1001
ACAD
1000
AcDbSavedByObjectVersion
1070
     0
  0
DICTIONARYVAR
  5
C3
102
{ACAD_REACTORS
330
C2
102
}
330
C2
100
DictionaryVariables
280
     0
  1
1:1
  0
DICTIONARYVAR
  5
FC
102
{ACAD_REACTORS
330
C2
102
}
330
C2
100
DictionaryVariables
280
     0
  1
STANDARD
  0
DICTIONARYVAR
  5
FB
102
{ACAD_REACTORS
330
C2
102
}
330
C2
100
DictionaryVariables
280
     0
  1
STANDARD
  0
DICTIONARYVAR
  5
116
102
{ACAD_REACTORS
330
C2
102
}
330
C2
100
DictionaryVariables
280
     0
  1
2
  0
DICTIONARYVAR
  5
115
102
{ACAD_REACTORS
330
C2
102
}
330
C2
100
DictionaryVariables
280
     0
  1
2
  0
DICTIONARYVAR
  5
114
102
{ACAD_REACTORS
330
C2
102
}
330
C2
100
DictionaryVariables
280
     0
  1
1
  0
DICTIONARYVAR
  5
113
102
{ACAD_REACTORS
330
C2
102
}
330
C2
100
DictionaryVariables
280
     0
  1
0
  0
DICTIONARYVAR
  5
10A
102
{ACAD_REACTORS
330
C2
102
}
330
C2
100
DictionaryVariables
280
     0
  1
1
  0
DICTIONARYVAR
  5
10B
102
{ACAD_REACTORS
330
C2
102
}
330
C2
100
DictionaryVariables
280
     0
  1
15
  0
DICTIONARYVAR
  5
111
102
{ACAD_REACTORS
330
C2
102
}
330
C2
100
DictionaryVariables
280
     0
  1
2
  0
DICTIONARYVAR
  5
131
102
{ACAD_REACTORS
330
C2
102
}
330
C2
100
DictionaryVariables
280
     0
  1
1.570796
  0
DICTIONARYVAR
  5
132
102
{ACAD_REACTORS
330
C2
102
}
330
C2
100
DictionaryVariables
280
     0
  1
1.570796
  0
DICTIONARYVAR
  5
110
102
{ACAD_REACTORS
330
C2
102
}
330
C2
100
DictionaryVariables
280
     0
  1
1
  0
DICTIONARYVAR
  5
112
102
{ACAD_REACTORS
330
C2
102
}
330
C2
100
DictionaryVariables
280
     0
  1
127
  0
DICTIONARYVAR
  5
133
102
{ACAD_REACTORS
330
C2
102
}
330
C2
100
DictionaryVariables
280
     0
  1
2
  0
DICTIONARY
  5
139
330
1E
100
AcDbDictionary
280
     1
281
     1
  3
ACAD_XREC_ROUNDTRIP
360
13A
  0
DICTIONARY
  5
13D
330
26
100
AcDbDictionary
280
     1
281
     1
  3
ACAD_XREC_ROUNDTRIP
360
13E
  0
DICTIONARY
  5
13B
330
22
100
AcDbDictionary
280
     1
281
     1
  3
ACAD_XREC_ROUNDTRIP
360
13C
  0
DICTIONARY
  5
128
330
45
100
AcDbDictionary
280
     1
281
     1
  3
ACAD_XREC_ROUNDTRIP
360
129
  0
DICTIONARY
  5
126
330
44
100
AcDbDictionary
280
     1
281
     1
  3
ACAD_XREC_ROUNDTRIP
360
127
  0
DICTIONARY
  5
12A
330
46
100
AcDbDictionary
280
     1
281
     1
  3
ACAD_XREC_ROUNDTRIP
360
12B
  0
DICTIONARY
  5
F5
330
6A
100
AcDbDictionary
280
     1
281
     1
  3
ACAD_ROUNDTRIP_2008_TABLESTYLE_CELLSTYLEMAP
360
134
  3
ACAD_XREC_ROUNDTRIP
360
13F
  0
DICTIONARY
  5
CD
330
2F
100
AcDbDictionary
280
     1
281
     1
  3
ACAD_XREC_ROUNDTRIP
360
CE
  0
DICTIONARY
  5
D3
330
32
100
AcDbDictionary
280
     1
281
     1
  3
ACAD_XREC_ROUNDTRIP
360
D4
  0
DICTIONARY
  5
DB
330
36
100
AcDbDictionary
280
     1
281
     1
  3
ACAD_XREC_ROUNDTRIP
360
DC
  0
DICTIONARY
  5
E3
330
3A
100
AcDbDictionary
280
     1
281
     1
  3
ACAD_XREC_ROUNDTRIP
360
E4
  0
DICTIONARY
  5
D7
330
34
100
AcDbDictionary
280
     1
281
     1
  3
ACAD_XREC_ROUNDTRIP
360
D8
  0
DICTIONARY
  5
D9
330
35
100
AcDbDictionary
280
     1
281
     1
  3
ACAD_XREC_ROUNDTRIP
360
DA
  0
DICTIONARY
  5
E9
330
3D
100
AcDbDictionary
280
     1
281
     1
  3
ACAD_XREC_ROUNDTRIP
360
EA
  0
DICTIONARY
  5
E1
330
39
100
AcDbDictionary
280
     1
281
     1
  3
ACAD_XREC_ROUNDTRIP
360
E2
  0
DICTIONARY
  5
C5
330
2B
100
AcDbDictionary
280
     1
281
     1
  3
ACAD_XREC_ROUNDTRIP
360
C6
  0
DICTIONARY
  5
C7
330
2C
100
AcDbDictionary
280
     1
281
     1
  3
ACAD_XREC_ROUNDTRIP
360
C8
  0
DICTIONARY
  5
C9
330
2D
100
AcDbDictionary
280
     1
281
     1
  3
ACAD_XREC_ROUNDTRIP
360
CA
  0
DICTIONARY
  5
CB
330
2E
100
AcDbDictionary
280
     1
281
     1
  3
ACAD_XREC_ROUNDTRIP
360
CC
  0
DICTIONARY
  5
D1
330
31
100
AcDbDictionary
280
     1
281
     1
  3
ACAD_XREC_ROUNDTRIP
360
D2
  0
DICTIONARY
  5
E5
330
3B
100
AcDbDictionary
280
     1
281
     1
  3
ACAD_XREC_ROUNDTRIP
360
E6
  0
DICTIONARY
  5
DF
330
38
100
AcDbDictionary
280
     1
281
     1
  3
ACAD_XREC_ROUNDTRIP
360
E0
  0
DICTIONARY
  5
E7
330
3C
100
AcDbDictionary
280
     1
281
     1
  3
ACAD_XREC_ROUNDTRIP
360
E8
  0
DICTIONARY
  5
D5
330
33
100
AcDbDictionary
280
     1
281
     1
  3
ACAD_XREC_ROUNDTRIP
360
D6
  0
DICTIONARY
  5
F3
330
42
100
AcDbDictionary
280
     1
281
     1
  3
ACAD_XREC_ROUNDTRIP
360
F4
  0
DICTIONARY
  5
F1
330
41
100
AcDbDictionary
280
     1
281
     1
  3
ACAD_XREC_ROUNDTRIP
360
F2
  0
DICTIONARY
  5
EB
330
3E
100
AcDbDictionary
280
     1
281
     1
  3
ACAD_XREC_ROUNDTRIP
360
EC
  0
DICTIONARY
  5
ED
330
3F
100
AcDbDictionary
280
     1
281
     1
  3
ACAD_XREC_ROUNDTRIP
360
EE
  0
DICTIONARY
  5
DD
330
37
100
AcDbDictionary
280
     1
281
     1
  3
ACAD_XREC_ROUNDTRIP
360
DE
  0
DICTIONARY
  5
CF
330
30
100
AcDbDictionary
280
     1
281
     1
  3
ACAD_XREC_ROUNDTRIP
360
D0
  0
DICTIONARY
  5
EF
330
40
100
AcDbDictionary
280
     1
281
     1
  3
ACAD_XREC_ROUNDTRIP
360
F0
  0
XRECORD
  5
13A
102
{ACAD_REACTORS
330
139
102
}
330
139
100
AcDbXrecord
280
     1
102
SHADEPLOT
 70
     0
102
SHADEPLOTRESLEVEL
 70
     2
102
SHADEPLOTCUSTOMDPI
 70
   300
  0
XRECORD
  5
13E
102
{ACAD_REACTORS
330
13D
102
}
330
13D
100
AcDbXrecord
280
     1
102
SHADEPLOT
 70
     0
102
SHADEPLOTRESLEVEL
 70
     2
102
SHADEPLOTCUSTOMDPI
 70
   300
  0
XRECORD
  5
13C
102
{ACAD_REACTORS
330
13B
102
}
330
13B
100
AcDbXrecord
280
     1
102
SHADEPLOT
 70
     0
102
SHADEPLOTRESLEVEL
 70
     2
102
SHADEPLOTCUSTOMDPI
 70
   300
  0
XRECORD
  5
129
102
{ACAD_REACTORS
330
128
102
}
330
128
100
AcDbXrecord
280
     1
102
MATERIAL
148
0.0
149
0.0
149
0.0
 93
        0
 94
      127
282
     0
 72
     1
 77
     1
171
     1
175
     1
179
     1
273
     0
  0
XRECORD
  5
127
102
{ACAD_REACTORS
330
126
102
}
330
126
100
AcDbXrecord
280
     1
102
MATERIAL
148
0.0
149
0.0
149
0.0
 93
        0
 94
      127
282
     0
 72
     1
 77
     1
171
     1
175
     1
179
     1
273
     0
  0
XRECORD
  5
12B
102
{ACAD_REACTORS
330
12A
102
}
330
12A
100
AcDbXrecord
280
     1
102
MATERIAL
148
0.0
149
0.0
149
0.0
 93
        0
 94
      127
282
     0
 72
     1
 77
     1
171
     1
175
     1
179
     1
273
     0
  0
CELLSTYLEMAP
  5
134
102
{ACAD_REACTORS
330
F5
102
}
330
F5
100
AcDbCellStyleMap
 90
        3
300
CELLSTYLE
  1
TABLEFORMAT_BEGIN
 90
        5
170
     1
 91
        0
 92
    32768
 62
   257
 93
        1
300
CONTENTFORMAT
  1
CONTENTFORMAT_BEGIN
 90
        0
 91
        0
 92
        4
 93
        0
300

 40
0.0
140
1.0
 94
        5
 62
     0
340
11
144
0.25
309
CONTENTFORMAT_END
171
     1
301
MARGIN
  1
CELLMARGIN_BEGIN
 40
0.06
 40
0.06
 40
0.06
 40
0.06
 40
0.18
 40
0.18
309
CELLMARGIN_END
 94
        6
 95
        1
302
GRIDFORMAT
  1
GRIDFORMAT_BEGIN
 90
        0
 91
        1
 62
     0
 92
       -2
340
14
 93
        0
 40
0.045
309
GRIDFORMAT_END
 95
        2
302
GRIDFORMAT
  1
GRIDFORMAT_BEGIN
 90
        0
 91
        1
 62
     0
 92
       -2
340
14
 93
        0
 40
0.045
309
GRIDFORMAT_END
 95
        4
302
GRIDFORMAT
  1
GRIDFORMAT_BEGIN
 90
        0
 91
        1
 62
     0
 92
       -2
340
14
 93
        0
 40
0.045
309
GRIDFORMAT_END
 95
        8
302
GRIDFORMAT
  1
GRIDFORMAT_BEGIN
 90
        0
 91
        1
 62
     0
 92
       -2
340
14
 93
        0
 40
0.045
309
GRIDFORMAT_END
 95
       16
302
GRIDFORMAT
  1
GRIDFORMAT_BEGIN
 90
        0
 91
        1
 62
     0
 92
       -2
340
14
 93
        0
 40
0.045
309
GRIDFORMAT_END
 95
       32
302
GRIDFORMAT
  1
GRIDFORMAT_BEGIN
 90
        0
 91
        1
 62
     0
 92
       -2
340
14
 93
        0
 40
0.045
309
GRIDFORMAT_END
309
TABLEFORMAT_END
  1
CELLSTYLE_BEGIN
 90
        1
 91
        1
300
_TITLE
309
CELLSTYLE_END
300
CELLSTYLE
  1
TABLEFORMAT_BEGIN
 90
        5
170
     1
 91
        0
 92
        0
 62
   257
 93
        1
300
CONTENTFORMAT
  1
CONTENTFORMAT_BEGIN
 90
        0
 91
        0
 92
        4
 93
        0
300

 40
0.0
140
1.0
 94
        5
 62
     0
340
11
144
0.18
309
CONTENTFORMAT_END
171
     1
301
MARGIN
  1
CELLMARGIN_BEGIN
 40
0.06
 40
0.06
 40
0.06
 40
0.06
 40
0.18
 40
0.18
309
CELLMARGIN_END
 94
        6
 95
        1
302
GRIDFORMAT
  1
GRIDFORMAT_BEGIN
 90
        0
 91
        1
 62
     0
 92
       -2
340
14
 93
        0
 40
0.045
309
GRIDFORMAT_END
 95
        2
302
GRIDFORMAT
  1
GRIDFORMAT_BEGIN
 90
        0
 91
        1
 62
     0
 92
       -2
340
14
 93
        0
 40
0.045
309
GRIDFORMAT_END
 95
        4
302
GRIDFORMAT
  1
GRIDFORMAT_BEGIN
 90
        0
 91
        1
 62
     0
 92
       -2
340
14
 93
        0
 40
0.045
309
GRIDFORMAT_END
 95
        8
302
GRIDFORMAT
  1
GRIDFORMAT_BEGIN
 90
        0
 91
        1
 62
     0
 92
       -2
340
14
 93
        0
 40
0.045
309
GRIDFORMAT_END
 95
       16
302
GRIDFORMAT
  1
GRIDFORMAT_BEGIN
 90
        0
 91
        1
 62
     0
 92
       -2
340
14
 93
        0
 40
0.045
309
GRIDFORMAT_END
 95
       32
302
GRIDFORMAT
  1
GRIDFORMAT_BEGIN
 90
        0
 91
        1
 62
     0
 92
       -2
340
14
 93
        0
 40
0.045
309
GRIDFORMAT_END
309
TABLEFORMAT_END
  1
CELLSTYLE_BEGIN
 90
        2
 91
        1
300
_HEADER
309
CELLSTYLE_END
300
CELLSTYLE
  1
TABLEFORMAT_BEGIN
 90
        5
170
     1
 91
        0
 92
        0
 62
   257
 93
        1
300
CONTENTFORMAT
  1
CONTENTFORMAT_BEGIN
 90
        0
 91
        0
 92
        4
 93
        0
300

 40
0.0
140
1.0
 94
        2
 62
     0
340
11
144
0.18
309
CONTENTFORMAT_END
171
     1
301
MARGIN
  1
CELLMARGIN_BEGIN
 40
0.06
 40
0.06
 40
0.06
 40
0.06
 40
0.18
 40
0.18
309
CELLMARGIN_END
 94
        6
 95
        1
302
GRIDFORMAT
  1
GRIDFORMAT_BEGIN
 90
        0
 91
        1
 62
     0
 92
       -2
340
14
 93
        0
 40
0.045
309
GRIDFORMAT_END
 95
        2
302
GRIDFORMAT
  1
GRIDFORMAT_BEGIN
 90
        0
 91
        1
 62
     0
 92
       -2
340
14
 93
        0
 40
0.045
309
GRIDFORMAT_END
 95
        4
302
GRIDFORMAT
  1
GRIDFORMAT_BEGIN
 90
        0
 91
        1
 62
     0
 92
       -2
340
14
 93
        0
 40
0.045
309
GRIDFORMAT_END
 95
        8
302
GRIDFORMAT
  1
GRIDFORMAT_BEGIN
 90
        0
 91
        1
 62
     0
 92
       -2
340
14
 93
        0
 40
0.045
309
GRIDFORMAT_END
 95
       16
302
GRIDFORMAT
  1
GRIDFORMAT_BEGIN
 90
        0
 91
        1
 62
     0
 92
       -2
340
14
 93
        0
 40
0.045
309
GRIDFORMAT_END
 95
       32
302
GRIDFORMAT
  1
GRIDFORMAT_BEGIN
 90
        0
 91
        1
 62
     0
 92
       -2
340
14
 93
        0
 40
0.045
309
GRIDFORMAT_END
309
TABLEFORMAT_END
  1
CELLSTYLE_BEGIN
 90
        3
 91
        2
300
_DATA
309
CELLSTYLE_END
  0
XRECORD
  5
13F
102
{ACAD_REACTORS
330
F5
102
}
330
F5
100
AcDbXrecord
280
     1
102
ACAD_ROUNDTRIP_PRE2007_TABLESTYLE
 90
        4
 91
        0
  1

 92
        4
 93
        0
  2

 94
        4
 95
        0
  3

  0
XRECORD
  5
CE
102
{ACAD_REACTORS
330
CD
102
}
330
CD
100
AcDbXrecord
280
     1
102
RTVSPropertyOp33
 70
     1
102
RTVSPropertyOp34
 70
     1
102
RTVSPropertyOp35
 70
     1
102
RTVSPropertyOp36
 70
     1
102
RTVSPropertyOp37
 70
     1
102
RTVSPropertyOp38
 70
     1
102
RTVSPropertyOp39
 70
     1
102
RTVSPropertyOp40
 70
     1
102
RTVSPropertyOp41
 70
     1
102
RTVSPropertyOp42
 70
     1
102
RTVSPropertyOp43
 70
     1
102
RTVSPropertyOp44
 70
     1
102
RTVSPropertyOp45
 70
     1
102
RTVSPropertyOp46
 70
     1
102
RTVSPropertyOp47
 70
     1
102
RTVSPropertyOp48
 70
     1
102
RTVSPropertyOp49
 70
     1
102
RTVSPropertyOp50
 70
     1
102
RTVSPropertyOp51
 70
     0
102
RTVSPropertyOp52
 70
     0
102
RTVSPropertyOp53
 70
     1
102
RTVSPropertyOp54
 70
     1
102
RTVSPropertyOp55
 70
     1
102
RTVSPropertyOp56
 70
     1
102
RTVSPropertyOp57
 70
     1
102
RTVSPost2010Prop28
280
     1
102
RTVSPost2010PropOp28
 70
     1
102
RTVSPost2010Prop29
280
     1
102
RTVSPost2010PropOp29
 70
     1
102
RTVSPost2010Prop30
280
     0
102
RTVSPost2010PropOp30
 70
     1
102
RTVSPost2010Prop31
280
     0
102
RTVSPost2010PropOp31
 70
     1
102
RTVSPost2010Prop32
280
     0
102
RTVSPost2010PropOp32
 70
     1
102
RTVSPost2010Prop33
280
     0
102
RTVSPost2010PropOp33
 70
     1
102
RTVSPost2010Prop34
280
     0
102
RTVSPost2010PropOp34
 70
     1
102
RTVSPost2010Prop35
280
     0
102
RTVSPost2010PropOp35
 70
     1
102
RTVSPost2010Prop36
280
     0
102
RTVSPost2010PropOp36
 70
     1
102
RTVSPost2010Prop37
 90
       50
102
RTVSPost2010PropOp37
 70
     1
102
RTVSPost2010Prop38
140
0.0
102
RTVSPost2010PropOp38
 70
     1
102
RTVSPost2010Prop39
140
1.0
102
RTVSPost2010PropOp39
 70
     1
102
RTVSPost2010Prop40
 90
        0
102
RTVSPost2010PropOp40
 70
     1
102
RTVSPost2010Prop41ColorIndex
 90
       18
102
RTVSPost2010Prop41ColorRGB
 90
        0
102
RTVSPost2010PropOp41
 70
     1
102
RTVSPost2010Prop42
 90
       50
102
RTVSPost2010PropOp42
 70
     1
102
RTVSPost2010Prop43
 90
        3
102
RTVSPost2010PropOp43
 70
     1
102
RTVSPost2010Prop44ColorIndex
 90
        5
102
RTVSPost2010Prop44ColorRGB
 90
      255
102
RTVSPost2010PropOp44
 70
     1
102
RTVSPost2010Prop45
280
     0
102
RTVSPost2010PropOp45
 70
     1
102
RTVSPost2010Prop46
 90
       50
102
RTVSPost2010PropOp46
 70
     1
102
RTVSPost2010Prop47
 90
       50
102
RTVSPost2010PropOp47
 70
     1
102
RTVSPost2010Prop48
 90
       50
102
RTVSPost2010PropOp48
 70
     1
102
RTVSPost2010Prop49
280
     0
102
RTVSPost2010PropOp49
 70
     1
102
RTVSPost2010Prop50
 90
       50
102
RTVSPost2010PropOp50
 70
     1
102
RTVSPost2010Prop51ColorIndex
 90
      256
102
RTVSPost2010Prop51ColorRGB
 90
-16777216
102
RTVSPost2010PropOp51
 70
     0
102
RTVSPost2010Prop52
140
1.0
102
RTVSPost2010PropOp52
 70
     0
102
RTVSPost2010Prop53
 90
        2
102
RTVSPost2010PropOp53
 70
     1
102
RTVSPost2010Prop54
  1
strokes_ogs.tif
102
RTVSPost2010PropOp54
 70
     1
102
RTVSPost2010Prop55
280
     0
102
RTVSPost2010PropOp55
 70
     1
102
RTVSPost2010Prop56
140
1.0
102
RTVSPost2010PropOp56
 70
     1
102
RTVSPost2010Prop57
140
1.0
102
RTVSPost2010PropOp57
 70
     1
102
RTVSPropertyOp0
 70
     1
102
RTVSPropertyOp1
 70
     1
102
RTVSPropertyOp2
 70
     1
102
RTVSPropertyOp3
 70
     1
102
RTVSPropertyOp4
 70
     1
102
RTVSPropertyOp5
 70
     1
102
RTVSPropertyOp6
 70
     1
102
RTVSPropertyOp7
 70
     1
102
RTVSPropertyOp8
 70
     1
102
RTVSPropertyOp9
 70
     1
102
RTVSPropertyOp10
 70
     1
102
RTVSPropertyOp11
 70
     1
102
RTVSPropertyOp12
 70
     1
102
RTVSPropertyOp13
 70
     1
102
RTVSPropertyOp14
 70
     1
102
RTVSPropertyOp15
 70
     1
102
RTVSPropertyOp16
 70
     1
102
RTVSPropertyOp17
 70
     1
102
RTVSPropertyOp18
 70
     1
102
RTVSPropertyOp19
 70
     1
102
RTVSPropertyOp20
 70
     1
102
RTVSPropertyOp21
 70
     1
102
RTVSPropertyOp22
 70
     1
102
RTVSPropertyOp23
 70
     1
102
RTVSPropertyOp24
 70
     1
102
RTVSPropertyOp25
 70
     1
102
RTVSPropertyOp26
 70
     1
102
RTVSPropertyOp27
 70
     1
102
RTVSPropertyOp28
 70
     1
102
RTVSPropertyOp29
 70
     1
102
RTVSPropertyOp30
 70
     1
102
RTVSPropertyOp31
 70
     1
102
RTVSPropertyOp32
 70
     1
  0
XRECORD
  5
D4
102
{ACAD_REACTORS
330
D3
102
}
330
D3
100
AcDbXrecord
280
     1
102
RTVSPropertyOp33
 70
     1
102
RTVSPropertyOp34
 70
     1
102
RTVSPropertyOp35
 70
     1
102
RTVSPropertyOp36
 70
     1
102
RTVSPropertyOp37
 70
     1
102
RTVSPropertyOp38
 70
     1
102
RTVSPropertyOp39
 70
     1
102
RTVSPropertyOp40
 70
     1
102
RTVSPropertyOp41
 70
     1
102
RTVSPropertyOp42
 70
     1
102
RTVSPropertyOp43
 70
     1
102
RTVSPropertyOp44
 70
     1
102
RTVSPropertyOp45
 70
     1
102
RTVSPropertyOp46
 70
     1
102
RTVSPropertyOp47
 70
     1
102
RTVSPropertyOp48
 70
     1
102
RTVSPropertyOp49
 70
     1
102
RTVSPropertyOp50
 70
     1
102
RTVSPropertyOp51
 70
     0
102
RTVSPropertyOp52
 70
     0
102
RTVSPropertyOp53
 70
     1
102
RTVSPropertyOp54
 70
     1
102
RTVSPropertyOp55
 70
     1
102
RTVSPropertyOp56
 70
     1
102
RTVSPropertyOp57
 70
     1
102
RTVSPost2010Prop28
280
     0
102
RTVSPost2010PropOp28
 70
     1
102
RTVSPost2010Prop29
280
     1
102
RTVSPost2010PropOp29
 70
     1
102
RTVSPost2010Prop30
280
     1
102
RTVSPost2010PropOp30
 70
     1
102
RTVSPost2010Prop31
280
     0
102
RTVSPost2010PropOp31
 70
     1
102
RTVSPost2010Prop32
280
     0
102
RTVSPost2010PropOp32
 70
     1
102
RTVSPost2010Prop33
280
     0
102
RTVSPost2010PropOp33
 70
     1
102
RTVSPost2010Prop34
280
     0
102
RTVSPost2010PropOp34
 70
     1
102
RTVSPost2010Prop35
280
     0
102
RTVSPost2010PropOp35
 70
     1
102
RTVSPost2010Prop36
280
     0
102
RTVSPost2010PropOp36
 70
     1
102
RTVSPost2010Prop37
 90
       50
102
RTVSPost2010PropOp37
 70
     1
102
RTVSPost2010Prop38
140
0.0
102
RTVSPost2010PropOp38
 70
     1
102
RTVSPost2010Prop39
140
1.0
102
RTVSPost2010PropOp39
 70
     1
102
RTVSPost2010Prop40
 90
        0
102
RTVSPost2010PropOp40
 70
     1
102
RTVSPost2010Prop41ColorIndex
 90
       18
102
RTVSPost2010Prop41ColorRGB
 90
        0
102
RTVSPost2010PropOp41
 70
     1
102
RTVSPost2010Prop42
 90
       50
102
RTVSPost2010PropOp42
 70
     1
102
RTVSPost2010Prop43
 90
        3
102
RTVSPost2010PropOp43
 70
     1
102
RTVSPost2010Prop44ColorIndex
 90
        5
102
RTVSPost2010Prop44ColorRGB
 90
      255
102
RTVSPost2010PropOp44
 70
     1
102
RTVSPost2010Prop45
280
     0
102
RTVSPost2010PropOp45
 70
     1
102
RTVSPost2010Prop46
 90
       50
102
RTVSPost2010PropOp46
 70
     1
102
RTVSPost2010Prop47
 90
       50
102
RTVSPost2010PropOp47
 70
     1
102
RTVSPost2010Prop48
 90
       50
102
RTVSPost2010PropOp48
 70
     1
102
RTVSPost2010Prop49
280
     0
102
RTVSPost2010PropOp49
 70
     1
102
RTVSPost2010Prop50
 90
       50
102
RTVSPost2010PropOp50
 70
     1
102
RTVSPost2010Prop51ColorIndex
 90
      256
102
RTVSPost2010Prop51ColorRGB
 90
-16777216
102
RTVSPost2010PropOp51
 70
     0
102
RTVSPost2010Prop52
140
1.0
102
RTVSPost2010PropOp52
 70
     0
102
RTVSPost2010Prop53
 90
        2
102
RTVSPost2010PropOp53
 70
     1
102
RTVSPost2010Prop54
  1
strokes_ogs.tif
102
RTVSPost2010PropOp54
 70
     1
102
RTVSPost2010Prop55
280
     0
102
RTVSPost2010PropOp55
 70
     1
102
RTVSPost2010Prop56
140
1.0
102
RTVSPost2010PropOp56
 70
     1
102
RTVSPost2010Prop57
140
1.0
102
RTVSPost2010PropOp57
 70
     1
102
RTVSPropertyOp0
 70
     1
102
RTVSPropertyOp1
 70
     1
102
RTVSPropertyOp2
 70
     1
102
RTVSPropertyOp3
 70
     1
102
RTVSPropertyOp4
 70
     1
102
RTVSPropertyOp5
 70
     1
102
RTVSPropertyOp6
 70
     1
102
RTVSPropertyOp7
 70
     1
102
RTVSPropertyOp8
 70
     1
102
RTVSPropertyOp9
 70
     1
102
RTVSPropertyOp10
 70
     1
102
RTVSPropertyOp11
 70
     1
102
RTVSPropertyOp12
 70
     1
102
RTVSPropertyOp13
 70
     1
102
RTVSPropertyOp14
 70
     1
102
RTVSPropertyOp15
 70
     1
102
RTVSPropertyOp16
 70
     1
102
RTVSPropertyOp17
 70
     1
102
RTVSPropertyOp18
 70
     1
102
RTVSPropertyOp19
 70
     1
102
RTVSPropertyOp20
 70
     1
102
RTVSPropertyOp21
 70
     1
102
RTVSPropertyOp22
 70
     1
102
RTVSPropertyOp23
 70
     1
102
RTVSPropertyOp24
 70
     1
102
RTVSPropertyOp25
 70
     1
102
RTVSPropertyOp26
 70
     1
102
RTVSPropertyOp27
 70
     1
102
RTVSPropertyOp28
 70
     1
102
RTVSPropertyOp29
 70
     1
102
RTVSPropertyOp30
 70
     1
102
RTVSPropertyOp31
 70
     1
102
RTVSPropertyOp32
 70
     1
  0
XRECORD
  5
DC
102
{ACAD_REACTORS
330
DB
102
}
330
DB
100
AcDbXrecord
280
     1
102
RTVSPropertyOp33
 70
     1
102
RTVSPropertyOp34
 70
     1
102
RTVSPropertyOp35
 70
     1
102
RTVSPropertyOp36
 70
     1
102
RTVSPropertyOp37
 70
     1
102
RTVSPropertyOp38
 70
     1
102
RTVSPropertyOp39
 70
     1
102
RTVSPropertyOp40
 70
     1
102
RTVSPropertyOp41
 70
     1
102
RTVSPropertyOp42
 70
     1
102
RTVSPropertyOp43
 70
     1
102
RTVSPropertyOp44
 70
     1
102
RTVSPropertyOp45
 70
     1
102
RTVSPropertyOp46
 70
     1
102
RTVSPropertyOp47
 70
     1
102
RTVSPropertyOp48
 70
     1
102
RTVSPropertyOp49
 70
     1
102
RTVSPropertyOp50
 70
     1
102
RTVSPropertyOp51
 70
     0
102
RTVSPropertyOp52
 70
     0
102
RTVSPropertyOp53
 70
     1
102
RTVSPropertyOp54
 70
     1
102
RTVSPropertyOp55
 70
     1
102
RTVSPropertyOp56
 70
     1
102
RTVSPropertyOp57
 70
     1
102
RTVSPost2010Prop28
280
     0
102
RTVSPost2010PropOp28
 70
     1
102
RTVSPost2010Prop29
280
     1
102
RTVSPost2010PropOp29
 70
     1
102
RTVSPost2010Prop30
280
     1
102
RTVSPost2010PropOp30
 70
     1
102
RTVSPost2010Prop31
280
     0
102
RTVSPost2010PropOp31
 70
     1
102
RTVSPost2010Prop32
280
     0
102
RTVSPost2010PropOp32
 70
     1
102
RTVSPost2010Prop33
280
     0
102
RTVSPost2010PropOp33
 70
     1
102
RTVSPost2010Prop34
280
     0
102
RTVSPost2010PropOp34
 70
     1
102
RTVSPost2010Prop35
280
     0
102
RTVSPost2010PropOp35
 70
     1
102
RTVSPost2010Prop36
280
     0
102
RTVSPost2010PropOp36
 70
     1
102
RTVSPost2010Prop37
 90
       50
102
RTVSPost2010PropOp37
 70
     1
102
RTVSPost2010Prop38
140
0.0
102
RTVSPost2010PropOp38
 70
     1
102
RTVSPost2010Prop39
140
1.0
102
RTVSPost2010PropOp39
 70
     1
102
RTVSPost2010Prop40
 90
        0
102
RTVSPost2010PropOp40
 70
     1
102
RTVSPost2010Prop41ColorIndex
 90
       18
102
RTVSPost2010Prop41ColorRGB
 90
        0
102
RTVSPost2010PropOp41
 70
     1
102
RTVSPost2010Prop42
 90
       50
102
RTVSPost2010PropOp42
 70
     1
102
RTVSPost2010Prop43
 90
        3
102
RTVSPost2010PropOp43
 70
     1
102
RTVSPost2010Prop44ColorIndex
 90
        5
102
RTVSPost2010Prop44ColorRGB
 90
      255
102
RTVSPost2010PropOp44
 70
     1
102
RTVSPost2010Prop45
280
     0
102
RTVSPost2010PropOp45
 70
     1
102
RTVSPost2010Prop46
 90
       50
102
RTVSPost2010PropOp46
 70
     1
102
RTVSPost2010Prop47
 90
       50
102
RTVSPost2010PropOp47
 70
     1
102
RTVSPost2010Prop48
 90
       50
102
RTVSPost2010PropOp48
 70
     1
102
RTVSPost2010Prop49
280
     0
102
RTVSPost2010PropOp49
 70
     1
102
RTVSPost2010Prop50
 90
       50
102
RTVSPost2010PropOp50
 70
     1
102
RTVSPost2010Prop51ColorIndex
 90
      256
102
RTVSPost2010Prop51ColorRGB
 90
-16777216
102
RTVSPost2010PropOp51
 70
     0
102
RTVSPost2010Prop52
140
1.0
102
RTVSPost2010PropOp52
 70
     0
102
RTVSPost2010Prop53
 90
        2
102
RTVSPost2010PropOp53
 70
     1
102
RTVSPost2010Prop54
  1
strokes_ogs.tif
102
RTVSPost2010PropOp54
 70
     1
102
RTVSPost2010Prop55
280
     0
102
RTVSPost2010PropOp55
 70
     1
102
RTVSPost2010Prop56
140
1.0
102
RTVSPost2010PropOp56
 70
     1
102
RTVSPost2010Prop57
140
1.0
102
RTVSPost2010PropOp57
 70
     1
102
RTVSPropertyOp0
 70
     1
102
RTVSPropertyOp1
 70
     1
102
RTVSPropertyOp2
 70
     1
102
RTVSPropertyOp3
 70
     1
102
RTVSPropertyOp4
 70
     1
102
RTVSPropertyOp5
 70
     1
102
RTVSPropertyOp6
 70
     1
102
RTVSPropertyOp7
 70
     1
102
RTVSPropertyOp8
 70
     1
102
RTVSPropertyOp9
 70
     1
102
RTVSPropertyOp10
 70
     1
102
RTVSPropertyOp11
 70
     1
102
RTVSPropertyOp12
 70
     1
102
RTVSPropertyOp13
 70
     1
102
RTVSPropertyOp14
 70
     1
102
RTVSPropertyOp15
 70
     1
102
RTVSPropertyOp16
 70
     1
102
RTVSPropertyOp17
 70
     1
102
RTVSPropertyOp18
 70
     1
102
RTVSPropertyOp19
 70
     1
102
RTVSPropertyOp20
 70
     1
102
RTVSPropertyOp21
 70
     1
102
RTVSPropertyOp22
 70
     1
102
RTVSPropertyOp23
 70
     1
102
RTVSPropertyOp24
 70
     1
102
RTVSPropertyOp25
 70
     1
102
RTVSPropertyOp26
 70
     1
102
RTVSPropertyOp27
 70
     1
102
RTVSPropertyOp28
 70
     1
102
RTVSPropertyOp29
 70
     1
102
RTVSPropertyOp30
 70
     1
102
RTVSPropertyOp31
 70
     1
102
RTVSPropertyOp32
 70
     1
  0
XRECORD
  5
E4
102
{ACAD_REACTORS
330
E3
102
}
330
E3
100
AcDbXrecord
280
     1
102
RTVSPropertyOp33
 70
     1
102
RTVSPropertyOp34
 70
     1
102
RTVSPropertyOp35
 70
     1
102
RTVSPropertyOp36
 70
     1
102
RTVSPropertyOp37
 70
     1
102
RTVSPropertyOp38
 70
     1
102
RTVSPropertyOp39
 70
     1
102
RTVSPropertyOp40
 70
     1
102
RTVSPropertyOp41
 70
     1
102
RTVSPropertyOp42
 70
     1
102
RTVSPropertyOp43
 70
     1
102
RTVSPropertyOp44
 70
     1
102
RTVSPropertyOp45
 70
     1
102
RTVSPropertyOp46
 70
     1
102
RTVSPropertyOp47
 70
     1
102
RTVSPropertyOp48
 70
     1
102
RTVSPropertyOp49
 70
     1
102
RTVSPropertyOp50
 70
     1
102
RTVSPropertyOp51
 70
     0
102
RTVSPropertyOp52
 70
     0
102
RTVSPropertyOp53
 70
     1
102
RTVSPropertyOp54
 70
     1
102
RTVSPropertyOp55
 70
     1
102
RTVSPropertyOp56
 70
     1
102
RTVSPropertyOp57
 70
     1
102
RTVSPost2010Prop28
280
     0
102
RTVSPost2010PropOp28
 70
     1
102
RTVSPost2010Prop29
280
     1
102
RTVSPost2010PropOp29
 70
     1
102
RTVSPost2010Prop30
280
     1
102
RTVSPost2010PropOp30
 70
     1
102
RTVSPost2010Prop31
280
     0
102
RTVSPost2010PropOp31
 70
     1
102
RTVSPost2010Prop32
280
     0
102
RTVSPost2010PropOp32
 70
     1
102
RTVSPost2010Prop33
280
     0
102
RTVSPost2010PropOp33
 70
     1
102
RTVSPost2010Prop34
280
     0
102
RTVSPost2010PropOp34
 70
     1
102
RTVSPost2010Prop35
280
     0
102
RTVSPost2010PropOp35
 70
     1
102
RTVSPost2010Prop36
280
     0
102
RTVSPost2010PropOp36
 70
     1
102
RTVSPost2010Prop37
 90
       50
102
RTVSPost2010PropOp37
 70
     1
102
RTVSPost2010Prop38
140
0.0
102
RTVSPost2010PropOp38
 70
     1
102
RTVSPost2010Prop39
140
1.0
102
RTVSPost2010PropOp39
 70
     1
102
RTVSPost2010Prop40
 90
        0
102
RTVSPost2010PropOp40
 70
     1
102
RTVSPost2010Prop41ColorIndex
 90
       18
102
RTVSPost2010Prop41ColorRGB
 90
        0
102
RTVSPost2010PropOp41
 70
     1
102
RTVSPost2010Prop42
 90
       50
102
RTVSPost2010PropOp42
 70
     1
102
RTVSPost2010Prop43
 90
        3
102
RTVSPost2010PropOp43
 70
     1
102
RTVSPost2010Prop44ColorIndex
 90
        5
102
RTVSPost2010Prop44ColorRGB
 90
      255
102
RTVSPost2010PropOp44
 70
     1
102
RTVSPost2010Prop45
280
     0
102
RTVSPost2010PropOp45
 70
     1
102
RTVSPost2010Prop46
 90
       50
102
RTVSPost2010PropOp46
 70
     1
102
RTVSPost2010Prop47
 90
       50
102
RTVSPost2010PropOp47
 70
     1
102
RTVSPost2010Prop48
 90
       50
102
RTVSPost2010PropOp48
 70
     1
102
RTVSPost2010Prop49
280
     0
102
RTVSPost2010PropOp49
 70
     1
102
RTVSPost2010Prop50
 90
       50
102
RTVSPost2010PropOp50
 70
     1
102
RTVSPost2010Prop51ColorIndex
 90
      256
102
RTVSPost2010Prop51ColorRGB
 90
-16777216
102
RTVSPost2010PropOp51
 70
     0
102
RTVSPost2010Prop52
140
1.0
102
RTVSPost2010PropOp52
 70
     0
102
RTVSPost2010Prop53
 90
        2
102
RTVSPost2010PropOp53
 70
     1
102
RTVSPost2010Prop54
  1
strokes_ogs.tif
102
RTVSPost2010PropOp54
 70
     1
102
RTVSPost2010Prop55
280
     0
102
RTVSPost2010PropOp55
 70
     1
102
RTVSPost2010Prop56
140
1.0
102
RTVSPost2010PropOp56
 70
     1
102
RTVSPost2010Prop57
140
1.0
102
RTVSPost2010PropOp57
 70
     1
102
RTVSPropertyOp0
 70
     1
102
RTVSPropertyOp1
 70
     1
102
RTVSPropertyOp2
 70
     1
102
RTVSPropertyOp3
 70
     1
102
RTVSPropertyOp4
 70
     1
102
RTVSPropertyOp5
 70
     1
102
RTVSPropertyOp6
 70
     1
102
RTVSPropertyOp7
 70
     1
102
RTVSPropertyOp8
 70
     1
102
RTVSPropertyOp9
 70
     1
102
RTVSPropertyOp10
 70
     1
102
RTVSPropertyOp11
 70
     1
102
RTVSPropertyOp12
 70
     1
102
RTVSPropertyOp13
 70
     1
102
RTVSPropertyOp14
 70
     1
102
RTVSPropertyOp15
 70
     1
102
RTVSPropertyOp16
 70
     1
102
RTVSPropertyOp17
 70
     1
102
RTVSPropertyOp18
 70
     1
102
RTVSPropertyOp19
 70
     1
102
RTVSPropertyOp20
 70
     1
102
RTVSPropertyOp21
 70
     1
102
RTVSPropertyOp22
 70
     1
102
RTVSPropertyOp23
 70
     1
102
RTVSPropertyOp24
 70
     1
102
RTVSPropertyOp25
 70
     1
102
RTVSPropertyOp26
 70
     1
102
RTVSPropertyOp27
 70
     1
102
RTVSPropertyOp28
 70
     1
102
RTVSPropertyOp29
 70
     1
102
RTVSPropertyOp30
 70
     1
102
RTVSPropertyOp31
 70
     1
102
RTVSPropertyOp32
 70
     1
  0
XRECORD
  5
D8
102
{ACAD_REACTORS
330
D7
102
}
330
D7
100
AcDbXrecord
280
     1
102
RTVSPropertyOp33
 70
     1
102
RTVSPropertyOp34
 70
     1
102
RTVSPropertyOp35
 70
     1
102
RTVSPropertyOp36
 70
     1
102
RTVSPropertyOp37
 70
     1
102
RTVSPropertyOp38
 70
     1
102
RTVSPropertyOp39
 70
     1
102
RTVSPropertyOp40
 70
     1
102
RTVSPropertyOp41
 70
     1
102
RTVSPropertyOp42
 70
     1
102
RTVSPropertyOp43
 70
     1
102
RTVSPropertyOp44
 70
     1
102
RTVSPropertyOp45
 70
     1
102
RTVSPropertyOp46
 70
     1
102
RTVSPropertyOp47
 70
     1
102
RTVSPropertyOp48
 70
     1
102
RTVSPropertyOp49
 70
     1
102
RTVSPropertyOp50
 70
     1
102
RTVSPropertyOp51
 70
     0
102
RTVSPropertyOp52
 70
     0
102
RTVSPropertyOp53
 70
     1
102
RTVSPropertyOp54
 70
     1
102
RTVSPropertyOp55
 70
     1
102
RTVSPropertyOp56
 70
     1
102
RTVSPropertyOp57
 70
     1
102
RTVSPost2010Prop28
280
     0
102
RTVSPost2010PropOp28
 70
     1
102
RTVSPost2010Prop29
280
     1
102
RTVSPost2010PropOp29
 70
     1
102
RTVSPost2010Prop30
280
     1
102
RTVSPost2010PropOp30
 70
     1
102
RTVSPost2010Prop31
280
     0
102
RTVSPost2010PropOp31
 70
     1
102
RTVSPost2010Prop32
280
     0
102
RTVSPost2010PropOp32
 70
     1
102
RTVSPost2010Prop33
280
     0
102
RTVSPost2010PropOp33
 70
     1
102
RTVSPost2010Prop34
280
     0
102
RTVSPost2010PropOp34
 70
     1
102
RTVSPost2010Prop35
280
     0
102
RTVSPost2010PropOp35
 70
     1
102
RTVSPost2010Prop36
280
     0
102
RTVSPost2010PropOp36
 70
     1
102
RTVSPost2010Prop37
 90
       50
102
RTVSPost2010PropOp37
 70
     1
102
RTVSPost2010Prop38
140
0.0
102
RTVSPost2010PropOp38
 70
     1
102
RTVSPost2010Prop39
140
1.0
102
RTVSPost2010PropOp39
 70
     1
102
RTVSPost2010Prop40
 90
        0
102
RTVSPost2010PropOp40
 70
     1
102
RTVSPost2010Prop41ColorIndex
 90
       18
102
RTVSPost2010Prop41ColorRGB
 90
        0
102
RTVSPost2010PropOp41
 70
     1
102
RTVSPost2010Prop42
 90
       50
102
RTVSPost2010PropOp42
 70
     1
102
RTVSPost2010Prop43
 90
        3
102
RTVSPost2010PropOp43
 70
     1
102
RTVSPost2010Prop44ColorIndex
 90
        5
102
RTVSPost2010Prop44ColorRGB
 90
      255
102
RTVSPost2010PropOp44
 70
     1
102
RTVSPost2010Prop45
280
     0
102
RTVSPost2010PropOp45
 70
     1
102
RTVSPost2010Prop46
 90
       50
102
RTVSPost2010PropOp46
 70
     1
102
RTVSPost2010Prop47
 90
       50
102
RTVSPost2010PropOp47
 70
     1
102
RTVSPost2010Prop48
 90
       50
102
RTVSPost2010PropOp48
 70
     1
102
RTVSPost2010Prop49
280
     0
102
RTVSPost2010PropOp49
 70
     1
102
RTVSPost2010Prop50
 90
       50
102
RTVSPost2010PropOp50
 70
     1
102
RTVSPost2010Prop51ColorIndex
 90
      256
102
RTVSPost2010Prop51ColorRGB
 90
-16777216
102
RTVSPost2010PropOp51
 70
     0
102
RTVSPost2010Prop52
140
1.0
102
RTVSPost2010PropOp52
 70
     0
102
RTVSPost2010Prop53
 90
        2
102
RTVSPost2010PropOp53
 70
     1
102
RTVSPost2010Prop54
  1
strokes_ogs.tif
102
RTVSPost2010PropOp54
 70
     1
102
RTVSPost2010Prop55
280
     0
102
RTVSPost2010PropOp55
 70
     1
102
RTVSPost2010Prop56
140
1.0
102
RTVSPost2010PropOp56
 70
     1
102
RTVSPost2010Prop57
140
1.0
102
RTVSPost2010PropOp57
 70
     1
102
RTVSPropertyOp0
 70
     1
102
RTVSPropertyOp1
 70
     1
102
RTVSPropertyOp2
 70
     1
102
RTVSPropertyOp3
 70
     1
102
RTVSPropertyOp4
 70
     1
102
RTVSPropertyOp5
 70
     1
102
RTVSPropertyOp6
 70
     1
102
RTVSPropertyOp7
 70
     1
102
RTVSPropertyOp8
 70
     1
102
RTVSPropertyOp9
 70
     1
102
RTVSPropertyOp10
 70
     1
102
RTVSPropertyOp11
 70
     1
102
RTVSPropertyOp12
 70
     1
102
RTVSPropertyOp13
 70
     1
102
RTVSPropertyOp14
 70
     1
102
RTVSPropertyOp15
 70
     1
102
RTVSPropertyOp16
 70
     1
102
RTVSPropertyOp17
 70
     1
102
RTVSPropertyOp18
 70
     1
102
RTVSPropertyOp19
 70
     1
102
RTVSPropertyOp20
 70
     1
102
RTVSPropertyOp21
 70
     1
102
RTVSPropertyOp22
 70
     1
102
RTVSPropertyOp23
 70
     1
102
RTVSPropertyOp24
 70
     1
102
RTVSPropertyOp25
 70
     1
102
RTVSPropertyOp26
 70
     1
102
RTVSPropertyOp27
 70
     1
102
RTVSPropertyOp28
 70
     1
102
RTVSPropertyOp29
 70
     1
102
RTVSPropertyOp30
 70
     1
102
RTVSPropertyOp31
 70
     1
102
RTVSPropertyOp32
 70
     1
  0
XRECORD
  5
DA
102
{ACAD_REACTORS
330
D9
102
}
330
D9
100
AcDbXrecord
280
     1
102
RTVSPropertyOp33
 70
     1
102
RTVSPropertyOp34
 70
     1
102
RTVSPropertyOp35
 70
     1
102
RTVSPropertyOp36
 70
     1
102
RTVSPropertyOp37
 70
     1
102
RTVSPropertyOp38
 70
     1
102
RTVSPropertyOp39
 70
     1
102
RTVSPropertyOp40
 70
     1
102
RTVSPropertyOp41
 70
     1
102
RTVSPropertyOp42
 70
     1
102
RTVSPropertyOp43
 70
     1
102
RTVSPropertyOp44
 70
     1
102
RTVSPropertyOp45
 70
     1
102
RTVSPropertyOp46
 70
     1
102
RTVSPropertyOp47
 70
     1
102
RTVSPropertyOp48
 70
     1
102
RTVSPropertyOp49
 70
     1
102
RTVSPropertyOp50
 70
     1
102
RTVSPropertyOp51
 70
     0
102
RTVSPropertyOp52
 70
     0
102
RTVSPropertyOp53
 70
     1
102
RTVSPropertyOp54
 70
     1
102
RTVSPropertyOp55
 70
     1
102
RTVSPropertyOp56
 70
     1
102
RTVSPropertyOp57
 70
     1
102
RTVSPost2010Prop28
280
     0
102
RTVSPost2010PropOp28
 70
     1
102
RTVSPost2010Prop29
280
     1
102
RTVSPost2010PropOp29
 70
     1
102
RTVSPost2010Prop30
280
     1
102
RTVSPost2010PropOp30
 70
     1
102
RTVSPost2010Prop31
280
     0
102
RTVSPost2010PropOp31
 70
     1
102
RTVSPost2010Prop32
280
     0
102
RTVSPost2010PropOp32
 70
     1
102
RTVSPost2010Prop33
280
     0
102
RTVSPost2010PropOp33
 70
     1
102
RTVSPost2010Prop34
280
     0
102
RTVSPost2010PropOp34
 70
     1
102
RTVSPost2010Prop35
280
     0
102
RTVSPost2010PropOp35
 70
     1
102
RTVSPost2010Prop36
280
     0
102
RTVSPost2010PropOp36
 70
     1
102
RTVSPost2010Prop37
 90
       50
102
RTVSPost2010PropOp37
 70
     1
102
RTVSPost2010Prop38
140
0.0
102
RTVSPost2010PropOp38
 70
     1
102
RTVSPost2010Prop39
140
1.0
102
RTVSPost2010PropOp39
 70
     1
102
RTVSPost2010Prop40
 90
        0
102
RTVSPost2010PropOp40
 70
     1
102
RTVSPost2010Prop41ColorIndex
 90
       18
102
RTVSPost2010Prop41ColorRGB
 90
        0
102
RTVSPost2010PropOp41
 70
     1
102
RTVSPost2010Prop42
 90
       50
102
RTVSPost2010PropOp42
 70
     1
102
RTVSPost2010Prop43
 90
        3
102
RTVSPost2010PropOp43
 70
     1
102
RTVSPost2010Prop44ColorIndex
 90
        5
102
RTVSPost2010Prop44ColorRGB
 90
      255
102
RTVSPost2010PropOp44
 70
     1
102
RTVSPost2010Prop45
280
     0
102
RTVSPost2010PropOp45
 70
     1
102
RTVSPost2010Prop46
 90
       50
102
RTVSPost2010PropOp46
 70
     1
102
RTVSPost2010Prop47
 90
       50
102
RTVSPost2010PropOp47
 70
     1
102
RTVSPost2010Prop48
 90
       50
102
RTVSPost2010PropOp48
 70
     1
102
RTVSPost2010Prop49
280
     0
102
RTVSPost2010PropOp49
 70
     1
102
RTVSPost2010Prop50
 90
       50
102
RTVSPost2010PropOp50
 70
     1
102
RTVSPost2010Prop51ColorIndex
 90
      256
102
RTVSPost2010Prop51ColorRGB
 90
-16777216
102
RTVSPost2010PropOp51
 70
     0
102
RTVSPost2010Prop52
140
1.0
102
RTVSPost2010PropOp52
 70
     0
102
RTVSPost2010Prop53
 90
        2
102
RTVSPost2010PropOp53
 70
     1
102
RTVSPost2010Prop54
  1
strokes_ogs.tif
102
RTVSPost2010PropOp54
 70
     1
102
RTVSPost2010Prop55
280
     0
102
RTVSPost2010PropOp55
 70
     1
102
RTVSPost2010Prop56
140
1.0
102
RTVSPost2010PropOp56
 70
     1
102
RTVSPost2010Prop57
140
1.0
102
RTVSPost2010PropOp57
 70
     1
102
RTVSPropertyOp0
 70
     1
102
RTVSPropertyOp1
 70
     1
102
RTVSPropertyOp2
 70
     1
102
RTVSPropertyOp3
 70
     1
102
RTVSPropertyOp4
 70
     1
102
RTVSPropertyOp5
 70
     1
102
RTVSPropertyOp6
 70
     1
102
RTVSPropertyOp7
 70
     1
102
RTVSPropertyOp8
 70
     1
102
RTVSPropertyOp9
 70
     1
102
RTVSPropertyOp10
 70
     1
102
RTVSPropertyOp11
 70
     1
102
RTVSPropertyOp12
 70
     1
102
RTVSPropertyOp13
 70
     1
102
RTVSPropertyOp14
 70
     1
102
RTVSPropertyOp15
 70
     1
102
RTVSPropertyOp16
 70
     1
102
RTVSPropertyOp17
 70
     1
102
RTVSPropertyOp18
 70
     1
102
RTVSPropertyOp19
 70
     1
102
RTVSPropertyOp20
 70
     1
102
RTVSPropertyOp21
 70
     1
102
RTVSPropertyOp22
 70
     1
102
RTVSPropertyOp23
 70
     1
102
RTVSPropertyOp24
 70
     1
102
RTVSPropertyOp25
 70
     1
102
RTVSPropertyOp26
 70
     1
102
RTVSPropertyOp27
 70
     1
102
RTVSPropertyOp28
 70
     1
102
RTVSPropertyOp29
 70
     1
102
RTVSPropertyOp30
 70
     1
102
RTVSPropertyOp31
 70
     1
102
RTVSPropertyOp32
 70
     1
  0
XRECORD
  5
EA
102
{ACAD_REACTORS
330
E9
102
}
330
E9
100
AcDbXrecord
280
     1
102
RTVSPropertyOp33
 70
     0
102
RTVSPropertyOp34
 70
     0
102
RTVSPropertyOp35
 70
     0
102
RTVSPropertyOp36
 70
     0
102
RTVSPropertyOp37
 70
     0
102
RTVSPropertyOp38
 70
     0
102
RTVSPropertyOp39
 70
     0
102
RTVSPropertyOp40
 70
     0
102
RTVSPropertyOp41
 70
     0
102
RTVSPropertyOp42
 70
     0
102
RTVSPropertyOp43
 70
     0
102
RTVSPropertyOp44
 70
     0
102
RTVSPropertyOp45
 70
     0
102
RTVSPropertyOp46
 70
     0
102
RTVSPropertyOp47
 70
     0
102
RTVSPropertyOp48
 70
     0
102
RTVSPropertyOp49
 70
     0
102
RTVSPropertyOp50
 70
     0
102
RTVSPropertyOp51
 70
     0
102
RTVSPropertyOp52
 70
     0
102
RTVSPropertyOp53
 70
     0
102
RTVSPropertyOp54
 70
     0
102
RTVSPropertyOp55
 70
     0
102
RTVSPropertyOp56
 70
     0
102
RTVSPropertyOp57
 70
     0
102
RTVSPost2010Prop28
280
     0
102
RTVSPost2010PropOp28
 70
     0
102
RTVSPost2010Prop29
280
     1
102
RTVSPost2010PropOp29
 70
     0
102
RTVSPost2010Prop30
280
     1
102
RTVSPost2010PropOp30
 70
     0
102
RTVSPost2010Prop31
280
     0
102
RTVSPost2010PropOp31
 70
     0
102
RTVSPost2010Prop32
280
     0
102
RTVSPost2010PropOp32
 70
     0
102
RTVSPost2010Prop33
280
     0
102
RTVSPost2010PropOp33
 70
     0
102
RTVSPost2010Prop34
280
     0
102
RTVSPost2010PropOp34
 70
     0
102
RTVSPost2010Prop35
280
     0
102
RTVSPost2010PropOp35
 70
     0
102
RTVSPost2010Prop36
280
     0
102
RTVSPost2010PropOp36
 70
     0
102
RTVSPost2010Prop37
 90
       50
102
RTVSPost2010PropOp37
 70
     0
102
RTVSPost2010Prop38
140
0.0
102
RTVSPost2010PropOp38
 70
     0
102
RTVSPost2010Prop39
140
1.0
102
RTVSPost2010PropOp39
 70
     0
102
RTVSPost2010Prop40
 90
        0
102
RTVSPost2010PropOp40
 70
     0
102
RTVSPost2010Prop41ColorIndex
 90
       18
102
RTVSPost2010Prop41ColorRGB
 90
        0
102
RTVSPost2010PropOp41
 70
     0
102
RTVSPost2010Prop42
 90
       50
102
RTVSPost2010PropOp42
 70
     0
102
RTVSPost2010Prop43
 90
        3
102
RTVSPost2010PropOp43
 70
     0
102
RTVSPost2010Prop44ColorIndex
 90
        5
102
RTVSPost2010Prop44ColorRGB
 90
      255
102
RTVSPost2010PropOp44
 70
     0
102
RTVSPost2010Prop45
280
     0
102
RTVSPost2010PropOp45
 70
     0
102
RTVSPost2010Prop46
 90
       50
102
RTVSPost2010PropOp46
 70
     0
102
RTVSPost2010Prop47
 90
       50
102
RTVSPost2010PropOp47
 70
     0
102
RTVSPost2010Prop48
 90
       50
102
RTVSPost2010PropOp48
 70
     0
102
RTVSPost2010Prop49
280
     0
102
RTVSPost2010PropOp49
 70
     0
102
RTVSPost2010Prop50
 90
       50
102
RTVSPost2010PropOp50
 70
     0
102
RTVSPost2010Prop51ColorIndex
 90
      256
102
RTVSPost2010Prop51ColorRGB
 90
-16777216
102
RTVSPost2010PropOp51
 70
     0
102
RTVSPost2010Prop52
140
1.0
102
RTVSPost2010PropOp52
 70
     0
102
RTVSPost2010Prop53
 90
        2
102
RTVSPost2010PropOp53
 70
     0
102
RTVSPost2010Prop54
  1
strokes_ogs.tif
102
RTVSPost2010PropOp54
 70
     0
102
RTVSPost2010Prop55
280
     0
102
RTVSPost2010PropOp55
 70
     0
102
RTVSPost2010Prop56
140
1.0
102
RTVSPost2010PropOp56
 70
     0
102
RTVSPost2010Prop57
140
1.0
102
RTVSPost2010PropOp57
 70
     0
102
RTVSPropertyOp0
 70
     0
102
RTVSPropertyOp1
 70
     0
102
RTVSPropertyOp2
 70
     0
102
RTVSPropertyOp3
 70
     0
102
RTVSPropertyOp4
 70
     0
102
RTVSPropertyOp5
 70
     0
102
RTVSPropertyOp6
 70
     0
102
RTVSPropertyOp7
 70
     0
102
RTVSPropertyOp8
 70
     0
102
RTVSPropertyOp9
 70
     0
102
RTVSPropertyOp10
 70
     0
102
RTVSPropertyOp11
 70
     0
102
RTVSPropertyOp12
 70
     0
102
RTVSPropertyOp13
 70
     0
102
RTVSPropertyOp14
 70
     2
102
RTVSPropertyOp15
 70
     0
102
RTVSPropertyOp16
 70
     0
102
RTVSPropertyOp17
 70
     0
102
RTVSPropertyOp18
 70
     0
102
RTVSPropertyOp19
 70
     0
102
RTVSPropertyOp20
 70
     0
102
RTVSPropertyOp21
 70
     0
102
RTVSPropertyOp22
 70
     0
102
RTVSPropertyOp23
 70
     0
102
RTVSPropertyOp24
 70
     0
102
RTVSPropertyOp25
 70
     0
102
RTVSPropertyOp26
 70
     0
102
RTVSPropertyOp27
 70
     0
102
RTVSPropertyOp28
 70
     1
102
RTVSPropertyOp29
 70
     1
102
RTVSPropertyOp30
 70
     1
102
RTVSPropertyOp31
 70
     1
102
RTVSPropertyOp32
 70
     1
  0
XRECORD
  5
E2
102
{ACAD_REACTORS
330
E1
102
}
330
E1
100
AcDbXrecord
280
     1
102
RTVSPropertyOp33
 70
     1
102
RTVSPropertyOp34
 70
     1
102
RTVSPropertyOp35
 70
     1
102
RTVSPropertyOp36
 70
     1
102
RTVSPropertyOp37
 70
     1
102
RTVSPropertyOp38
 70
     1
102
RTVSPropertyOp39
 70
     1
102
RTVSPropertyOp40
 70
     1
102
RTVSPropertyOp41
 70
     1
102
RTVSPropertyOp42
 70
     1
102
RTVSPropertyOp43
 70
     1
102
RTVSPropertyOp44
 70
     1
102
RTVSPropertyOp45
 70
     1
102
RTVSPropertyOp46
 70
     1
102
RTVSPropertyOp47
 70
     1
102
RTVSPropertyOp48
 70
     1
102
RTVSPropertyOp49
 70
     1
102
RTVSPropertyOp50
 70
     1
102
RTVSPropertyOp51
 70
     0
102
RTVSPropertyOp52
 70
     0
102
RTVSPropertyOp53
 70
     1
102
RTVSPropertyOp54
 70
     1
102
RTVSPropertyOp55
 70
     1
102
RTVSPropertyOp56
 70
     1
102
RTVSPropertyOp57
 70
     1
102
RTVSPost2010Prop28
280
     0
102
RTVSPost2010PropOp28
 70
     1
102
RTVSPost2010Prop29
280
     1
102
RTVSPost2010PropOp29
 70
     1
102
RTVSPost2010Prop30
280
     1
102
RTVSPost2010PropOp30
 70
     1
102
RTVSPost2010Prop31
280
     0
102
RTVSPost2010PropOp31
 70
     1
102
RTVSPost2010Prop32
280
     0
102
RTVSPost2010PropOp32
 70
     1
102
RTVSPost2010Prop33
280
     0
102
RTVSPost2010PropOp33
 70
     1
102
RTVSPost2010Prop34
280
     0
102
RTVSPost2010PropOp34
 70
     1
102
RTVSPost2010Prop35
280
     0
102
RTVSPost2010PropOp35
 70
     1
102
RTVSPost2010Prop36
280
     0
102
RTVSPost2010PropOp36
 70
     1
102
RTVSPost2010Prop37
 90
       50
102
RTVSPost2010PropOp37
 70
     1
102
RTVSPost2010Prop38
140
0.0
102
RTVSPost2010PropOp38
 70
     1
102
RTVSPost2010Prop39
140
1.0
102
RTVSPost2010PropOp39
 70
     1
102
RTVSPost2010Prop40
 90
        0
102
RTVSPost2010PropOp40
 70
     1
102
RTVSPost2010Prop41ColorIndex
 90
       18
102
RTVSPost2010Prop41ColorRGB
 90
        0
102
RTVSPost2010PropOp41
 70
     1
102
RTVSPost2010Prop42
 90
       50
102
RTVSPost2010PropOp42
 70
     1
102
RTVSPost2010Prop43
 90
        3
102
RTVSPost2010PropOp43
 70
     1
102
RTVSPost2010Prop44ColorIndex
 90
        5
102
RTVSPost2010Prop44ColorRGB
 90
      255
102
RTVSPost2010PropOp44
 70
     1
102
RTVSPost2010Prop45
280
     0
102
RTVSPost2010PropOp45
 70
     1
102
RTVSPost2010Prop46
 90
       50
102
RTVSPost2010PropOp46
 70
     1
102
RTVSPost2010Prop47
 90
       50
102
RTVSPost2010PropOp47
 70
     1
102
RTVSPost2010Prop48
 90
       50
102
RTVSPost2010PropOp48
 70
     1
102
RTVSPost2010Prop49
280
     0
102
RTVSPost2010PropOp49
 70
     1
102
RTVSPost2010Prop50
 90
       50
102
RTVSPost2010PropOp50
 70
     1
102
RTVSPost2010Prop51ColorIndex
 90
      256
102
RTVSPost2010Prop51ColorRGB
 90
-16777216
102
RTVSPost2010PropOp51
 70
     0
102
RTVSPost2010Prop52
140
1.0
102
RTVSPost2010PropOp52
 70
     0
102
RTVSPost2010Prop53
 90
        2
102
RTVSPost2010PropOp53
 70
     1
102
RTVSPost2010Prop54
  1
strokes_ogs.tif
102
RTVSPost2010PropOp54
 70
     1
102
RTVSPost2010Prop55
280
     0
102
RTVSPost2010PropOp55
 70
     1
102
RTVSPost2010Prop56
140
1.0
102
RTVSPost2010PropOp56
 70
     1
102
RTVSPost2010Prop57
140
1.0
102
RTVSPost2010PropOp57
 70
     1
102
RTVSPropertyOp0
 70
     1
102
RTVSPropertyOp1
 70
     1
102
RTVSPropertyOp2
 70
     1
102
RTVSPropertyOp3
 70
     1
102
RTVSPropertyOp4
 70
     1
102
RTVSPropertyOp5
 70
     1
102
RTVSPropertyOp6
 70
     1
102
RTVSPropertyOp7
 70
     1
102
RTVSPropertyOp8
 70
     1
102
RTVSPropertyOp9
 70
     1
102
RTVSPropertyOp10
 70
     1
102
RTVSPropertyOp11
 70
     1
102
RTVSPropertyOp12
 70
     1
102
RTVSPropertyOp13
 70
     1
102
RTVSPropertyOp14
 70
     1
102
RTVSPropertyOp15
 70
     1
102
RTVSPropertyOp16
 70
     1
102
RTVSPropertyOp17
 70
     1
102
RTVSPropertyOp18
 70
     1
102
RTVSPropertyOp19
 70
     1
102
RTVSPropertyOp20
 70
     1
102
RTVSPropertyOp21
 70
     1
102
RTVSPropertyOp22
 70
     1
102
RTVSPropertyOp23
 70
     1
102
RTVSPropertyOp24
 70
     1
102
RTVSPropertyOp25
 70
     1
102
RTVSPropertyOp26
 70
     1
102
RTVSPropertyOp27
 70
     1
102
RTVSPropertyOp28
 70
     1
102
RTVSPropertyOp29
 70
     1
102
RTVSPropertyOp30
 70
     1
102
RTVSPropertyOp31
 70
     1
102
RTVSPropertyOp32
 70
     1
  0
XRECORD
  5
C6
102
{ACAD_REACTORS
330
C5
102
}
330
C5
100
AcDbXrecord
280
     1
102
RTVSPropertyOp33
 70
     1
102
RTVSPropertyOp34
 70
     1
102
RTVSPropertyOp35
 70
     1
102
RTVSPropertyOp36
 70
     1
102
RTVSPropertyOp37
 70
     1
102
RTVSPropertyOp38
 70
     1
102
RTVSPropertyOp39
 70
     1
102
RTVSPropertyOp40
 70
     1
102
RTVSPropertyOp41
 70
     1
102
RTVSPropertyOp42
 70
     1
102
RTVSPropertyOp43
 70
     1
102
RTVSPropertyOp44
 70
     1
102
RTVSPropertyOp45
 70
     1
102
RTVSPropertyOp46
 70
     1
102
RTVSPropertyOp47
 70
     1
102
RTVSPropertyOp48
 70
     1
102
RTVSPropertyOp49
 70
     1
102
RTVSPropertyOp50
 70
     1
102
RTVSPropertyOp51
 70
     0
102
RTVSPropertyOp52
 70
     0
102
RTVSPropertyOp53
 70
     1
102
RTVSPropertyOp54
 70
     1
102
RTVSPropertyOp55
 70
     1
102
RTVSPropertyOp56
 70
     1
102
RTVSPropertyOp57
 70
     1
102
RTVSPost2010Prop28
280
     0
102
RTVSPost2010PropOp28
 70
     1
102
RTVSPost2010Prop29
280
     1
102
RTVSPost2010PropOp29
 70
     1
102
RTVSPost2010Prop30
280
     1
102
RTVSPost2010PropOp30
 70
     1
102
RTVSPost2010Prop31
280
     0
102
RTVSPost2010PropOp31
 70
     1
102
RTVSPost2010Prop32
280
     0
102
RTVSPost2010PropOp32
 70
     1
102
RTVSPost2010Prop33
280
     0
102
RTVSPost2010PropOp33
 70
     1
102
RTVSPost2010Prop34
280
     0
102
RTVSPost2010PropOp34
 70
     1
102
RTVSPost2010Prop35
280
     0
102
RTVSPost2010PropOp35
 70
     1
102
RTVSPost2010Prop36
280
     0
102
RTVSPost2010PropOp36
 70
     1
102
RTVSPost2010Prop37
 90
       50
102
RTVSPost2010PropOp37
 70
     1
102
RTVSPost2010Prop38
140
0.0
102
RTVSPost2010PropOp38
 70
     1
102
RTVSPost2010Prop39
140
1.0
102
RTVSPost2010PropOp39
 70
     1
102
RTVSPost2010Prop40
 90
        0
102
RTVSPost2010PropOp40
 70
     1
102
RTVSPost2010Prop41ColorIndex
 90
       18
102
RTVSPost2010Prop41ColorRGB
 90
        0
102
RTVSPost2010PropOp41
 70
     1
102
RTVSPost2010Prop42
 90
       50
102
RTVSPost2010PropOp42
 70
     1
102
RTVSPost2010Prop43
 90
        3
102
RTVSPost2010PropOp43
 70
     1
102
RTVSPost2010Prop44ColorIndex
 90
        5
102
RTVSPost2010Prop44ColorRGB
 90
      255
102
RTVSPost2010PropOp44
 70
     1
102
RTVSPost2010Prop45
280
     0
102
RTVSPost2010PropOp45
 70
     1
102
RTVSPost2010Prop46
 90
       50
102
RTVSPost2010PropOp46
 70
     1
102
RTVSPost2010Prop47
 90
       50
102
RTVSPost2010PropOp47
 70
     1
102
RTVSPost2010Prop48
 90
       50
102
RTVSPost2010PropOp48
 70
     1
102
RTVSPost2010Prop49
280
     0
102
RTVSPost2010PropOp49
 70
     1
102
RTVSPost2010Prop50
 90
       50
102
RTVSPost2010PropOp50
 70
     1
102
RTVSPost2010Prop51ColorIndex
 90
      256
102
RTVSPost2010Prop51ColorRGB
 90
-16777216
102
RTVSPost2010PropOp51
 70
     0
102
RTVSPost2010Prop52
140
1.0
102
RTVSPost2010PropOp52
 70
     0
102
RTVSPost2010Prop53
 90
        2
102
RTVSPost2010PropOp53
 70
     1
102
RTVSPost2010Prop54
  1
strokes_ogs.tif
102
RTVSPost2010PropOp54
 70
     1
102
RTVSPost2010Prop55
280
     0
102
RTVSPost2010PropOp55
 70
     1
102
RTVSPost2010Prop56
140
1.0
102
RTVSPost2010PropOp56
 70
     1
102
RTVSPost2010Prop57
140
1.0
102
RTVSPost2010PropOp57
 70
     1
102
RTVSPropertyOp0
 70
     1
102
RTVSPropertyOp1
 70
     1
102
RTVSPropertyOp2
 70
     1
102
RTVSPropertyOp3
 70
     1
102
RTVSPropertyOp4
 70
     1
102
RTVSPropertyOp5
 70
     1
102
RTVSPropertyOp6
 70
     1
102
RTVSPropertyOp7
 70
     1
102
RTVSPropertyOp8
 70
     1
102
RTVSPropertyOp9
 70
     1
102
RTVSPropertyOp10
 70
     1
102
RTVSPropertyOp11
 70
     1
102
RTVSPropertyOp12
 70
     1
102
RTVSPropertyOp13
 70
     1
102
RTVSPropertyOp14
 70
     1
102
RTVSPropertyOp15
 70
     1
102
RTVSPropertyOp16
 70
     1
102
RTVSPropertyOp17
 70
     1
102
RTVSPropertyOp18
 70
     1
102
RTVSPropertyOp19
 70
     1
102
RTVSPropertyOp20
 70
     1
102
RTVSPropertyOp21
 70
     1
102
RTVSPropertyOp22
 70
     1
102
RTVSPropertyOp23
 70
     1
102
RTVSPropertyOp24
 70
     1
102
RTVSPropertyOp25
 70
     1
102
RTVSPropertyOp26
 70
     1
102
RTVSPropertyOp27
 70
     1
102
RTVSPropertyOp28
 70
     1
102
RTVSPropertyOp29
 70
     1
102
RTVSPropertyOp30
 70
     1
102
RTVSPropertyOp31
 70
     1
102
RTVSPropertyOp32
 70
     1
  0
XRECORD
  5
C8
102
{ACAD_REACTORS
330
C7
102
}
330
C7
100
AcDbXrecord
280
     1
102
RTVSPropertyOp33
 70
     1
102
RTVSPropertyOp34
 70
     1
102
RTVSPropertyOp35
 70
     1
102
RTVSPropertyOp36
 70
     1
102
RTVSPropertyOp37
 70
     1
102
RTVSPropertyOp38
 70
     1
102
RTVSPropertyOp39
 70
     1
102
RTVSPropertyOp40
 70
     1
102
RTVSPropertyOp41
 70
     1
102
RTVSPropertyOp42
 70
     1
102
RTVSPropertyOp43
 70
     1
102
RTVSPropertyOp44
 70
     1
102
RTVSPropertyOp45
 70
     1
102
RTVSPropertyOp46
 70
     1
102
RTVSPropertyOp47
 70
     1
102
RTVSPropertyOp48
 70
     1
102
RTVSPropertyOp49
 70
     1
102
RTVSPropertyOp50
 70
     1
102
RTVSPropertyOp51
 70
     0
102
RTVSPropertyOp52
 70
     0
102
RTVSPropertyOp53
 70
     1
102
RTVSPropertyOp54
 70
     1
102
RTVSPropertyOp55
 70
     1
102
RTVSPropertyOp56
 70
     1
102
RTVSPropertyOp57
 70
     1
102
RTVSPost2010Prop28
280
     0
102
RTVSPost2010PropOp28
 70
     1
102
RTVSPost2010Prop29
280
     1
102
RTVSPost2010PropOp29
 70
     1
102
RTVSPost2010Prop30
280
     1
102
RTVSPost2010PropOp30
 70
     1
102
RTVSPost2010Prop31
280
     0
102
RTVSPost2010PropOp31
 70
     1
102
RTVSPost2010Prop32
280
     0
102
RTVSPost2010PropOp32
 70
     1
102
RTVSPost2010Prop33
280
     0
102
RTVSPost2010PropOp33
 70
     1
102
RTVSPost2010Prop34
280
     0
102
RTVSPost2010PropOp34
 70
     1
102
RTVSPost2010Prop35
280
     0
102
RTVSPost2010PropOp35
 70
     1
102
RTVSPost2010Prop36
280
     0
102
RTVSPost2010PropOp36
 70
     1
102
RTVSPost2010Prop37
 90
       50
102
RTVSPost2010PropOp37
 70
     1
102
RTVSPost2010Prop38
140
0.0
102
RTVSPost2010PropOp38
 70
     1
102
RTVSPost2010Prop39
140
1.0
102
RTVSPost2010PropOp39
 70
     1
102
RTVSPost2010Prop40
 90
        0
102
RTVSPost2010PropOp40
 70
     1
102
RTVSPost2010Prop41ColorIndex
 90
       18
102
RTVSPost2010Prop41ColorRGB
 90
        0
102
RTVSPost2010PropOp41
 70
     1
102
RTVSPost2010Prop42
 90
       50
102
RTVSPost2010PropOp42
 70
     1
102
RTVSPost2010Prop43
 90
        3
102
RTVSPost2010PropOp43
 70
     1
102
RTVSPost2010Prop44ColorIndex
 90
        5
102
RTVSPost2010Prop44ColorRGB
 90
      255
102
RTVSPost2010PropOp44
 70
     1
102
RTVSPost2010Prop45
280
     0
102
RTVSPost2010PropOp45
 70
     1
102
RTVSPost2010Prop46
 90
       50
102
RTVSPost2010PropOp46
 70
     1
102
RTVSPost2010Prop47
 90
       50
102
RTVSPost2010PropOp47
 70
     1
102
RTVSPost2010Prop48
 90
       50
102
RTVSPost2010PropOp48
 70
     1
102
RTVSPost2010Prop49
280
     0
102
RTVSPost2010PropOp49
 70
     1
102
RTVSPost2010Prop50
 90
       50
102
RTVSPost2010PropOp50
 70
     1
102
RTVSPost2010Prop51ColorIndex
 90
      256
102
RTVSPost2010Prop51ColorRGB
 90
-16777216
102
RTVSPost2010PropOp51
 70
     0
102
RTVSPost2010Prop52
140
1.0
102
RTVSPost2010PropOp52
 70
     0
102
RTVSPost2010Prop53
 90
        2
102
RTVSPost2010PropOp53
 70
     1
102
RTVSPost2010Prop54
  1
strokes_ogs.tif
102
RTVSPost2010PropOp54
 70
     1
102
RTVSPost2010Prop55
280
     0
102
RTVSPost2010PropOp55
 70
     1
102
RTVSPost2010Prop56
140
1.0
102
RTVSPost2010PropOp56
 70
     1
102
RTVSPost2010Prop57
140
1.0
102
RTVSPost2010PropOp57
 70
     1
102
RTVSPropertyOp0
 70
     1
102
RTVSPropertyOp1
 70
     1
102
RTVSPropertyOp2
 70
     1
102
RTVSPropertyOp3
 70
     1
102
RTVSPropertyOp4
 70
     1
102
RTVSPropertyOp5
 70
     1
102
RTVSPropertyOp6
 70
     1
102
RTVSPropertyOp7
 70
     1
102
RTVSPropertyOp8
 70
     1
102
RTVSPropertyOp9
 70
     1
102
RTVSPropertyOp10
 70
     1
102
RTVSPropertyOp11
 70
     1
102
RTVSPropertyOp12
 70
     1
102
RTVSPropertyOp13
 70
     1
102
RTVSPropertyOp14
 70
     1
102
RTVSPropertyOp15
 70
     1
102
RTVSPropertyOp16
 70
     1
102
RTVSPropertyOp17
 70
     1
102
RTVSPropertyOp18
 70
     1
102
RTVSPropertyOp19
 70
     1
102
RTVSPropertyOp20
 70
     1
102
RTVSPropertyOp21
 70
     1
102
RTVSPropertyOp22
 70
     1
102
RTVSPropertyOp23
 70
     1
102
RTVSPropertyOp24
 70
     1
102
RTVSPropertyOp25
 70
     1
102
RTVSPropertyOp26
 70
     1
102
RTVSPropertyOp27
 70
     1
102
RTVSPropertyOp28
 70
     1
102
RTVSPropertyOp29
 70
     1
102
RTVSPropertyOp30
 70
     1
102
RTVSPropertyOp31
 70
     1
102
RTVSPropertyOp32
 70
     1
  0
XRECORD
  5
CA
102
{ACAD_REACTORS
330
C9
102
}
330
C9
100
AcDbXrecord
280
     1
102
RTVSPropertyOp33
 70
     1
102
RTVSPropertyOp34
 70
     1
102
RTVSPropertyOp35
 70
     1
102
RTVSPropertyOp36
 70
     1
102
RTVSPropertyOp37
 70
     1
102
RTVSPropertyOp38
 70
     1
102
RTVSPropertyOp39
 70
     1
102
RTVSPropertyOp40
 70
     1
102
RTVSPropertyOp41
 70
     1
102
RTVSPropertyOp42
 70
     1
102
RTVSPropertyOp43
 70
     1
102
RTVSPropertyOp44
 70
     1
102
RTVSPropertyOp45
 70
     1
102
RTVSPropertyOp46
 70
     1
102
RTVSPropertyOp47
 70
     1
102
RTVSPropertyOp48
 70
     1
102
RTVSPropertyOp49
 70
     1
102
RTVSPropertyOp50
 70
     1
102
RTVSPropertyOp51
 70
     0
102
RTVSPropertyOp52
 70
     0
102
RTVSPropertyOp53
 70
     1
102
RTVSPropertyOp54
 70
     1
102
RTVSPropertyOp55
 70
     1
102
RTVSPropertyOp56
 70
     1
102
RTVSPropertyOp57
 70
     1
102
RTVSPost2010Prop28
280
     0
102
RTVSPost2010PropOp28
 70
     1
102
RTVSPost2010Prop29
280
     1
102
RTVSPost2010PropOp29
 70
     1
102
RTVSPost2010Prop30
280
     1
102
RTVSPost2010PropOp30
 70
     1
102
RTVSPost2010Prop31
280
     0
102
RTVSPost2010PropOp31
 70
     1
102
RTVSPost2010Prop32
280
     0
102
RTVSPost2010PropOp32
 70
     1
102
RTVSPost2010Prop33
280
     0
102
RTVSPost2010PropOp33
 70
     1
102
RTVSPost2010Prop34
280
     0
102
RTVSPost2010PropOp34
 70
     1
102
RTVSPost2010Prop35
280
     0
102
RTVSPost2010PropOp35
 70
     1
102
RTVSPost2010Prop36
280
     0
102
RTVSPost2010PropOp36
 70
     1
102
RTVSPost2010Prop37
 90
       50
102
RTVSPost2010PropOp37
 70
     1
102
RTVSPost2010Prop38
140
0.0
102
RTVSPost2010PropOp38
 70
     1
102
RTVSPost2010Prop39
140
1.0
102
RTVSPost2010PropOp39
 70
     1
102
RTVSPost2010Prop40
 90
        0
102
RTVSPost2010PropOp40
 70
     1
102
RTVSPost2010Prop41ColorIndex
 90
       18
102
RTVSPost2010Prop41ColorRGB
 90
        0
102
RTVSPost2010PropOp41
 70
     1
102
RTVSPost2010Prop42
 90
       50
102
RTVSPost2010PropOp42
 70
     1
102
RTVSPost2010Prop43
 90
        3
102
RTVSPost2010PropOp43
 70
     1
102
RTVSPost2010Prop44ColorIndex
 90
        5
102
RTVSPost2010Prop44ColorRGB
 90
      255
102
RTVSPost2010PropOp44
 70
     1
102
RTVSPost2010Prop45
280
     0
102
RTVSPost2010PropOp45
 70
     1
102
RTVSPost2010Prop46
 90
       50
102
RTVSPost2010PropOp46
 70
     1
102
RTVSPost2010Prop47
 90
       50
102
RTVSPost2010PropOp47
 70
     1
102
RTVSPost2010Prop48
 90
       50
102
RTVSPost2010PropOp48
 70
     1
102
RTVSPost2010Prop49
280
     0
102
RTVSPost2010PropOp49
 70
     1
102
RTVSPost2010Prop50
 90
       50
102
RTVSPost2010PropOp50
 70
     1
102
RTVSPost2010Prop51ColorIndex
 90
      256
102
RTVSPost2010Prop51ColorRGB
 90
-16777216
102
RTVSPost2010PropOp51
 70
     0
102
RTVSPost2010Prop52
140
1.0
102
RTVSPost2010PropOp52
 70
     0
102
RTVSPost2010Prop53
 90
        2
102
RTVSPost2010PropOp53
 70
     1
102
RTVSPost2010Prop54
  1
strokes_ogs.tif
102
RTVSPost2010PropOp54
 70
     1
102
RTVSPost2010Prop55
280
     0
102
RTVSPost2010PropOp55
 70
     1
102
RTVSPost2010Prop56
140
1.0
102
RTVSPost2010PropOp56
 70
     1
102
RTVSPost2010Prop57
140
1.0
102
RTVSPost2010PropOp57
 70
     1
102
RTVSPropertyOp0
 70
     1
102
RTVSPropertyOp1
 70
     1
102
RTVSPropertyOp2
 70
     1
102
RTVSPropertyOp3
 70
     1
102
RTVSPropertyOp4
 70
     1
102
RTVSPropertyOp5
 70
     1
102
RTVSPropertyOp6
 70
     1
102
RTVSPropertyOp7
 70
     1
102
RTVSPropertyOp8
 70
     1
102
RTVSPropertyOp9
 70
     1
102
RTVSPropertyOp10
 70
     1
102
RTVSPropertyOp11
 70
     1
102
RTVSPropertyOp12
 70
     1
102
RTVSPropertyOp13
 70
     1
102
RTVSPropertyOp14
 70
     1
102
RTVSPropertyOp15
 70
     1
102
RTVSPropertyOp16
 70
     1
102
RTVSPropertyOp17
 70
     1
102
RTVSPropertyOp18
 70
     1
102
RTVSPropertyOp19
 70
     1
102
RTVSPropertyOp20
 70
     1
102
RTVSPropertyOp21
 70
     1
102
RTVSPropertyOp22
 70
     1
102
RTVSPropertyOp23
 70
     1
102
RTVSPropertyOp24
 70
     1
102
RTVSPropertyOp25
 70
     1
102
RTVSPropertyOp26
 70
     1
102
RTVSPropertyOp27
 70
     1
102
RTVSPropertyOp28
 70
     1
102
RTVSPropertyOp29
 70
     1
102
RTVSPropertyOp30
 70
     1
102
RTVSPropertyOp31
 70
     1
102
RTVSPropertyOp32
 70
     1
  0
XRECORD
  5
CC
102
{ACAD_REACTORS
330
CB
102
}
330
CB
100
AcDbXrecord
280
     1
102
RTVSPropertyOp33
 70
     1
102
RTVSPropertyOp34
 70
     1
102
RTVSPropertyOp35
 70
     1
102
RTVSPropertyOp36
 70
     1
102
RTVSPropertyOp37
 70
     1
102
RTVSPropertyOp38
 70
     1
102
RTVSPropertyOp39
 70
     1
102
RTVSPropertyOp40
 70
     1
102
RTVSPropertyOp41
 70
     1
102
RTVSPropertyOp42
 70
     1
102
RTVSPropertyOp43
 70
     1
102
RTVSPropertyOp44
 70
     1
102
RTVSPropertyOp45
 70
     1
102
RTVSPropertyOp46
 70
     1
102
RTVSPropertyOp47
 70
     1
102
RTVSPropertyOp48
 70
     1
102
RTVSPropertyOp49
 70
     1
102
RTVSPropertyOp50
 70
     1
102
RTVSPropertyOp51
 70
     0
102
RTVSPropertyOp52
 70
     0
102
RTVSPropertyOp53
 70
     1
102
RTVSPropertyOp54
 70
     1
102
RTVSPropertyOp55
 70
     1
102
RTVSPropertyOp56
 70
     1
102
RTVSPropertyOp57
 70
     1
102
RTVSPost2010Prop28
280
     0
102
RTVSPost2010PropOp28
 70
     1
102
RTVSPost2010Prop29
280
     1
102
RTVSPost2010PropOp29
 70
     1
102
RTVSPost2010Prop30
280
     1
102
RTVSPost2010PropOp30
 70
     1
102
RTVSPost2010Prop31
280
     0
102
RTVSPost2010PropOp31
 70
     1
102
RTVSPost2010Prop32
280
     0
102
RTVSPost2010PropOp32
 70
     1
102
RTVSPost2010Prop33
280
     0
102
RTVSPost2010PropOp33
 70
     1
102
RTVSPost2010Prop34
280
     0
102
RTVSPost2010PropOp34
 70
     1
102
RTVSPost2010Prop35
280
     0
102
RTVSPost2010PropOp35
 70
     1
102
RTVSPost2010Prop36
280
     0
102
RTVSPost2010PropOp36
 70
     1
102
RTVSPost2010Prop37
 90
       50
102
RTVSPost2010PropOp37
 70
     1
102
RTVSPost2010Prop38
140
0.0
102
RTVSPost2010PropOp38
 70
     1
102
RTVSPost2010Prop39
140
1.0
102
RTVSPost2010PropOp39
 70
     1
102
RTVSPost2010Prop40
 90
        0
102
RTVSPost2010PropOp40
 70
     1
102
RTVSPost2010Prop41ColorIndex
 90
       18
102
RTVSPost2010Prop41ColorRGB
 90
        0
102
RTVSPost2010PropOp41
 70
     1
102
RTVSPost2010Prop42
 90
       50
102
RTVSPost2010PropOp42
 70
     1
102
RTVSPost2010Prop43
 90
        3
102
RTVSPost2010PropOp43
 70
     1
102
RTVSPost2010Prop44ColorIndex
 90
        5
102
RTVSPost2010Prop44ColorRGB
 90
      255
102
RTVSPost2010PropOp44
 70
     1
102
RTVSPost2010Prop45
280
     0
102
RTVSPost2010PropOp45
 70
     1
102
RTVSPost2010Prop46
 90
       50
102
RTVSPost2010PropOp46
 70
     1
102
RTVSPost2010Prop47
 90
       50
102
RTVSPost2010PropOp47
 70
     1
102
RTVSPost2010Prop48
 90
       50
102
RTVSPost2010PropOp48
 70
     1
102
RTVSPost2010Prop49
280
     0
102
RTVSPost2010PropOp49
 70
     1
102
RTVSPost2010Prop50
 90
       50
102
RTVSPost2010PropOp50
 70
     1
102
RTVSPost2010Prop51ColorIndex
 90
      256
102
RTVSPost2010Prop51ColorRGB
 90
-16777216
102
RTVSPost2010PropOp51
 70
     0
102
RTVSPost2010Prop52
140
1.0
102
RTVSPost2010PropOp52
 70
     0
102
RTVSPost2010Prop53
 90
        2
102
RTVSPost2010PropOp53
 70
     1
102
RTVSPost2010Prop54
  1
strokes_ogs.tif
102
RTVSPost2010PropOp54
 70
     1
102
RTVSPost2010Prop55
280
     0
102
RTVSPost2010PropOp55
 70
     1
102
RTVSPost2010Prop56
140
1.0
102
RTVSPost2010PropOp56
 70
     1
102
RTVSPost2010Prop57
140
1.0
102
RTVSPost2010PropOp57
 70
     1
102
RTVSPropertyOp0
 70
     1
102
RTVSPropertyOp1
 70
     1
102
RTVSPropertyOp2
 70
     1
102
RTVSPropertyOp3
 70
     1
102
RTVSPropertyOp4
 70
     1
102
RTVSPropertyOp5
 70
     1
102
RTVSPropertyOp6
 70
     1
102
RTVSPropertyOp7
 70
     1
102
RTVSPropertyOp8
 70
     1
102
RTVSPropertyOp9
 70
     1
102
RTVSPropertyOp10
 70
     1
102
RTVSPropertyOp11
 70
     1
102
RTVSPropertyOp12
 70
     1
102
RTVSPropertyOp13
 70
     1
102
RTVSPropertyOp14
 70
     1
102
RTVSPropertyOp15
 70
     1
102
RTVSPropertyOp16
 70
     1
102
RTVSPropertyOp17
 70
     1
102
RTVSPropertyOp18
 70
     1
102
RTVSPropertyOp19
 70
     1
102
RTVSPropertyOp20
 70
     1
102
RTVSPropertyOp21
 70
     1
102
RTVSPropertyOp22
 70
     1
102
RTVSPropertyOp23
 70
     1
102
RTVSPropertyOp24
 70
     1
102
RTVSPropertyOp25
 70
     1
102
RTVSPropertyOp26
 70
     1
102
RTVSPropertyOp27
 70
     1
102
RTVSPropertyOp28
 70
     1
102
RTVSPropertyOp29
 70
     1
102
RTVSPropertyOp30
 70
     1
102
RTVSPropertyOp31
 70
     1
102
RTVSPropertyOp32
 70
     1
  0
XRECORD
  5
D2
102
{ACAD_REACTORS
330
D1
102
}
330
D1
100
AcDbXrecord
280
     1
102
RTVSPropertyOp33
 70
     1
102
RTVSPropertyOp34
 70
     1
102
RTVSPropertyOp35
 70
     1
102
RTVSPropertyOp36
 70
     1
102
RTVSPropertyOp37
 70
     1
102
RTVSPropertyOp38
 70
     1
102
RTVSPropertyOp39
 70
     1
102
RTVSPropertyOp40
 70
     1
102
RTVSPropertyOp41
 70
     1
102
RTVSPropertyOp42
 70
     1
102
RTVSPropertyOp43
 70
     1
102
RTVSPropertyOp44
 70
     1
102
RTVSPropertyOp45
 70
     1
102
RTVSPropertyOp46
 70
     1
102
RTVSPropertyOp47
 70
     1
102
RTVSPropertyOp48
 70
     1
102
RTVSPropertyOp49
 70
     1
102
RTVSPropertyOp50
 70
     1
102
RTVSPropertyOp51
 70
     0
102
RTVSPropertyOp52
 70
     0
102
RTVSPropertyOp53
 70
     1
102
RTVSPropertyOp54
 70
     1
102
RTVSPropertyOp55
 70
     1
102
RTVSPropertyOp56
 70
     1
102
RTVSPropertyOp57
 70
     1
102
RTVSPost2010Prop28
280
     0
102
RTVSPost2010PropOp28
 70
     1
102
RTVSPost2010Prop29
280
     1
102
RTVSPost2010PropOp29
 70
     1
102
RTVSPost2010Prop30
280
     1
102
RTVSPost2010PropOp30
 70
     1
102
RTVSPost2010Prop31
280
     0
102
RTVSPost2010PropOp31
 70
     1
102
RTVSPost2010Prop32
280
     0
102
RTVSPost2010PropOp32
 70
     1
102
RTVSPost2010Prop33
280
     0
102
RTVSPost2010PropOp33
 70
     1
102
RTVSPost2010Prop34
280
     0
102
RTVSPost2010PropOp34
 70
     1
102
RTVSPost2010Prop35
280
     0
102
RTVSPost2010PropOp35
 70
     1
102
RTVSPost2010Prop36
280
     0
102
RTVSPost2010PropOp36
 70
     1
102
RTVSPost2010Prop37
 90
       50
102
RTVSPost2010PropOp37
 70
     1
102
RTVSPost2010Prop38
140
0.0
102
RTVSPost2010PropOp38
 70
     1
102
RTVSPost2010Prop39
140
1.0
102
RTVSPost2010PropOp39
 70
     1
102
RTVSPost2010Prop40
 90
        0
102
RTVSPost2010PropOp40
 70
     1
102
RTVSPost2010Prop41ColorIndex
 90
       18
102
RTVSPost2010Prop41ColorRGB
 90
        0
102
RTVSPost2010PropOp41
 70
     1
102
RTVSPost2010Prop42
 90
       50
102
RTVSPost2010PropOp42
 70
     1
102
RTVSPost2010Prop43
 90
        3
102
RTVSPost2010PropOp43
 70
     1
102
RTVSPost2010Prop44ColorIndex
 90
        5
102
RTVSPost2010Prop44ColorRGB
 90
      255
102
RTVSPost2010PropOp44
 70
     1
102
RTVSPost2010Prop45
280
     0
102
RTVSPost2010PropOp45
 70
     1
102
RTVSPost2010Prop46
 90
       50
102
RTVSPost2010PropOp46
 70
     1
102
RTVSPost2010Prop47
 90
       50
102
RTVSPost2010PropOp47
 70
     1
102
RTVSPost2010Prop48
 90
       50
102
RTVSPost2010PropOp48
 70
     1
102
RTVSPost2010Prop49
280
     0
102
RTVSPost2010PropOp49
 70
     1
102
RTVSPost2010Prop50
 90
       50
102
RTVSPost2010PropOp50
 70
     1
102
RTVSPost2010Prop51ColorIndex
 90
      256
102
RTVSPost2010Prop51ColorRGB
 90
-16777216
102
RTVSPost2010PropOp51
 70
     0
102
RTVSPost2010Prop52
140
1.0
102
RTVSPost2010PropOp52
 70
     0
102
RTVSPost2010Prop53
 90
        2
102
RTVSPost2010PropOp53
 70
     1
102
RTVSPost2010Prop54
  1
strokes_ogs.tif
102
RTVSPost2010PropOp54
 70
     1
102
RTVSPost2010Prop55
280
     0
102
RTVSPost2010PropOp55
 70
     1
102
RTVSPost2010Prop56
140
1.0
102
RTVSPost2010PropOp56
 70
     1
102
RTVSPost2010Prop57
140
1.0
102
RTVSPost2010PropOp57
 70
     1
102
RTVSPropertyOp0
 70
     1
102
RTVSPropertyOp1
 70
     1
102
RTVSPropertyOp2
 70
     1
102
RTVSPropertyOp3
 70
     1
102
RTVSPropertyOp4
 70
     1
102
RTVSPropertyOp5
 70
     1
102
RTVSPropertyOp6
 70
     1
102
RTVSPropertyOp7
 70
     1
102
RTVSPropertyOp8
 70
     1
102
RTVSPropertyOp9
 70
     1
102
RTVSPropertyOp10
 70
     1
102
RTVSPropertyOp11
 70
     1
102
RTVSPropertyOp12
 70
     1
102
RTVSPropertyOp13
 70
     1
102
RTVSPropertyOp14
 70
     1
102
RTVSPropertyOp15
 70
     1
102
RTVSPropertyOp16
 70
     1
102
RTVSPropertyOp17
 70
     1
102
RTVSPropertyOp18
 70
     1
102
RTVSPropertyOp19
 70
     1
102
RTVSPropertyOp20
 70
     1
102
RTVSPropertyOp21
 70
     1
102
RTVSPropertyOp22
 70
     1
102
RTVSPropertyOp23
 70
     1
102
RTVSPropertyOp24
 70
     1
102
RTVSPropertyOp25
 70
     1
102
RTVSPropertyOp26
 70
     1
102
RTVSPropertyOp27
 70
     1
102
RTVSPropertyOp28
 70
     1
102
RTVSPropertyOp29
 70
     1
102
RTVSPropertyOp30
 70
     1
102
RTVSPropertyOp31
 70
     1
102
RTVSPropertyOp32
 70
     1
  0
XRECORD
  5
E6
102
{ACAD_REACTORS
330
E5
102
}
330
E5
100
AcDbXrecord
280
     1
102
RTVSPropertyOp33
 70
     0
102
RTVSPropertyOp34
 70
     0
102
RTVSPropertyOp35
 70
     0
102
RTVSPropertyOp36
 70
     0
102
RTVSPropertyOp37
 70
     0
102
RTVSPropertyOp38
 70
     0
102
RTVSPropertyOp39
 70
     0
102
RTVSPropertyOp40
 70
     0
102
RTVSPropertyOp41
 70
     0
102
RTVSPropertyOp42
 70
     0
102
RTVSPropertyOp43
 70
     0
102
RTVSPropertyOp44
 70
     0
102
RTVSPropertyOp45
 70
     0
102
RTVSPropertyOp46
 70
     0
102
RTVSPropertyOp47
 70
     0
102
RTVSPropertyOp48
 70
     0
102
RTVSPropertyOp49
 70
     0
102
RTVSPropertyOp50
 70
     0
102
RTVSPropertyOp51
 70
     0
102
RTVSPropertyOp52
 70
     0
102
RTVSPropertyOp53
 70
     0
102
RTVSPropertyOp54
 70
     0
102
RTVSPropertyOp55
 70
     0
102
RTVSPropertyOp56
 70
     0
102
RTVSPropertyOp57
 70
     0
102
RTVSPost2010Prop28
280
     0
102
RTVSPost2010PropOp28
 70
     0
102
RTVSPost2010Prop29
280
     1
102
RTVSPost2010PropOp29
 70
     0
102
RTVSPost2010Prop30
280
     1
102
RTVSPost2010PropOp30
 70
     0
102
RTVSPost2010Prop31
280
     0
102
RTVSPost2010PropOp31
 70
     0
102
RTVSPost2010Prop32
280
     0
102
RTVSPost2010PropOp32
 70
     0
102
RTVSPost2010Prop33
280
     0
102
RTVSPost2010PropOp33
 70
     0
102
RTVSPost2010Prop34
280
     0
102
RTVSPost2010PropOp34
 70
     0
102
RTVSPost2010Prop35
280
     0
102
RTVSPost2010PropOp35
 70
     0
102
RTVSPost2010Prop36
280
     0
102
RTVSPost2010PropOp36
 70
     0
102
RTVSPost2010Prop37
 90
       50
102
RTVSPost2010PropOp37
 70
     0
102
RTVSPost2010Prop38
140
0.0
102
RTVSPost2010PropOp38
 70
     0
102
RTVSPost2010Prop39
140
1.0
102
RTVSPost2010PropOp39
 70
     0
102
RTVSPost2010Prop40
 90
        0
102
RTVSPost2010PropOp40
 70
     0
102
RTVSPost2010Prop41ColorIndex
 90
       18
102
RTVSPost2010Prop41ColorRGB
 90
        0
102
RTVSPost2010PropOp41
 70
     0
102
RTVSPost2010Prop42
 90
       50
102
RTVSPost2010PropOp42
 70
     0
102
RTVSPost2010Prop43
 90
        3
102
RTVSPost2010PropOp43
 70
     0
102
RTVSPost2010Prop44ColorIndex
 90
        5
102
RTVSPost2010Prop44ColorRGB
 90
      255
102
RTVSPost2010PropOp44
 70
     0
102
RTVSPost2010Prop45
280
     0
102
RTVSPost2010PropOp45
 70
     0
102
RTVSPost2010Prop46
 90
       50
102
RTVSPost2010PropOp46
 70
     0
102
RTVSPost2010Prop47
 90
       50
102
RTVSPost2010PropOp47
 70
     0
102
RTVSPost2010Prop48
 90
       50
102
RTVSPost2010PropOp48
 70
     0
102
RTVSPost2010Prop49
280
     0
102
RTVSPost2010PropOp49
 70
     0
102
RTVSPost2010Prop50
 90
       50
102
RTVSPost2010PropOp50
 70
     0
102
RTVSPost2010Prop51ColorIndex
 90
      256
102
RTVSPost2010Prop51ColorRGB
 90
-16777216
102
RTVSPost2010PropOp51
 70
     0
102
RTVSPost2010Prop52
140
1.0
102
RTVSPost2010PropOp52
 70
     0
102
RTVSPost2010Prop53
 90
        2
102
RTVSPost2010PropOp53
 70
     0
102
RTVSPost2010Prop54
  1
strokes_ogs.tif
102
RTVSPost2010PropOp54
 70
     0
102
RTVSPost2010Prop55
280
     0
102
RTVSPost2010PropOp55
 70
     0
102
RTVSPost2010Prop56
140
1.0
102
RTVSPost2010PropOp56
 70
     0
102
RTVSPost2010Prop57
140
1.0
102
RTVSPost2010PropOp57
 70
     0
102
RTVSPropertyOp0
 70
     0
102
RTVSPropertyOp1
 70
     0
102
RTVSPropertyOp2
 70
     0
102
RTVSPropertyOp3
 70
     0
102
RTVSPropertyOp4
 70
     0
102
RTVSPropertyOp5
 70
     0
102
RTVSPropertyOp6
 70
     0
102
RTVSPropertyOp7
 70
     0
102
RTVSPropertyOp8
 70
     0
102
RTVSPropertyOp9
 70
     0
102
RTVSPropertyOp10
 70
     0
102
RTVSPropertyOp11
 70
     0
102
RTVSPropertyOp12
 70
     0
102
RTVSPropertyOp13
 70
     0
102
RTVSPropertyOp14
 70
     2
102
RTVSPropertyOp15
 70
     0
102
RTVSPropertyOp16
 70
     0
102
RTVSPropertyOp17
 70
     0
102
RTVSPropertyOp18
 70
     0
102
RTVSPropertyOp19
 70
     0
102
RTVSPropertyOp20
 70
     0
102
RTVSPropertyOp21
 70
     0
102
RTVSPropertyOp22
 70
     0
102
RTVSPropertyOp23
 70
     0
102
RTVSPropertyOp24
 70
     0
102
RTVSPropertyOp25
 70
     0
102
RTVSPropertyOp26
 70
     0
102
RTVSPropertyOp27
 70
     0
102
RTVSPropertyOp28
 70
     1
102
RTVSPropertyOp29
 70
     1
102
RTVSPropertyOp30
 70
     1
102
RTVSPropertyOp31
 70
     1
102
RTVSPropertyOp32
 70
     1
  0
XRECORD
  5
E0
102
{ACAD_REACTORS
330
DF
102
}
330
DF
100
AcDbXrecord
280
     1
102
RTVSPropertyOp33
 70
     1
102
RTVSPropertyOp34
 70
     1
102
RTVSPropertyOp35
 70
     1
102
RTVSPropertyOp36
 70
     1
102
RTVSPropertyOp37
 70
     1
102
RTVSPropertyOp38
 70
     1
102
RTVSPropertyOp39
 70
     1
102
RTVSPropertyOp40
 70
     1
102
RTVSPropertyOp41
 70
     1
102
RTVSPropertyOp42
 70
     1
102
RTVSPropertyOp43
 70
     1
102
RTVSPropertyOp44
 70
     1
102
RTVSPropertyOp45
 70
     1
102
RTVSPropertyOp46
 70
     1
102
RTVSPropertyOp47
 70
     1
102
RTVSPropertyOp48
 70
     1
102
RTVSPropertyOp49
 70
     1
102
RTVSPropertyOp50
 70
     1
102
RTVSPropertyOp51
 70
     0
102
RTVSPropertyOp52
 70
     0
102
RTVSPropertyOp53
 70
     1
102
RTVSPropertyOp54
 70
     1
102
RTVSPropertyOp55
 70
     1
102
RTVSPropertyOp56
 70
     1
102
RTVSPropertyOp57
 70
     1
102
RTVSPost2010Prop28
280
     0
102
RTVSPost2010PropOp28
 70
     1
102
RTVSPost2010Prop29
280
     1
102
RTVSPost2010PropOp29
 70
     1
102
RTVSPost2010Prop30
280
     1
102
RTVSPost2010PropOp30
 70
     1
102
RTVSPost2010Prop31
280
     0
102
RTVSPost2010PropOp31
 70
     1
102
RTVSPost2010Prop32
280
     0
102
RTVSPost2010PropOp32
 70
     1
102
RTVSPost2010Prop33
280
     0
102
RTVSPost2010PropOp33
 70
     1
102
RTVSPost2010Prop34
280
     0
102
RTVSPost2010PropOp34
 70
     1
102
RTVSPost2010Prop35
280
     0
102
RTVSPost2010PropOp35
 70
     1
102
RTVSPost2010Prop36
280
     0
102
RTVSPost2010PropOp36
 70
     1
102
RTVSPost2010Prop37
 90
       50
102
RTVSPost2010PropOp37
 70
     1
102
RTVSPost2010Prop38
140
0.0
102
RTVSPost2010PropOp38
 70
     1
102
RTVSPost2010Prop39
140
1.0
102
RTVSPost2010PropOp39
 70
     1
102
RTVSPost2010Prop40
 90
        0
102
RTVSPost2010PropOp40
 70
     1
102
RTVSPost2010Prop41ColorIndex
 90
       18
102
RTVSPost2010Prop41ColorRGB
 90
        0
102
RTVSPost2010PropOp41
 70
     1
102
RTVSPost2010Prop42
 90
       50
102
RTVSPost2010PropOp42
 70
     1
102
RTVSPost2010Prop43
 90
        3
102
RTVSPost2010PropOp43
 70
     1
102
RTVSPost2010Prop44ColorIndex
 90
        5
102
RTVSPost2010Prop44ColorRGB
 90
      255
102
RTVSPost2010PropOp44
 70
     1
102
RTVSPost2010Prop45
280
     0
102
RTVSPost2010PropOp45
 70
     1
102
RTVSPost2010Prop46
 90
       50
102
RTVSPost2010PropOp46
 70
     1
102
RTVSPost2010Prop47
 90
       50
102
RTVSPost2010PropOp47
 70
     1
102
RTVSPost2010Prop48
 90
       50
102
RTVSPost2010PropOp48
 70
     1
102
RTVSPost2010Prop49
280
     0
102
RTVSPost2010PropOp49
 70
     1
102
RTVSPost2010Prop50
 90
       50
102
RTVSPost2010PropOp50
 70
     1
102
RTVSPost2010Prop51ColorIndex
 90
      256
102
RTVSPost2010Prop51ColorRGB
 90
-16777216
102
RTVSPost2010PropOp51
 70
     0
102
RTVSPost2010Prop52
140
1.0
102
RTVSPost2010PropOp52
 70
     0
102
RTVSPost2010Prop53
 90
        2
102
RTVSPost2010PropOp53
 70
     1
102
RTVSPost2010Prop54
  1
strokes_ogs.tif
102
RTVSPost2010PropOp54
 70
     1
102
RTVSPost2010Prop55
280
     0
102
RTVSPost2010PropOp55
 70
     1
102
RTVSPost2010Prop56
140
1.0
102
RTVSPost2010PropOp56
 70
     1
102
RTVSPost2010Prop57
140
1.0
102
RTVSPost2010PropOp57
 70
     1
102
RTVSPropertyOp0
 70
     1
102
RTVSPropertyOp1
 70
     1
102
RTVSPropertyOp2
 70
     1
102
RTVSPropertyOp3
 70
     1
102
RTVSPropertyOp4
 70
     1
102
RTVSPropertyOp5
 70
     1
102
RTVSPropertyOp6
 70
     1
102
RTVSPropertyOp7
 70
     1
102
RTVSPropertyOp8
 70
     1
102
RTVSPropertyOp9
 70
     1
102
RTVSPropertyOp10
 70
     1
102
RTVSPropertyOp11
 70
     1
102
RTVSPropertyOp12
 70
     1
102
RTVSPropertyOp13
 70
     1
102
RTVSPropertyOp14
 70
     1
102
RTVSPropertyOp15
 70
     1
102
RTVSPropertyOp16
 70
     1
102
RTVSPropertyOp17
 70
     1
102
RTVSPropertyOp18
 70
     1
102
RTVSPropertyOp19
 70
     1
102
RTVSPropertyOp20
 70
     1
102
RTVSPropertyOp21
 70
     1
102
RTVSPropertyOp22
 70
     1
102
RTVSPropertyOp23
 70
     1
102
RTVSPropertyOp24
 70
     1
102
RTVSPropertyOp25
 70
     1
102
RTVSPropertyOp26
 70
     1
102
RTVSPropertyOp27
 70
     1
102
RTVSPropertyOp28
 70
     1
102
RTVSPropertyOp29
 70
     1
102
RTVSPropertyOp30
 70
     1
102
RTVSPropertyOp31
 70
     1
102
RTVSPropertyOp32
 70
     1
  0
XRECORD
  5
E8
102
{ACAD_REACTORS
330
E7
102
}
330
E7
100
AcDbXrecord
280
     1
102
RTVSPropertyOp33
 70
     0
102
RTVSPropertyOp34
 70
     0
102
RTVSPropertyOp35
 70
     0
102
RTVSPropertyOp36
 70
     0
102
RTVSPropertyOp37
 70
     0
102
RTVSPropertyOp38
 70
     0
102
RTVSPropertyOp39
 70
     0
102
RTVSPropertyOp40
 70
     0
102
RTVSPropertyOp41
 70
     0
102
RTVSPropertyOp42
 70
     0
102
RTVSPropertyOp43
 70
     0
102
RTVSPropertyOp44
 70
     0
102
RTVSPropertyOp45
 70
     0
102
RTVSPropertyOp46
 70
     0
102
RTVSPropertyOp47
 70
     0
102
RTVSPropertyOp48
 70
     0
102
RTVSPropertyOp49
 70
     0
102
RTVSPropertyOp50
 70
     0
102
RTVSPropertyOp51
 70
     0
102
RTVSPropertyOp52
 70
     0
102
RTVSPropertyOp53
 70
     0
102
RTVSPropertyOp54
 70
     0
102
RTVSPropertyOp55
 70
     0
102
RTVSPropertyOp56
 70
     0
102
RTVSPropertyOp57
 70
     0
102
RTVSPost2010Prop28
280
     0
102
RTVSPost2010PropOp28
 70
     0
102
RTVSPost2010Prop29
280
     1
102
RTVSPost2010PropOp29
 70
     0
102
RTVSPost2010Prop30
280
     1
102
RTVSPost2010PropOp30
 70
     0
102
RTVSPost2010Prop31
280
     0
102
RTVSPost2010PropOp31
 70
     0
102
RTVSPost2010Prop32
280
     0
102
RTVSPost2010PropOp32
 70
     0
102
RTVSPost2010Prop33
280
     0
102
RTVSPost2010PropOp33
 70
     0
102
RTVSPost2010Prop34
280
     0
102
RTVSPost2010PropOp34
 70
     0
102
RTVSPost2010Prop35
280
     0
102
RTVSPost2010PropOp35
 70
     0
102
RTVSPost2010Prop36
280
     0
102
RTVSPost2010PropOp36
 70
     0
102
RTVSPost2010Prop37
 90
       50
102
RTVSPost2010PropOp37
 70
     0
102
RTVSPost2010Prop38
140
0.0
102
RTVSPost2010PropOp38
 70
     0
102
RTVSPost2010Prop39
140
1.0
102
RTVSPost2010PropOp39
 70
     0
102
RTVSPost2010Prop40
 90
        0
102
RTVSPost2010PropOp40
 70
     0
102
RTVSPost2010Prop41ColorIndex
 90
       18
102
RTVSPost2010Prop41ColorRGB
 90
        0
102
RTVSPost2010PropOp41
 70
     0
102
RTVSPost2010Prop42
 90
       50
102
RTVSPost2010PropOp42
 70
     0
102
RTVSPost2010Prop43
 90
        3
102
RTVSPost2010PropOp43
 70
     0
102
RTVSPost2010Prop44ColorIndex
 90
        5
102
RTVSPost2010Prop44ColorRGB
 90
      255
102
RTVSPost2010PropOp44
 70
     0
102
RTVSPost2010Prop45
280
     0
102
RTVSPost2010PropOp45
 70
     0
102
RTVSPost2010Prop46
 90
       50
102
RTVSPost2010PropOp46
 70
     0
102
RTVSPost2010Prop47
 90
       50
102
RTVSPost2010PropOp47
 70
     0
102
RTVSPost2010Prop48
 90
       50
102
RTVSPost2010PropOp48
 70
     0
102
RTVSPost2010Prop49
280
     0
102
RTVSPost2010PropOp49
 70
     0
102
RTVSPost2010Prop50
 90
       50
102
RTVSPost2010PropOp50
 70
     0
102
RTVSPost2010Prop51ColorIndex
 90
      256
102
RTVSPost2010Prop51ColorRGB
 90
-16777216
102
RTVSPost2010PropOp51
 70
     0
102
RTVSPost2010Prop52
140
1.0
102
RTVSPost2010PropOp52
 70
     0
102
RTVSPost2010Prop53
 90
        2
102
RTVSPost2010PropOp53
 70
     0
102
RTVSPost2010Prop54
  1
strokes_ogs.tif
102
RTVSPost2010PropOp54
 70
     0
102
RTVSPost2010Prop55
280
     0
102
RTVSPost2010PropOp55
 70
     0
102
RTVSPost2010Prop56
140
1.0
102
RTVSPost2010PropOp56
 70
     0
102
RTVSPost2010Prop57
140
1.0
102
RTVSPost2010PropOp57
 70
     0
102
RTVSPropertyOp0
 70
     0
102
RTVSPropertyOp1
 70
     0
102
RTVSPropertyOp2
 70
     0
102
RTVSPropertyOp3
 70
     0
102
RTVSPropertyOp4
 70
     0
102
RTVSPropertyOp5
 70
     0
102
RTVSPropertyOp6
 70
     0
102
RTVSPropertyOp7
 70
     0
102
RTVSPropertyOp8
 70
     0
102
RTVSPropertyOp9
 70
     0
102
RTVSPropertyOp10
 70
     0
102
RTVSPropertyOp11
 70
     0
102
RTVSPropertyOp12
 70
     0
102
RTVSPropertyOp13
 70
     0
102
RTVSPropertyOp14
 70
     2
102
RTVSPropertyOp15
 70
     0
102
RTVSPropertyOp16
 70
     0
102
RTVSPropertyOp17
 70
     0
102
RTVSPropertyOp18
 70
     0
102
RTVSPropertyOp19
 70
     0
102
RTVSPropertyOp20
 70
     0
102
RTVSPropertyOp21
 70
     0
102
RTVSPropertyOp22
 70
     0
102
RTVSPropertyOp23
 70
     0
102
RTVSPropertyOp24
 70
     0
102
RTVSPropertyOp25
 70
     0
102
RTVSPropertyOp26
 70
     0
102
RTVSPropertyOp27
 70
     0
102
RTVSPropertyOp28
 70
     1
102
RTVSPropertyOp29
 70
     1
102
RTVSPropertyOp30
 70
     1
102
RTVSPropertyOp31
 70
     1
102
RTVSPropertyOp32
 70
     1
  0
XRECORD
  5
D6
102
{ACAD_REACTORS
330
D5
102
}
330
D5
100
AcDbXrecord
280
     1
102
RTVSPropertyOp33
 70
     1
102
RTVSPropertyOp34
 70
     1
102
RTVSPropertyOp35
 70
     1
102
RTVSPropertyOp36
 70
     1
102
RTVSPropertyOp37
 70
     1
102
RTVSPropertyOp38
 70
     1
102
RTVSPropertyOp39
 70
     1
102
RTVSPropertyOp40
 70
     1
102
RTVSPropertyOp41
 70
     1
102
RTVSPropertyOp42
 70
     1
102
RTVSPropertyOp43
 70
     1
102
RTVSPropertyOp44
 70
     1
102
RTVSPropertyOp45
 70
     1
102
RTVSPropertyOp46
 70
     1
102
RTVSPropertyOp47
 70
     1
102
RTVSPropertyOp48
 70
     1
102
RTVSPropertyOp49
 70
     1
102
RTVSPropertyOp50
 70
     1
102
RTVSPropertyOp51
 70
     0
102
RTVSPropertyOp52
 70
     0
102
RTVSPropertyOp53
 70
     1
102
RTVSPropertyOp54
 70
     1
102
RTVSPropertyOp55
 70
     1
102
RTVSPropertyOp56
 70
     1
102
RTVSPropertyOp57
 70
     1
102
RTVSPost2010Prop28
280
     0
102
RTVSPost2010PropOp28
 70
     1
102
RTVSPost2010Prop29
280
     1
102
RTVSPost2010PropOp29
 70
     1
102
RTVSPost2010Prop30
280
     1
102
RTVSPost2010PropOp30
 70
     1
102
RTVSPost2010Prop31
280
     0
102
RTVSPost2010PropOp31
 70
     1
102
RTVSPost2010Prop32
280
     0
102
RTVSPost2010PropOp32
 70
     1
102
RTVSPost2010Prop33
280
     0
102
RTVSPost2010PropOp33
 70
     1
102
RTVSPost2010Prop34
280
     0
102
RTVSPost2010PropOp34
 70
     1
102
RTVSPost2010Prop35
280
     0
102
RTVSPost2010PropOp35
 70
     1
102
RTVSPost2010Prop36
280
     0
102
RTVSPost2010PropOp36
 70
     1
102
RTVSPost2010Prop37
 90
       50
102
RTVSPost2010PropOp37
 70
     1
102
RTVSPost2010Prop38
140
0.0
102
RTVSPost2010PropOp38
 70
     1
102
RTVSPost2010Prop39
140
1.0
102
RTVSPost2010PropOp39
 70
     1
102
RTVSPost2010Prop40
 90
        0
102
RTVSPost2010PropOp40
 70
     1
102
RTVSPost2010Prop41ColorIndex
 90
       18
102
RTVSPost2010Prop41ColorRGB
 90
        0
102
RTVSPost2010PropOp41
 70
     1
102
RTVSPost2010Prop42
 90
       50
102
RTVSPost2010PropOp42
 70
     1
102
RTVSPost2010Prop43
 90
        3
102
RTVSPost2010PropOp43
 70
     1
102
RTVSPost2010Prop44ColorIndex
 90
        5
102
RTVSPost2010Prop44ColorRGB
 90
      255
102
RTVSPost2010PropOp44
 70
     1
102
RTVSPost2010Prop45
280
     0
102
RTVSPost2010PropOp45
 70
     1
102
RTVSPost2010Prop46
 90
       50
102
RTVSPost2010PropOp46
 70
     1
102
RTVSPost2010Prop47
 90
       50
102
RTVSPost2010PropOp47
 70
     1
102
RTVSPost2010Prop48
 90
       50
102
RTVSPost2010PropOp48
 70
     1
102
RTVSPost2010Prop49
280
     0
102
RTVSPost2010PropOp49
 70
     1
102
RTVSPost2010Prop50
 90
       50
102
RTVSPost2010PropOp50
 70
     1
102
RTVSPost2010Prop51ColorIndex
 90
      256
102
RTVSPost2010Prop51ColorRGB
 90
-16777216
102
RTVSPost2010PropOp51
 70
     0
102
RTVSPost2010Prop52
140
1.0
102
RTVSPost2010PropOp52
 70
     0
102
RTVSPost2010Prop53
 90
        2
102
RTVSPost2010PropOp53
 70
     1
102
RTVSPost2010Prop54
  1
strokes_ogs.tif
102
RTVSPost2010PropOp54
 70
     1
102
RTVSPost2010Prop55
280
     0
102
RTVSPost2010PropOp55
 70
     1
102
RTVSPost2010Prop56
140
1.0
102
RTVSPost2010PropOp56
 70
     1
102
RTVSPost2010Prop57
140
1.0
102
RTVSPost2010PropOp57
 70
     1
102
RTVSPropertyOp0
 70
     1
102
RTVSPropertyOp1
 70
     1
102
RTVSPropertyOp2
 70
     1
102
RTVSPropertyOp3
 70
     1
102
RTVSPropertyOp4
 70
     1
102
RTVSPropertyOp5
 70
     1
102
RTVSPropertyOp6
 70
     1
102
RTVSPropertyOp7
 70
     1
102
RTVSPropertyOp8
 70
     1
102
RTVSPropertyOp9
 70
     1
102
RTVSPropertyOp10
 70
     1
102
RTVSPropertyOp11
 70
     1
102
RTVSPropertyOp12
 70
     1
102
RTVSPropertyOp13
 70
     1
102
RTVSPropertyOp14
 70
     1
102
RTVSPropertyOp15
 70
     1
102
RTVSPropertyOp16
 70
     1
102
RTVSPropertyOp17
 70
     1
102
RTVSPropertyOp18
 70
     1
102
RTVSPropertyOp19
 70
     1
102
RTVSPropertyOp20
 70
     1
102
RTVSPropertyOp21
 70
     1
102
RTVSPropertyOp22
 70
     1
102
RTVSPropertyOp23
 70
     1
102
RTVSPropertyOp24
 70
     1
102
RTVSPropertyOp25
 70
     1
102
RTVSPropertyOp26
 70
     1
102
RTVSPropertyOp27
 70
     1
102
RTVSPropertyOp28
 70
     1
102
RTVSPropertyOp29
 70
     1
102
RTVSPropertyOp30
 70
     1
102
RTVSPropertyOp31
 70
     1
102
RTVSPropertyOp32
 70
     1
  0
XRECORD
  5
F4
102
{ACAD_REACTORS
330
F3
102
}
330
F3
100
AcDbXrecord
280
     1
102
RTVSPropertyOp33
 70
     1
102
RTVSPropertyOp34
 70
     1
102
RTVSPropertyOp35
 70
     1
102
RTVSPropertyOp36
 70
     1
102
RTVSPropertyOp37
 70
     1
102
RTVSPropertyOp38
 70
     1
102
RTVSPropertyOp39
 70
     1
102
RTVSPropertyOp40
 70
     1
102
RTVSPropertyOp41
 70
     1
102
RTVSPropertyOp42
 70
     1
102
RTVSPropertyOp43
 70
     1
102
RTVSPropertyOp44
 70
     1
102
RTVSPropertyOp45
 70
     1
102
RTVSPropertyOp46
 70
     1
102
RTVSPropertyOp47
 70
     1
102
RTVSPropertyOp48
 70
     1
102
RTVSPropertyOp49
 70
     1
102
RTVSPropertyOp50
 70
     1
102
RTVSPropertyOp51
 70
     0
102
RTVSPropertyOp52
 70
     0
102
RTVSPropertyOp53
 70
     1
102
RTVSPropertyOp54
 70
     1
102
RTVSPropertyOp55
 70
     1
102
RTVSPropertyOp56
 70
     1
102
RTVSPropertyOp57
 70
     1
102
RTVSPost2010Prop28
280
     0
102
RTVSPost2010PropOp28
 70
     1
102
RTVSPost2010Prop29
280
     1
102
RTVSPost2010PropOp29
 70
     1
102
RTVSPost2010Prop30
280
     1
102
RTVSPost2010PropOp30
 70
     1
102
RTVSPost2010Prop31
280
     0
102
RTVSPost2010PropOp31
 70
     1
102
RTVSPost2010Prop32
280
     0
102
RTVSPost2010PropOp32
 70
     1
102
RTVSPost2010Prop33
280
     0
102
RTVSPost2010PropOp33
 70
     1
102
RTVSPost2010Prop34
280
     0
102
RTVSPost2010PropOp34
 70
     1
102
RTVSPost2010Prop35
280
     0
102
RTVSPost2010PropOp35
 70
     1
102
RTVSPost2010Prop36
280
     0
102
RTVSPost2010PropOp36
 70
     1
102
RTVSPost2010Prop37
 90
       50
102
RTVSPost2010PropOp37
 70
     1
102
RTVSPost2010Prop38
140
0.0
102
RTVSPost2010PropOp38
 70
     1
102
RTVSPost2010Prop39
140
1.0
102
RTVSPost2010PropOp39
 70
     1
102
RTVSPost2010Prop40
 90
        0
102
RTVSPost2010PropOp40
 70
     1
102
RTVSPost2010Prop41ColorIndex
 90
       18
102
RTVSPost2010Prop41ColorRGB
 90
        0
102
RTVSPost2010PropOp41
 70
     1
102
RTVSPost2010Prop42
 90
       50
102
RTVSPost2010PropOp42
 70
     1
102
RTVSPost2010Prop43
 90
        3
102
RTVSPost2010PropOp43
 70
     1
102
RTVSPost2010Prop44ColorIndex
 90
        5
102
RTVSPost2010Prop44ColorRGB
 90
      255
102
RTVSPost2010PropOp44
 70
     1
102
RTVSPost2010Prop45
280
     0
102
RTVSPost2010PropOp45
 70
     1
102
RTVSPost2010Prop46
 90
       50
102
RTVSPost2010PropOp46
 70
     1
102
RTVSPost2010Prop47
 90
       50
102
RTVSPost2010PropOp47
 70
     1
102
RTVSPost2010Prop48
 90
       50
102
RTVSPost2010PropOp48
 70
     1
102
RTVSPost2010Prop49
280
     0
102
RTVSPost2010PropOp49
 70
     1
102
RTVSPost2010Prop50
 90
       50
102
RTVSPost2010PropOp50
 70
     1
102
RTVSPost2010Prop51ColorIndex
 90
      256
102
RTVSPost2010Prop51ColorRGB
 90
-16777216
102
RTVSPost2010PropOp51
 70
     0
102
RTVSPost2010Prop52
140
1.0
102
RTVSPost2010PropOp52
 70
     0
102
RTVSPost2010Prop53
 90
        2
102
RTVSPost2010PropOp53
 70
     1
102
RTVSPost2010Prop54
  1
strokes_ogs.tif
102
RTVSPost2010PropOp54
 70
     1
102
RTVSPost2010Prop55
280
     0
102
RTVSPost2010PropOp55
 70
     1
102
RTVSPost2010Prop56
140
1.0
102
RTVSPost2010PropOp56
 70
     1
102
RTVSPost2010Prop57
140
1.0
102
RTVSPost2010PropOp57
 70
     1
102
RTVSPropertyOp0
 70
     1
102
RTVSPropertyOp1
 70
     1
102
RTVSPropertyOp2
 70
     1
102
RTVSPropertyOp3
 70
     1
102
RTVSPropertyOp4
 70
     1
102
RTVSPropertyOp5
 70
     1
102
RTVSPropertyOp6
 70
     1
102
RTVSPropertyOp7
 70
     1
102
RTVSPropertyOp8
 70
     1
102
RTVSPropertyOp9
 70
     1
102
RTVSPropertyOp10
 70
     1
102
RTVSPropertyOp11
 70
     1
102
RTVSPropertyOp12
 70
     1
102
RTVSPropertyOp13
 70
     1
102
RTVSPropertyOp14
 70
     1
102
RTVSPropertyOp15
 70
     1
102
RTVSPropertyOp16
 70
     1
102
RTVSPropertyOp17
 70
     1
102
RTVSPropertyOp18
 70
     1
102
RTVSPropertyOp19
 70
     1
102
RTVSPropertyOp20
 70
     1
102
RTVSPropertyOp21
 70
     1
102
RTVSPropertyOp22
 70
     1
102
RTVSPropertyOp23
 70
     1
102
RTVSPropertyOp24
 70
     1
102
RTVSPropertyOp25
 70
     1
102
RTVSPropertyOp26
 70
     1
102
RTVSPropertyOp27
 70
     1
102
RTVSPropertyOp28
 70
     1
102
RTVSPropertyOp29
 70
     1
102
RTVSPropertyOp30
 70
     1
102
RTVSPropertyOp31
 70
     1
102
RTVSPropertyOp32
 70
     1
  0
XRECORD
  5
F2
102
{ACAD_REACTORS
330
F1
102
}
330
F1
100
AcDbXrecord
280
     1
102
RTVSPropertyOp33
 70
     1
102
RTVSPropertyOp34
 70
     1
102
RTVSPropertyOp35
 70
     1
102
RTVSPropertyOp36
 70
     1
102
RTVSPropertyOp37
 70
     1
102
RTVSPropertyOp38
 70
     1
102
RTVSPropertyOp39
 70
     1
102
RTVSPropertyOp40
 70
     1
102
RTVSPropertyOp41
 70
     1
102
RTVSPropertyOp42
 70
     1
102
RTVSPropertyOp43
 70
     1
102
RTVSPropertyOp44
 70
     1
102
RTVSPropertyOp45
 70
     1
102
RTVSPropertyOp46
 70
     1
102
RTVSPropertyOp47
 70
     1
102
RTVSPropertyOp48
 70
     1
102
RTVSPropertyOp49
 70
     1
102
RTVSPropertyOp50
 70
     1
102
RTVSPropertyOp51
 70
     0
102
RTVSPropertyOp52
 70
     0
102
RTVSPropertyOp53
 70
     1
102
RTVSPropertyOp54
 70
     1
102
RTVSPropertyOp55
 70
     1
102
RTVSPropertyOp56
 70
     1
102
RTVSPropertyOp57
 70
     1
102
RTVSPost2010Prop28
280
     0
102
RTVSPost2010PropOp28
 70
     1
102
RTVSPost2010Prop29
280
     1
102
RTVSPost2010PropOp29
 70
     1
102
RTVSPost2010Prop30
280
     1
102
RTVSPost2010PropOp30
 70
     1
102
RTVSPost2010Prop31
280
     0
102
RTVSPost2010PropOp31
 70
     1
102
RTVSPost2010Prop32
280
     0
102
RTVSPost2010PropOp32
 70
     1
102
RTVSPost2010Prop33
280
     0
102
RTVSPost2010PropOp33
 70
     1
102
RTVSPost2010Prop34
280
     0
102
RTVSPost2010PropOp34
 70
     1
102
RTVSPost2010Prop35
280
     0
102
RTVSPost2010PropOp35
 70
     1
102
RTVSPost2010Prop36
280
     0
102
RTVSPost2010PropOp36
 70
     1
102
RTVSPost2010Prop37
 90
       50
102
RTVSPost2010PropOp37
 70
     1
102
RTVSPost2010Prop38
140
0.0
102
RTVSPost2010PropOp38
 70
     1
102
RTVSPost2010Prop39
140
1.0
102
RTVSPost2010PropOp39
 70
     1
102
RTVSPost2010Prop40
 90
        0
102
RTVSPost2010PropOp40
 70
     1
102
RTVSPost2010Prop41ColorIndex
 90
       18
102
RTVSPost2010Prop41ColorRGB
 90
        0
102
RTVSPost2010PropOp41
 70
     1
102
RTVSPost2010Prop42
 90
       50
102
RTVSPost2010PropOp42
 70
     1
102
RTVSPost2010Prop43
 90
        3
102
RTVSPost2010PropOp43
 70
     1
102
RTVSPost2010Prop44ColorIndex
 90
        5
102
RTVSPost2010Prop44ColorRGB
 90
      255
102
RTVSPost2010PropOp44
 70
     1
102
RTVSPost2010Prop45
280
     0
102
RTVSPost2010PropOp45
 70
     1
102
RTVSPost2010Prop46
 90
       50
102
RTVSPost2010PropOp46
 70
     1
102
RTVSPost2010Prop47
 90
       50
102
RTVSPost2010PropOp47
 70
     1
102
RTVSPost2010Prop48
 90
       50
102
RTVSPost2010PropOp48
 70
     1
102
RTVSPost2010Prop49
280
     0
102
RTVSPost2010PropOp49
 70
     1
102
RTVSPost2010Prop50
 90
       50
102
RTVSPost2010PropOp50
 70
     1
102
RTVSPost2010Prop51ColorIndex
 90
      256
102
RTVSPost2010Prop51ColorRGB
 90
-16777216
102
RTVSPost2010PropOp51
 70
     0
102
RTVSPost2010Prop52
140
1.0
102
RTVSPost2010PropOp52
 70
     0
102
RTVSPost2010Prop53
 90
        2
102
RTVSPost2010PropOp53
 70
     1
102
RTVSPost2010Prop54
  1
strokes_ogs.tif
102
RTVSPost2010PropOp54
 70
     1
102
RTVSPost2010Prop55
280
     0
102
RTVSPost2010PropOp55
 70
     1
102
RTVSPost2010Prop56
140
1.0
102
RTVSPost2010PropOp56
 70
     1
102
RTVSPost2010Prop57
140
1.0
102
RTVSPost2010PropOp57
 70
     1
102
RTVSPropertyOp0
 70
     1
102
RTVSPropertyOp1
 70
     1
102
RTVSPropertyOp2
 70
     1
102
RTVSPropertyOp3
 70
     1
102
RTVSPropertyOp4
 70
     1
102
RTVSPropertyOp5
 70
     1
102
RTVSPropertyOp6
 70
     1
102
RTVSPropertyOp7
 70
     1
102
RTVSPropertyOp8
 70
     1
102
RTVSPropertyOp9
 70
     1
102
RTVSPropertyOp10
 70
     1
102
RTVSPropertyOp11
 70
     1
102
RTVSPropertyOp12
 70
     1
102
RTVSPropertyOp13
 70
     1
102
RTVSPropertyOp14
 70
     1
102
RTVSPropertyOp15
 70
     1
102
RTVSPropertyOp16
 70
     1
102
RTVSPropertyOp17
 70
     1
102
RTVSPropertyOp18
 70
     1
102
RTVSPropertyOp19
 70
     1
102
RTVSPropertyOp20
 70
     1
102
RTVSPropertyOp21
 70
     1
102
RTVSPropertyOp22
 70
     1
102
RTVSPropertyOp23
 70
     1
102
RTVSPropertyOp24
 70
     1
102
RTVSPropertyOp25
 70
     1
102
RTVSPropertyOp26
 70
     1
102
RTVSPropertyOp27
 70
     1
102
RTVSPropertyOp28
 70
     1
102
RTVSPropertyOp29
 70
     1
102
RTVSPropertyOp30
 70
     1
102
RTVSPropertyOp31
 70
     1
102
RTVSPropertyOp32
 70
     1
  0
XRECORD
  5
EC
102
{ACAD_REACTORS
330
EB
102
}
330
EB
100
AcDbXrecord
280
     1
102
RTVSPropertyOp33
 70
     1
102
RTVSPropertyOp34
 70
     1
102
RTVSPropertyOp35
 70
     1
102
RTVSPropertyOp36
 70
     1
102
RTVSPropertyOp37
 70
     1
102
RTVSPropertyOp38
 70
     1
102
RTVSPropertyOp39
 70
     1
102
RTVSPropertyOp40
 70
     1
102
RTVSPropertyOp41
 70
     1
102
RTVSPropertyOp42
 70
     1
102
RTVSPropertyOp43
 70
     1
102
RTVSPropertyOp44
 70
     1
102
RTVSPropertyOp45
 70
     1
102
RTVSPropertyOp46
 70
     1
102
RTVSPropertyOp47
 70
     1
102
RTVSPropertyOp48
 70
     1
102
RTVSPropertyOp49
 70
     1
102
RTVSPropertyOp50
 70
     1
102
RTVSPropertyOp51
 70
     0
102
RTVSPropertyOp52
 70
     0
102
RTVSPropertyOp53
 70
     1
102
RTVSPropertyOp54
 70
     1
102
RTVSPropertyOp55
 70
     1
102
RTVSPropertyOp56
 70
     1
102
RTVSPropertyOp57
 70
     1
102
RTVSPost2010Prop28
280
     0
102
RTVSPost2010PropOp28
 70
     1
102
RTVSPost2010Prop29
280
     1
102
RTVSPost2010PropOp29
 70
     1
102
RTVSPost2010Prop30
280
     1
102
RTVSPost2010PropOp30
 70
     1
102
RTVSPost2010Prop31
280
     0
102
RTVSPost2010PropOp31
 70
     1
102
RTVSPost2010Prop32
280
     0
102
RTVSPost2010PropOp32
 70
     1
102
RTVSPost2010Prop33
280
     0
102
RTVSPost2010PropOp33
 70
     1
102
RTVSPost2010Prop34
280
     0
102
RTVSPost2010PropOp34
 70
     1
102
RTVSPost2010Prop35
280
     0
102
RTVSPost2010PropOp35
 70
     1
102
RTVSPost2010Prop36
280
     0
102
RTVSPost2010PropOp36
 70
     1
102
RTVSPost2010Prop37
 90
       50
102
RTVSPost2010PropOp37
 70
     1
102
RTVSPost2010Prop38
140
0.0
102
RTVSPost2010PropOp38
 70
     1
102
RTVSPost2010Prop39
140
1.0
102
RTVSPost2010PropOp39
 70
     1
102
RTVSPost2010Prop40
 90
        0
102
RTVSPost2010PropOp40
 70
     1
102
RTVSPost2010Prop41ColorIndex
 90
       18
102
RTVSPost2010Prop41ColorRGB
 90
        0
102
RTVSPost2010PropOp41
 70
     1
102
RTVSPost2010Prop42
 90
       50
102
RTVSPost2010PropOp42
 70
     1
102
RTVSPost2010Prop43
 90
        3
102
RTVSPost2010PropOp43
 70
     1
102
RTVSPost2010Prop44ColorIndex
 90
        5
102
RTVSPost2010Prop44ColorRGB
 90
      255
102
RTVSPost2010PropOp44
 70
     1
102
RTVSPost2010Prop45
280
     0
102
RTVSPost2010PropOp45
 70
     1
102
RTVSPost2010Prop46
 90
       50
102
RTVSPost2010PropOp46
 70
     1
102
RTVSPost2010Prop47
 90
       50
102
RTVSPost2010PropOp47
 70
     1
102
RTVSPost2010Prop48
 90
       50
102
RTVSPost2010PropOp48
 70
     1
102
RTVSPost2010Prop49
280
     0
102
RTVSPost2010PropOp49
 70
     1
102
RTVSPost2010Prop50
 90
       50
102
RTVSPost2010PropOp50
 70
     1
102
RTVSPost2010Prop51ColorIndex
 90
      256
102
RTVSPost2010Prop51ColorRGB
 90
-16777216
102
RTVSPost2010PropOp51
 70
     0
102
RTVSPost2010Prop52
140
1.0
102
RTVSPost2010PropOp52
 70
     0
102
RTVSPost2010Prop53
 90
        2
102
RTVSPost2010PropOp53
 70
     1
102
RTVSPost2010Prop54
  1
strokes_ogs.tif
102
RTVSPost2010PropOp54
 70
     1
102
RTVSPost2010Prop55
280
     0
102
RTVSPost2010PropOp55
 70
     1
102
RTVSPost2010Prop56
140
1.0
102
RTVSPost2010PropOp56
 70
     1
102
RTVSPost2010Prop57
140
1.0
102
RTVSPost2010PropOp57
 70
     1
102
RTVSPropertyOp0
 70
     1
102
RTVSPropertyOp1
 70
     1
102
RTVSPropertyOp2
 70
     1
102
RTVSPropertyOp3
 70
     1
102
RTVSPropertyOp4
 70
     1
102
RTVSPropertyOp5
 70
     1
102
RTVSPropertyOp6
 70
     1
102
RTVSPropertyOp7
 70
     1
102
RTVSPropertyOp8
 70
     1
102
RTVSPropertyOp9
 70
     1
102
RTVSPropertyOp10
 70
     1
102
RTVSPropertyOp11
 70
     1
102
RTVSPropertyOp12
 70
     1
102
RTVSPropertyOp13
 70
     1
102
RTVSPropertyOp14
 70
     1
102
RTVSPropertyOp15
 70
     1
102
RTVSPropertyOp16
 70
     1
102
RTVSPropertyOp17
 70
     1
102
RTVSPropertyOp18
 70
     1
102
RTVSPropertyOp19
 70
     1
102
RTVSPropertyOp20
 70
     1
102
RTVSPropertyOp21
 70
     1
102
RTVSPropertyOp22
 70
     1
102
RTVSPropertyOp23
 70
     1
102
RTVSPropertyOp24
 70
     1
102
RTVSPropertyOp25
 70
     1
102
RTVSPropertyOp26
 70
     1
102
RTVSPropertyOp27
 70
     1
102
RTVSPropertyOp28
 70
     1
102
RTVSPropertyOp29
 70
     1
102
RTVSPropertyOp30
 70
     1
102
RTVSPropertyOp31
 70
     1
102
RTVSPropertyOp32
 70
     1
  0
XRECORD
  5
EE
102
{ACAD_REACTORS
330
ED
102
}
330
ED
100
AcDbXrecord
280
     1
102
RTVSPropertyOp33
 70
     1
102
RTVSPropertyOp34
 70
     1
102
RTVSPropertyOp35
 70
     1
102
RTVSPropertyOp36
 70
     1
102
RTVSPropertyOp37
 70
     1
102
RTVSPropertyOp38
 70
     1
102
RTVSPropertyOp39
 70
     1
102
RTVSPropertyOp40
 70
     1
102
RTVSPropertyOp41
 70
     1
102
RTVSPropertyOp42
 70
     1
102
RTVSPropertyOp43
 70
     1
102
RTVSPropertyOp44
 70
     1
102
RTVSPropertyOp45
 70
     1
102
RTVSPropertyOp46
 70
     1
102
RTVSPropertyOp47
 70
     1
102
RTVSPropertyOp48
 70
     1
102
RTVSPropertyOp49
 70
     1
102
RTVSPropertyOp50
 70
     1
102
RTVSPropertyOp51
 70
     0
102
RTVSPropertyOp52
 70
     0
102
RTVSPropertyOp53
 70
     1
102
RTVSPropertyOp54
 70
     1
102
RTVSPropertyOp55
 70
     1
102
RTVSPropertyOp56
 70
     1
102
RTVSPropertyOp57
 70
     1
102
RTVSPost2010Prop28
280
     0
102
RTVSPost2010PropOp28
 70
     1
102
RTVSPost2010Prop29
280
     1
102
RTVSPost2010PropOp29
 70
     1
102
RTVSPost2010Prop30
280
     1
102
RTVSPost2010PropOp30
 70
     1
102
RTVSPost2010Prop31
280
     0
102
RTVSPost2010PropOp31
 70
     1
102
RTVSPost2010Prop32
280
     0
102
RTVSPost2010PropOp32
 70
     1
102
RTVSPost2010Prop33
280
     0
102
RTVSPost2010PropOp33
 70
     1
102
RTVSPost2010Prop34
280
     0
102
RTVSPost2010PropOp34
 70
     1
102
RTVSPost2010Prop35
280
     0
102
RTVSPost2010PropOp35
 70
     1
102
RTVSPost2010Prop36
280
     0
102
RTVSPost2010PropOp36
 70
     1
102
RTVSPost2010Prop37
 90
       50
102
RTVSPost2010PropOp37
 70
     1
102
RTVSPost2010Prop38
140
0.0
102
RTVSPost2010PropOp38
 70
     1
102
RTVSPost2010Prop39
140
1.0
102
RTVSPost2010PropOp39
 70
     1
102
RTVSPost2010Prop40
 90
        0
102
RTVSPost2010PropOp40
 70
     1
102
RTVSPost2010Prop41ColorIndex
 90
       18
102
RTVSPost2010Prop41ColorRGB
 90
        0
102
RTVSPost2010PropOp41
 70
     1
102
RTVSPost2010Prop42
 90
       50
102
RTVSPost2010PropOp42
 70
     1
102
RTVSPost2010Prop43
 90
        3
102
RTVSPost2010PropOp43
 70
     1
102
RTVSPost2010Prop44ColorIndex
 90
        5
102
RTVSPost2010Prop44ColorRGB
 90
      255
102
RTVSPost2010PropOp44
 70
     1
102
RTVSPost2010Prop45
280
     0
102
RTVSPost2010PropOp45
 70
     1
102
RTVSPost2010Prop46
 90
       50
102
RTVSPost2010PropOp46
 70
     1
102
RTVSPost2010Prop47
 90
       50
102
RTVSPost2010PropOp47
 70
     1
102
RTVSPost2010Prop48
 90
       50
102
RTVSPost2010PropOp48
 70
     1
102
RTVSPost2010Prop49
280
     0
102
RTVSPost2010PropOp49
 70
     1
102
RTVSPost2010Prop50
 90
       50
102
RTVSPost2010PropOp50
 70
     1
102
RTVSPost2010Prop51ColorIndex
 90
      256
102
RTVSPost2010Prop51ColorRGB
 90
-16777216
102
RTVSPost2010PropOp51
 70
     0
102
RTVSPost2010Prop52
140
1.0
102
RTVSPost2010PropOp52
 70
     0
102
RTVSPost2010Prop53
 90
        2
102
RTVSPost2010PropOp53
 70
     1
102
RTVSPost2010Prop54
  1
strokes_ogs.tif
102
RTVSPost2010PropOp54
 70
     1
102
RTVSPost2010Prop55
280
     0
102
RTVSPost2010PropOp55
 70
     1
102
RTVSPost2010Prop56
140
1.0
102
RTVSPost2010PropOp56
 70
     1
102
RTVSPost2010Prop57
140
1.0
102
RTVSPost2010PropOp57
 70
     1
102
RTVSPropertyOp0
 70
     1
102
RTVSPropertyOp1
 70
     1
102
RTVSPropertyOp2
 70
     1
102
RTVSPropertyOp3
 70
     1
102
RTVSPropertyOp4
 70
     1
102
RTVSPropertyOp5
 70
     1
102
RTVSPropertyOp6
 70
     1
102
RTVSPropertyOp7
 70
     1
102
RTVSPropertyOp8
 70
     1
102
RTVSPropertyOp9
 70
     1
102
RTVSPropertyOp10
 70
     1
102
RTVSPropertyOp11
 70
     1
102
RTVSPropertyOp12
 70
     1
102
RTVSPropertyOp13
 70
     1
102
RTVSPropertyOp14
 70
     1
102
RTVSPropertyOp15
 70
     1
102
RTVSPropertyOp16
 70
     1
102
RTVSPropertyOp17
 70
     1
102
RTVSPropertyOp18
 70
     1
102
RTVSPropertyOp19
 70
     1
102
RTVSPropertyOp20
 70
     1
102
RTVSPropertyOp21
 70
     1
102
RTVSPropertyOp22
 70
     1
102
RTVSPropertyOp23
 70
     1
102
RTVSPropertyOp24
 70
     1
102
RTVSPropertyOp25
 70
     1
102
RTVSPropertyOp26
 70
     1
102
RTVSPropertyOp27
 70
     1
102
RTVSPropertyOp28
 70
     1
102
RTVSPropertyOp29
 70
     1
102
RTVSPropertyOp30
 70
     1
102
RTVSPropertyOp31
 70
     1
102
RTVSPropertyOp32
 70
     1
  0
XRECORD
  5
DE
102
{ACAD_REACTORS
330
DD
102
}
330
DD
100
AcDbXrecord
280
     1
102
RTVSPropertyOp33
 70
     1
102
RTVSPropertyOp34
 70
     1
102
RTVSPropertyOp35
 70
     1
102
RTVSPropertyOp36
 70
     1
102
RTVSPropertyOp37
 70
     1
102
RTVSPropertyOp38
 70
     1
102
RTVSPropertyOp39
 70
     1
102
RTVSPropertyOp40
 70
     1
102
RTVSPropertyOp41
 70
     1
102
RTVSPropertyOp42
 70
     1
102
RTVSPropertyOp43
 70
     1
102
RTVSPropertyOp44
 70
     1
102
RTVSPropertyOp45
 70
     1
102
RTVSPropertyOp46
 70
     1
102
RTVSPropertyOp47
 70
     1
102
RTVSPropertyOp48
 70
     1
102
RTVSPropertyOp49
 70
     1
102
RTVSPropertyOp50
 70
     1
102
RTVSPropertyOp51
 70
     0
102
RTVSPropertyOp52
 70
     0
102
RTVSPropertyOp53
 70
     1
102
RTVSPropertyOp54
 70
     1
102
RTVSPropertyOp55
 70
     1
102
RTVSPropertyOp56
 70
     1
102
RTVSPropertyOp57
 70
     1
102
RTVSPost2010Prop28
280
     0
102
RTVSPost2010PropOp28
 70
     1
102
RTVSPost2010Prop29
280
     1
102
RTVSPost2010PropOp29
 70
     1
102
RTVSPost2010Prop30
280
     1
102
RTVSPost2010PropOp30
 70
     1
102
RTVSPost2010Prop31
280
     0
102
RTVSPost2010PropOp31
 70
     1
102
RTVSPost2010Prop32
280
     0
102
RTVSPost2010PropOp32
 70
     1
102
RTVSPost2010Prop33
280
     0
102
RTVSPost2010PropOp33
 70
     1
102
RTVSPost2010Prop34
280
     0
102
RTVSPost2010PropOp34
 70
     1
102
RTVSPost2010Prop35
280
     0
102
RTVSPost2010PropOp35
 70
     1
102
RTVSPost2010Prop36
280
     0
102
RTVSPost2010PropOp36
 70
     1
102
RTVSPost2010Prop37
 90
       50
102
RTVSPost2010PropOp37
 70
     1
102
RTVSPost2010Prop38
140
0.0
102
RTVSPost2010PropOp38
 70
     1
102
RTVSPost2010Prop39
140
1.0
102
RTVSPost2010PropOp39
 70
     1
102
RTVSPost2010Prop40
 90
        0
102
RTVSPost2010PropOp40
 70
     1
102
RTVSPost2010Prop41ColorIndex
 90
       18
102
RTVSPost2010Prop41ColorRGB
 90
        0
102
RTVSPost2010PropOp41
 70
     1
102
RTVSPost2010Prop42
 90
       50
102
RTVSPost2010PropOp42
 70
     1
102
RTVSPost2010Prop43
 90
        3
102
RTVSPost2010PropOp43
 70
     1
102
RTVSPost2010Prop44ColorIndex
 90
        5
102
RTVSPost2010Prop44ColorRGB
 90
      255
102
RTVSPost2010PropOp44
 70
     1
102
RTVSPost2010Prop45
280
     0
102
RTVSPost2010PropOp45
 70
     1
102
RTVSPost2010Prop46
 90
       50
102
RTVSPost2010PropOp46
 70
     1
102
RTVSPost2010Prop47
 90
       50
102
RTVSPost2010PropOp47
 70
     1
102
RTVSPost2010Prop48
 90
       50
102
RTVSPost2010PropOp48
 70
     1
102
RTVSPost2010Prop49
280
     0
102
RTVSPost2010PropOp49
 70
     1
102
RTVSPost2010Prop50
 90
       50
102
RTVSPost2010PropOp50
 70
     1
102
RTVSPost2010Prop51ColorIndex
 90
      256
102
RTVSPost2010Prop51ColorRGB
 90
-16777216
102
RTVSPost2010PropOp51
 70
     0
102
RTVSPost2010Prop52
140
1.0
102
RTVSPost2010PropOp52
 70
     0
102
RTVSPost2010Prop53
 90
        2
102
RTVSPost2010PropOp53
 70
     1
102
RTVSPost2010Prop54
  1
strokes_ogs.tif
102
RTVSPost2010PropOp54
 70
     1
102
RTVSPost2010Prop55
280
     0
102
RTVSPost2010PropOp55
 70
     1
102
RTVSPost2010Prop56
140
1.0
102
RTVSPost2010PropOp56
 70
     1
102
RTVSPost2010Prop57
140
1.0
102
RTVSPost2010PropOp57
 70
     1
102
RTVSPropertyOp0
 70
     1
102
RTVSPropertyOp1
 70
     1
102
RTVSPropertyOp2
 70
     1
102
RTVSPropertyOp3
 70
     1
102
RTVSPropertyOp4
 70
     1
102
RTVSPropertyOp5
 70
     1
102
RTVSPropertyOp6
 70
     1
102
RTVSPropertyOp7
 70
     1
102
RTVSPropertyOp8
 70
     1
102
RTVSPropertyOp9
 70
     1
102
RTVSPropertyOp10
 70
     1
102
RTVSPropertyOp11
 70
     1
102
RTVSPropertyOp12
 70
     1
102
RTVSPropertyOp13
 70
     1
102
RTVSPropertyOp14
 70
     1
102
RTVSPropertyOp15
 70
     1
102
RTVSPropertyOp16
 70
     1
102
RTVSPropertyOp17
 70
     1
102
RTVSPropertyOp18
 70
     1
102
RTVSPropertyOp19
 70
     1
102
RTVSPropertyOp20
 70
     1
102
RTVSPropertyOp21
 70
     1
102
RTVSPropertyOp22
 70
     1
102
RTVSPropertyOp23
 70
     1
102
RTVSPropertyOp24
 70
     1
102
RTVSPropertyOp25
 70
     1
102
RTVSPropertyOp26
 70
     1
102
RTVSPropertyOp27
 70
     1
102
RTVSPropertyOp28
 70
     1
102
RTVSPropertyOp29
 70
     1
102
RTVSPropertyOp30
 70
     1
102
RTVSPropertyOp31
 70
     1
102
RTVSPropertyOp32
 70
     1
  0
XRECORD
  5
D0
102
{ACAD_REACTORS
330
CF
102
}
330
CF
100
AcDbXrecord
280
     1
102
RTVSPropertyOp33
 70
     1
102
RTVSPropertyOp34
 70
     1
102
RTVSPropertyOp35
 70
     1
102
RTVSPropertyOp36
 70
     1
102
RTVSPropertyOp37
 70
     1
102
RTVSPropertyOp38
 70
     1
102
RTVSPropertyOp39
 70
     1
102
RTVSPropertyOp40
 70
     1
102
RTVSPropertyOp41
 70
     1
102
RTVSPropertyOp42
 70
     1
102
RTVSPropertyOp43
 70
     1
102
RTVSPropertyOp44
 70
     1
102
RTVSPropertyOp45
 70
     1
102
RTVSPropertyOp46
 70
     1
102
RTVSPropertyOp47
 70
     1
102
RTVSPropertyOp48
 70
     1
102
RTVSPropertyOp49
 70
     1
102
RTVSPropertyOp50
 70
     1
102
RTVSPropertyOp51
 70
     0
102
RTVSPropertyOp52
 70
     0
102
RTVSPropertyOp53
 70
     1
102
RTVSPropertyOp54
 70
     1
102
RTVSPropertyOp55
 70
     1
102
RTVSPropertyOp56
 70
     1
102
RTVSPropertyOp57
 70
     1
102
RTVSPost2010Prop28
280
     0
102
RTVSPost2010PropOp28
 70
     1
102
RTVSPost2010Prop29
280
     1
102
RTVSPost2010PropOp29
 70
     1
102
RTVSPost2010Prop30
280
     1
102
RTVSPost2010PropOp30
 70
     1
102
RTVSPost2010Prop31
280
     0
102
RTVSPost2010PropOp31
 70
     1
102
RTVSPost2010Prop32
280
     0
102
RTVSPost2010PropOp32
 70
     1
102
RTVSPost2010Prop33
280
     0
102
RTVSPost2010PropOp33
 70
     1
102
RTVSPost2010Prop34
280
     0
102
RTVSPost2010PropOp34
 70
     1
102
RTVSPost2010Prop35
280
     0
102
RTVSPost2010PropOp35
 70
     1
102
RTVSPost2010Prop36
280
     0
102
RTVSPost2010PropOp36
 70
     1
102
RTVSPost2010Prop37
 90
       50
102
RTVSPost2010PropOp37
 70
     1
102
RTVSPost2010Prop38
140
0.0
102
RTVSPost2010PropOp38
 70
     1
102
RTVSPost2010Prop39
140
1.0
102
RTVSPost2010PropOp39
 70
     1
102
RTVSPost2010Prop40
 90
        0
102
RTVSPost2010PropOp40
 70
     1
102
RTVSPost2010Prop41ColorIndex
 90
       18
102
RTVSPost2010Prop41ColorRGB
 90
        0
102
RTVSPost2010PropOp41
 70
     1
102
RTVSPost2010Prop42
 90
       50
102
RTVSPost2010PropOp42
 70
     1
102
RTVSPost2010Prop43
 90
        3
102
RTVSPost2010PropOp43
 70
     1
102
RTVSPost2010Prop44ColorIndex
 90
        5
102
RTVSPost2010Prop44ColorRGB
 90
      255
102
RTVSPost2010PropOp44
 70
     1
102
RTVSPost2010Prop45
280
     0
102
RTVSPost2010PropOp45
 70
     1
102
RTVSPost2010Prop46
 90
       50
102
RTVSPost2010PropOp46
 70
     1
102
RTVSPost2010Prop47
 90
       50
102
RTVSPost2010PropOp47
 70
     1
102
RTVSPost2010Prop48
 90
       50
102
RTVSPost2010PropOp48
 70
     1
102
RTVSPost2010Prop49
280
     0
102
RTVSPost2010PropOp49
 70
     1
102
RTVSPost2010Prop50
 90
       50
102
RTVSPost2010PropOp50
 70
     1
102
RTVSPost2010Prop51ColorIndex
 90
      256
102
RTVSPost2010Prop51ColorRGB
 90
-16777216
102
RTVSPost2010PropOp51
 70
     0
102
RTVSPost2010Prop52
140
1.0
102
RTVSPost2010PropOp52
 70
     0
102
RTVSPost2010Prop53
 90
        2
102
RTVSPost2010PropOp53
 70
     1
102
RTVSPost2010Prop54
  1
strokes_ogs.tif
102
RTVSPost2010PropOp54
 70
     1
102
RTVSPost2010Prop55
280
     0
102
RTVSPost2010PropOp55
 70
     1
102
RTVSPost2010Prop56
140
1.0
102
RTVSPost2010PropOp56
 70
     1
102
RTVSPost2010Prop57
140
1.0
102
RTVSPost2010PropOp57
 70
     1
102
RTVSPropertyOp0
 70
     1
102
RTVSPropertyOp1
 70
     1
102
RTVSPropertyOp2
 70
     1
102
RTVSPropertyOp3
 70
     1
102
RTVSPropertyOp4
 70
     1
102
RTVSPropertyOp5
 70
     1
102
RTVSPropertyOp6
 70
     1
102
RTVSPropertyOp7
 70
     1
102
RTVSPropertyOp8
 70
     1
102
RTVSPropertyOp9
 70
     1
102
RTVSPropertyOp10
 70
     1
102
RTVSPropertyOp11
 70
     1
102
RTVSPropertyOp12
 70
     1
102
RTVSPropertyOp13
 70
     1
102
RTVSPropertyOp14
 70
     1
102
RTVSPropertyOp15
 70
     1
102
RTVSPropertyOp16
 70
     1
102
RTVSPropertyOp17
 70
     1
102
RTVSPropertyOp18
 70
     1
102
RTVSPropertyOp19
 70
     1
102
RTVSPropertyOp20
 70
     1
102
RTVSPropertyOp21
 70
     1
102
RTVSPropertyOp22
 70
     1
102
RTVSPropertyOp23
 70
     1
102
RTVSPropertyOp24
 70
     1
102
RTVSPropertyOp25
 70
     1
102
RTVSPropertyOp26
 70
     1
102
RTVSPropertyOp27
 70
     1
102
RTVSPropertyOp28
 70
     1
102
RTVSPropertyOp29
 70
     1
102
RTVSPropertyOp30
 70
     1
102
RTVSPropertyOp31
 70
     1
102
RTVSPropertyOp32
 70
     1
  0
XRECORD
  5
F0
102
{ACAD_REACTORS
330
EF
102
}
330
EF
100
AcDbXrecord
280
     1
102
RTVSPropertyOp33
 70
     1
102
RTVSPropertyOp34
 70
     1
102
RTVSPropertyOp35
 70
     1
102
RTVSPropertyOp36
 70
     1
102
RTVSPropertyOp37
 70
     1
102
RTVSPropertyOp38
 70
     1
102
RTVSPropertyOp39
 70
     1
102
RTVSPropertyOp40
 70
     1
102
RTVSPropertyOp41
 70
     1
102
RTVSPropertyOp42
 70
     1
102
RTVSPropertyOp43
 70
     1
102
RTVSPropertyOp44
 70
     1
102
RTVSPropertyOp45
 70
     1
102
RTVSPropertyOp46
 70
     1
102
RTVSPropertyOp47
 70
     1
102
RTVSPropertyOp48
 70
     1
102
RTVSPropertyOp49
 70
     1
102
RTVSPropertyOp50
 70
     1
102
RTVSPropertyOp51
 70
     0
102
RTVSPropertyOp52
 70
     0
102
RTVSPropertyOp53
 70
     1
102
RTVSPropertyOp54
 70
     1
102
RTVSPropertyOp55
 70
     1
102
RTVSPropertyOp56
 70
     1
102
RTVSPropertyOp57
 70
     1
102
RTVSPost2010Prop28
280
     0
102
RTVSPost2010PropOp28
 70
     1
102
RTVSPost2010Prop29
280
     1
102
RTVSPost2010PropOp29
 70
     1
102
RTVSPost2010Prop30
280
     1
102
RTVSPost2010PropOp30
 70
     1
102
RTVSPost2010Prop31
280
     0
102
RTVSPost2010PropOp31
 70
     1
102
RTVSPost2010Prop32
280
     0
102
RTVSPost2010PropOp32
 70
     1
102
RTVSPost2010Prop33
280
     0
102
RTVSPost2010PropOp33
 70
     1
102
RTVSPost2010Prop34
280
     0
102
RTVSPost2010PropOp34
 70
     1
102
RTVSPost2010Prop35
280
     0
102
RTVSPost2010PropOp35
 70
     1
102
RTVSPost2010Prop36
280
     0
102
RTVSPost2010PropOp36
 70
     1
102
RTVSPost2010Prop37
 90
       50
102
RTVSPost2010PropOp37
 70
     1
102
RTVSPost2010Prop38
140
0.0
102
RTVSPost2010PropOp38
 70
     1
102
RTVSPost2010Prop39
140
1.0
102
RTVSPost2010PropOp39
 70
     1
102
RTVSPost2010Prop40
 90
        0
102
RTVSPost2010PropOp40
 70
     1
102
RTVSPost2010Prop41ColorIndex
 90
       18
102
RTVSPost2010Prop41ColorRGB
 90
        0
102
RTVSPost2010PropOp41
 70
     1
102
RTVSPost2010Prop42
 90
       50
102
RTVSPost2010PropOp42
 70
     1
102
RTVSPost2010Prop43
 90
        3
102
RTVSPost2010PropOp43
 70
     1
102
RTVSPost2010Prop44ColorIndex
 90
        5
102
RTVSPost2010Prop44ColorRGB
 90
      255
102
RTVSPost2010PropOp44
 70
     1
102
RTVSPost2010Prop45
280
     0
102
RTVSPost2010PropOp45
 70
     1
102
RTVSPost2010Prop46
 90
       50
102
RTVSPost2010PropOp46
 70
     1
102
RTVSPost2010Prop47
 90
       50
102
RTVSPost2010PropOp47
 70
     1
102
RTVSPost2010Prop48
 90
       50
102
RTVSPost2010PropOp48
 70
     1
102
RTVSPost2010Prop49
280
     0
102
RTVSPost2010PropOp49
 70
     1
102
RTVSPost2010Prop50
 90
       50
102
RTVSPost2010PropOp50
 70
     1
102
RTVSPost2010Prop51ColorIndex
 90
      256
102
RTVSPost2010Prop51ColorRGB
 90
-16777216
102
RTVSPost2010PropOp51
 70
     0
102
RTVSPost2010Prop52
140
1.0
102
RTVSPost2010PropOp52
 70
     0
102
RTVSPost2010Prop53
 90
        2
102
RTVSPost2010PropOp53
 70
     1
102
RTVSPost2010Prop54
  1
strokes_ogs.tif
102
RTVSPost2010PropOp54
 70
     1
102
RTVSPost2010Prop55
280
     0
102
RTVSPost2010PropOp55
 70
     1
102
RTVSPost2010Prop56
140
1.0
102
RTVSPost2010PropOp56
 70
     1
102
RTVSPost2010Prop57
140
1.0
102
RTVSPost2010PropOp57
 70
     1
102
RTVSPropertyOp0
 70
     1
102
RTVSPropertyOp1
 70
     1
102
RTVSPropertyOp2
 70
     1
102
RTVSPropertyOp3
 70
     1
102
RTVSPropertyOp4
 70
     1
102
RTVSPropertyOp5
 70
     1
102
RTVSPropertyOp6
 70
     1
102
RTVSPropertyOp7
 70
     1
102
RTVSPropertyOp8
 70
     1
102
RTVSPropertyOp9
 70
     1
102
RTVSPropertyOp10
 70
     1
102
RTVSPropertyOp11
 70
     1
102
RTVSPropertyOp12
 70
     1
102
RTVSPropertyOp13
 70
     1
102
RTVSPropertyOp14
 70
     1
102
RTVSPropertyOp15
 70
     1
102
RTVSPropertyOp16
 70
     1
102
RTVSPropertyOp17
 70
     1
102
RTVSPropertyOp18
 70
     1
102
RTVSPropertyOp19
 70
     1
102
RTVSPropertyOp20
 70
     1
102
RTVSPropertyOp21
 70
     1
102
RTVSPropertyOp22
 70
     1
102
RTVSPropertyOp23
 70
     1
102
RTVSPropertyOp24
 70
     1
102
RTVSPropertyOp25
 70
     1
102
RTVSPropertyOp26
 70
     1
102
RTVSPropertyOp27
 70
     1
102
RTVSPropertyOp28
 70
     1
102
RTVSPropertyOp29
 70
     1
102
RTVSPropertyOp30
 70
     1
102
RTVSPropertyOp31
 70
     1
102
RTVSPropertyOp32
 70
     1
  0
ENDSEC
  0
EOF
