  0
SECTION
  2
HEADER
  9
$ACADVER
  1
AC1021
  9
$ACADMAINTVER
 70
    25
  9
$DWGCODEPAGE
  3
ANSI_936
  9
$INSBASE
 10
0.0
 20
0.0
 30
0.0
  9
$EXTMIN
 10
617.423
 20
-355.4374
 30
0.0
  9
$EXTMAX
 10
1217.425
 20
-6.4354
 30
0.0
  9
$LIMMIN
 10
0.0
 20
0.0
  9
$LIMMAX
 10
12.0
 20
9.0
  9
$ORTHOMODE
 70
     0
  9
$REGENMODE
 70
     1
  9
$FILLMODE
 70
     1
  9
$QTEXTMODE
 70
     0
  9
$MIRRTEXT
 70
     1
  9
$LTSCALE
 40
1.0
  9
$ATTMODE
 70
     1
  9
$TEXTSIZE
 40
0.2
  9
$TRACEWID
 40
0.05
  9
$TEXTSTYLE
  7
Standard
  9
$CLAYER
  8
0
  9
$CELTYPE
  6
ByLayer
  9
$CECOLOR
 62
   256
  9
$CELTSCALE
 40
1.0
  9
$DISPSILH
 70
     0
  9
$DIMSCALE
 40
1.0
  9
$DIMASZ
 40
0.18
  9
$DIMEXO
 40
0.0625
  9
$DIMDLI
 40
0.38
  9
$DIMRND
 40
0.0
  9
$DIMDLE
 40
0.0
  9
$DIMEXE
 40
0.18
  9
$DIMTP
 40
0.0
  9
$DIMTM
 40
0.0
  9
$DIMTXT
 40
0.18
  9
$DIMCEN
 40
0.09
  9
$DIMTSZ
 40
0.0
  9
$DIMTOL
 70
     0
  9
$DIMLIM
 70
     0
  9
$DIMTIH
 70
     1
  9
$DIMTOH
 70
     1
  9
$DIMSE1
 70
     0
  9
$DIMSE2
 70
     0
  9
$DIMTAD
 70
     0
  9
$DIMZIN
 70
     0
  9
$DIMBLK
  1

  9
$DIMASO
 70
     1
  9
$DIMSHO
 70
     1
  9
$DIMPOST
  1

  9
$DIMAPOST
  1

  9
$DIMALT
 70
     0
  9
$DIMALTD
 70
     2
  9
$DIMALTF
 40
25.4
  9
$DIMLFAC
 40
1.0
  9
$DIMTOFL
 70
     0
  9
$DIMTVP
 40
0.0
  9
$DIMTIX
 70
     0
  9
$DIMSOXD
 70
     0
  9
$DIMSAH
 70
     0
  9
$DIMBLK1
  1

  9
$DIMBLK2
  1

  9
$DIMSTYLE
  2
Standard
  9
$DIMCLRD
 70
     0
  9
$DIMCLRE
 70
     0
  9
$DIMCLRT
 70
     0
  9
$DIMTFAC
 40
1.0
  9
$DIMGAP
 40
0.09
  9
$DIMJUST
 70
     0
  9
$DIMSD1
 70
     0
  9
$DIMSD2
 70
     0
  9
$DIMTOLJ
 70
     1
  9
$DIMTZIN
 70
     0
  9
$DIMALTZ
 70
     0
  9
$DIMALTTZ
 70
     0
  9
$DIMUPT
 70
     0
  9
$DIMDEC
 70
     4
  9
$DIMTDEC
 70
     4
  9
$DIMALTU
 70
     2
  9
$DIMALTTD
 70
     2
  9
$DIMTXSTY
  7
Standard
  9
$DIMAUNIT
 70
     0
  9
$DIMADEC
 70
     0
  9
$DIMALTRND
 40
0.0
  9
$DIMAZIN
 70
     0
  9
$DIMDSEP
 70
    46
  9
$DIMATFIT
 70
     3
  9
$DIMFRAC
 70
     0
  9
$DIMLDRBLK
  1

  9
$DIMLUNIT
 70
     2
  9
$DIMLWD
 70
    -2
  9
$DIMLWE
 70
    -2
  9
$DIMTMOVE
 70
     0
  9
$DIMFXL
 40
1.0
  9
$DIMFXLON
 70
     0
  9
$DIMJOGANG
 40
0.7853981633974483
  9
$DIMTFILL
 70
     0
  9
$DIMTFILLCLR
 70
     0
  9
$DIMARCSYM
 70
     0
  9
$DIMLTYPE
  6

  9
$DIMLTEX1
  6

  9
$DIMLTEX2
  6

  9
$LUNITS
 70
     2
  9
$LUPREC
 70
     4
  9
$SKETCHINC
 40
0.1
  9
$FILLETRAD
 40
0.5
  9
$AUNITS
 70
     0
  9
$AUPREC
 70
     0
  9
$MENU
  1
.
  9
$ELEVATION
 40
0.0
  9
$PELEVATION
 40
0.0
  9
$THICKNESS
 40
0.0
  9
$LIMCHECK
 70
     0
  9
$CHAMFERA
 40
0.5
  9
$CHAMFERB
 40
0.5
  9
$CHAMFERC
 40
1.0
  9
$CHAMFERD
 40
0.0
  9
$SKPOLY
 70
     0
  9
$TDCREATE
 40
2460478.413821504
  9
$TDUCREATE
 40
2460478.080488171
  9
$TDUPDATE
 40
2460478.413821516
  9
$TDUUPDATE
 40
2460478.080488183
  9
$TDINDWG
 40
0.0000000116
  9
$TDUSRTIMER
 40
0.0000000116
  9
$USRTIMER
 70
     1
  9
$ANGBASE
 50
0.0
  9
$ANGDIR
 70
     0
  9
$PDMODE
 70
     0
  9
$PDSIZE
 40
0.0
  9
$PLINEWID
 40
0.0
  9
$SPLFRAME
 70
     0
  9
$SPLINETYPE
 70
     6
  9
$SPLINESEGS
 70
     8
  9
$HANDSEED
  5
FB
  9
$SURFTAB1
 70
     6
  9
$SURFTAB2
 70
     6
  9
$SURFTYPE
 70
     6
  9
$SURFU
 70
     6
  9
$SURFV
 70
     6
  9
$UCSBASE
  2

  9
$UCSNAME
  2

  9
$UCSORG
 10
0.0
 20
0.0
 30
0.0
  9
$UCSXDIR
 10
1.0
 20
0.0
 30
0.0
  9
$UCSYDIR
 10
0.0
 20
1.0
 30
0.0
  9
$UCSORTHOREF
  2

  9
$UCSORTHOVIEW
 70
     0
  9
$UCSORGTOP
 10
0.0
 20
0.0
 30
0.0
  9
$UCSORGBOTTOM
 10
0.0
 20
0.0
 30
0.0
  9
$UCSORGLEFT
 10
0.0
 20
0.0
 30
0.0
  9
$UCSORGRIGHT
 10
0.0
 20
0.0
 30
0.0
  9
$UCSORGFRONT
 10
0.0
 20
0.0
 30
0.0
  9
$UCSORGBACK
 10
0.0
 20
0.0
 30
0.0
  9
$PUCSBASE
  2

  9
$PUCSNAME
  2

  9
$PUCSORG
 10
0.0
 20
0.0
 30
0.0
  9
$PUCSXDIR
 10
1.0
 20
0.0
 30
0.0
  9
$PUCSYDIR
 10
0.0
 20
1.0
 30
0.0
  9
$PUCSORTHOREF
  2

  9
$PUCSORTHOVIEW
 70
     0
  9
$PUCSORGTOP
 10
0.0
 20
0.0
 30
0.0
  9
$PUCSORGBOTTOM
 10
0.0
 20
0.0
 30
0.0
  9
$PUCSORGLEFT
 10
0.0
 20
0.0
 30
0.0
  9
$PUCSORGRIGHT
 10
0.0
 20
0.0
 30
0.0
  9
$PUCSORGFRONT
 10
0.0
 20
0.0
 30
0.0
  9
$PUCSORGBACK
 10
0.0
 20
0.0
 30
0.0
  9
$USERI1
 70
     0
  9
$USERI2
 70
     0
  9
$USERI3
 70
     0
  9
$USERI4
 70
     0
  9
$USERI5
 70
     0
  9
$USERR1
 40
0.0
  9
$USERR2
 40
0.0
  9
$USERR3
 40
0.0
  9
$USERR4
 40
0.0
  9
$USERR5
 40
0.0
  9
$WORLDVIEW
 70
     1
  9
$SHADEDGE
 70
     3
  9
$SHADEDIF
 70
    70
  9
$TILEMODE
 70
     1
  9
$MAXACTVP
 70
    64
  9
$PINSBASE
 10
0.0
 20
0.0
 30
0.0
  9
$PLIMCHECK
 70
     0
  9
$PEXTMIN
 10
1.000000000000000E+20
 20
1.000000000000000E+20
 30
1.000000000000000E+20
  9
$PEXTMAX
 10
-1.000000000000000E+20
 20
-1.000000000000000E+20
 30
-1.000000000000000E+20
  9
$PLIMMIN
 10
0.0
 20
0.0
  9
$PLIMMAX
 10
12.0
 20
9.0
  9
$UNITMODE
 70
     0
  9
$VISRETAIN
 70
     1
  9
$PLINEGEN
 70
     0
  9
$PSLTSCALE
 70
     1
  9
$TREEDEPTH
 70
  3020
  9
$CMLSTYLE
  2
Standard
  9
$CMLJUST
 70
     0
  9
$CMLSCALE
 40
1.0
  9
$PROXYGRAPHICS
 70
     1
  9
$MEASUREMENT
 70
     0
  9
$CELWEIGHT
370
    -1
  9
$ENDCAPS
280
     0
  9
$JOINSTYLE
280
     0
  9
$LWDISPLAY
290
     0
  9
$INSUNITS
 70
     4
  9
$HYPERLINKBASE
  1

  9
$STYLESHEET
  1

  9
$XEDIT
290
     1
  9
$CEPSNTYPE
380
     0
  9
$PSTYLEMODE
290
     1
  9
$FINGERPRINTGUID
  2
{AFEE4C6E-DF62-4108-B620-23BB6F73D8E7}
  9
$VERSIONGUID
  2
{FAEB1C32-E019-11D5-929B-00C0DF256EC4}
  9
$EXTNAMES
290
     1
  9
$PSVPSCALE
 40
0.0
  9
$OLESTARTUP
290
     0
  9
$SORTENTS
280
   127
  9
$INDEXCTL
280
     0
  9
$HIDETEXT
280
     1
  9
$XCLIPFRAME
290
     0
  9
$HALOGAP
280
     0
  9
$OBSCOLOR
 70
   257
  9
$OBSLTYPE
280
     0
  9
$INTERSECTIONDISPLAY
280
     0
  9
$INTERSECTIONCOLOR
 70
   257
  9
$DIMASSOC
280
     2
  9
$PROJECTNAME
  1

  9
$CAMERADISPLAY
290
     0
  9
$LENSLENGTH
 40
50.0
  9
$CAMERAHEIGHT
 40
0.0
  9
$STEPSPERSEC
 40
2.0
  9
$STEPSIZE
 40
6.0
  9
$3DDWFPREC
 40
2.0
  9
$PSOLWIDTH
 40
0.25
  9
$PSOLHEIGHT
 40
4.0
  9
$LOFTANG1
 40
1.570796326794897
  9
$LOFTANG2
 40
1.570796326794897
  9
$LOFTMAG1
 40
0.0
  9
$LOFTMAG2
 40
0.0
  9
$LOFTPARAM
 70
     7
  9
$LOFTNORMALS
280
     1
  9
$LATITUDE
 40
37.795
  9
$LONGITUDE
 40
-122.394
  9
$NORTHDIRECTION
 40
0.0
  9
$TIMEZONE
 70
 -8000
  9
$LIGHTGLYPHDISPLAY
280
     1
  9
$TILEMODELIGHTSYNCH
280
     1
  9
$SOLIDHIST
280
     1
  9
$SHOWHIST
280
     1
  9
$DWFFRAME
280
     2
  9
$DGNFRAME
280
     2
  9
$REALWORLDSCALE
290
     1
  9
$INTERFERECOLOR
 62
   256
  9
$CSHADOW
280
     0
  9
$SHADOWPLANELOCATION
 40
0.0
  0
ENDSEC
  0
SECTION
  2
CLASSES
  0
CLASS
  1
ACDBDICTIONARYWDFLT
  2
AcDbDictionaryWithDefault
  3
ObjectDBX Classes
 90
        0
 91
        3
280
     0
281
     0
  0
CLASS
  1
VISUALSTYLE
  2
AcDbVisualStyle
  3
ObjectDBX Classes
 90
     4095
 91
        3
280
     0
281
     0
  0
CLASS
  1
SCALE
  2
AcDbScale
  3
ObjectDBX Classes
 90
     1153
 91
        3
280
     0
281
     0
  0
ENDSEC
  0
SECTION
  2
TABLES
  0
TABLE
  2
VPORT
  5
8
330
0
100
AcDbSymbolTable
 70
     1
  0
VPORT
  5
29
330
8
100
AcDbSymbolTableRecord
100
AcDbViewportTableRecord
  2
*Active
 70
     0
 10
0.0
 20
0.0
 11
1.0
 21
1.0
 12
10.42990654205607
 22
4.5
 13
0.0
 23
0.0
 14
0.5
 24
0.5
 15
0.5
 25
0.5
 16
0.0
 26
0.0
 36
1.0
 17
0.0
 27
0.0
 37
0.0
 40
9.0
 41
1.972972972850329
 42
50.0
 43
0.0
 44
0.0
 50
0.0
 51
0.0
 71
     0
 72
   100
 73
     1
 74
     3
 75
     0
 76
     0
 77
     0
 78
     0
281
     0
 65
     1
110
0.0
120
0.0
130
0.0
111
1.0
121
0.0
131
0.0
112
0.0
122
1.0
132
0.0
 79
     0
146
0.0
 60
     3
 61
     5
292
     1
282
     1
141
0.0
142
0.0
 63
   256
  0
ENDTAB
  0
TABLE
  2
LTYPE
  5
5
330
0
100
AcDbSymbolTable
 70
     1
  0
LTYPE
  5
14
330
5
100
AcDbSymbolTableRecord
100
AcDbLinetypeTableRecord
  2
ByBlock
 70
     0
  3

 72
    65
 73
     0
 40
0.0
  0
LTYPE
  5
15
330
5
100
AcDbSymbolTableRecord
100
AcDbLinetypeTableRecord
  2
ByLayer
 70
     0
  3

 72
    65
 73
     0
 40
0.0
  0
LTYPE
  5
16
330
5
100
AcDbSymbolTableRecord
100
AcDbLinetypeTableRecord
  2
Continuous
 70
     0
  3
Solid line
 72
    65
 73
     0
 40
0.0
  0
ENDTAB
  0
TABLE
  2
LAYER
  5
2
330
0
100
AcDbSymbolTable
 70
     2
  0
LAYER
  5
10
330
2
100
AcDbSymbolTableRecord
100
AcDbLayerTableRecord
  2
0
 70
     0
 62
     7
  6
Continuous
370
    -3
390
F
347
0
  0
LAYER
  5
5E
330
2
100
AcDbSymbolTableRecord
100
AcDbLayerTableRecord
  2
layer 1
 70
     0
 62
     7
  6
Continuous
370
    -3
390
F
347
0
  0
ENDTAB
  0
TABLE
  2
STYLE
  5
3
330
0
100
AcDbSymbolTable
 70
     1
  0
STYLE
  5
11
330
3
100
AcDbSymbolTableRecord
100
AcDbTextStyleTableRecord
  2
Standard
 70
     0
 40
0.0
 41
1.0
 50
0.0
 71
     0
 42
0.2
  3
txt
  4

  0
ENDTAB
  0
TABLE
  2
VIEW
  5
6
330
0
100
AcDbSymbolTable
 70
     0
  0
ENDTAB
  0
TABLE
  2
UCS
  5
7
330
0
100
AcDbSymbolTable
 70
     0
  0
ENDTAB
  0
TABLE
  2
APPID
  5
9
330
0
100
AcDbSymbolTable
 70
     2
  0
APPID
  5
12
330
9
100
AcDbSymbolTableRecord
100
AcDbRegAppTableRecord
  2
ACAD
 70
     0
  0
APPID
  5
5D
330
9
100
AcDbSymbolTableRecord
100
AcDbRegAppTableRecord
  2
ODA
 70
     0
  0
ENDTAB
  0
TABLE
  2
DIMSTYLE
  5
A
330
0
100
AcDbSymbolTable
 70
     1
100
AcDbDimStyleTable
  0
DIMSTYLE
105
27
330
A
100
AcDbSymbolTableRecord
100
AcDbDimStyleTableRecord
  2
Standard
 70
     0
340
11
  0
ENDTAB
  0
TABLE
  2
BLOCK_RECORD
  5
1
330
0
100
AcDbSymbolTable
 70
     1
  0
BLOCK_RECORD
  5
1F
330
1
100
AcDbSymbolTableRecord
100
AcDbBlockTableRecord
  2
*Model_Space
340
22
 70
     0
280
     1
281
     0
  0
BLOCK_RECORD
  5
1B
330
1
100
AcDbSymbolTableRecord
100
AcDbBlockTableRecord
  2
*Paper_Space
340
1E
 70
     0
280
     1
281
     0
  0
BLOCK_RECORD
  5
23
330
1
100
AcDbSymbolTableRecord
100
AcDbBlockTableRecord
  2
*Paper_Space0
340
26
 70
     0
280
     1
281
     0
  0
ENDTAB
  0
ENDSEC
  0
SECTION
  2
BLOCKS
  0
BLOCK
  5
20
330
1F
100
AcDbEntity
  8
0
100
AcDbBlockBegin
  2
*Model_Space
 70
     0
 10
0.0
 20
0.0
 30
0.0
  3
*Model_Space
  1

  0
ENDBLK
  5
21
330
1F
100
AcDbEntity
  8
0
100
AcDbBlockEnd
  0
BLOCK
  5
1C
330
1B
100
AcDbEntity
 67
     1
  8
0
100
AcDbBlockBegin
  2
*Paper_Space
 70
     0
 10
0.0
 20
0.0
 30
0.0
  3
*Paper_Space
  1

  0
ENDBLK
  5
1D
330
1B
100
AcDbEntity
 67
     1
  8
0
100
AcDbBlockEnd
  0
BLOCK
  5
24
330
23
100
AcDbEntity
  8
0
100
AcDbBlockBegin
  2
*Paper_Space0
 70
     0
 10
0.0
 20
0.0
 30
0.0
  3
*Paper_Space0
  1

  0
ENDBLK
  5
25
330
23
100
AcDbEntity
  8
0
100
AcDbBlockEnd
  0
ENDSEC
  0
SECTION
  2
ENTITIES
  0
SPLINE
  5
5F
330
1F
100
AcDbEntity
  8
layer 1
 62
   250
370
     0
100
AcDbSpline
210
0.0
220
0.0
230
1.0
 70
    11
 71
     3
 72
    20
 73
    16
 74
     0
 42
0.0000000001
 43
0.0000000001
 40
0.0
 40
0.0
 40
0.0
 40
0.0
 40
0.25
 40
0.25
 40
0.25
 40
0.25
 40
0.5
 40
0.5
 40
0.5
 40
0.5
 40
0.75
 40
0.75
 40
0.75
 40
0.75
 40
1.0
 40
1.0
 40
1.0
 40
1.0
 10
637.4242
 20
-15.4364
 30
0.0
 10
639.0808
 20
-15.4364
 30
0.0
 10
640.4242
 20
-16.7798
 30
0.0
 10
640.4242
 20
-18.4364
 30
0.0
 10
640.4242
 20
-18.4364
 30
0.0
 10
640.4242
 20
-20.093
 30
0.0
 10
639.0808
 20
-21.4364
 30
0.0
 10
637.4242
 20
-21.4364
 30
0.0
 10
637.4242
 20
-21.4364
 30
0.0
 10
635.7676
 20
-21.4364
 30
0.0
 10
634.4242
 20
-20.093
 30
0.0
 10
634.4242
 20
-18.4364
 30
0.0
 10
634.4242
 20
-18.4364
 30
0.0
 10
634.4242
 20
-16.7798
 30
0.0
 10
635.7676
 20
-15.4364
 30
0.0
 10
637.4242
 20
-15.4364
 30
0.0
  0
SPLINE
  5
60
330
1F
100
AcDbEntity
  8
layer 1
 62
   250
370
     0
100
AcDbSpline
210
0.0
220
0.0
230
1.0
 70
    11
 71
     3
 72
    20
 73
    16
 74
     0
 42
0.0000000001
 43
0.0000000001
 40
0.0
 40
0.0
 40
0.0
 40
0.0
 40
0.25
 40
0.25
 40
0.25
 40
0.25
 40
0.5
 40
0.5
 40
0.5
 40
0.5
 40
0.75
 40
0.75
 40
0.75
 40
0.75
 40
1.0
 40
1.0
 40
1.0
 40
1.0
 10
637.4242
 20
-340.4364
 30
0.0
 10
639.0808
 20
-340.4364
 30
0.0
 10
640.4242
 20
-341.7798
 30
0.0
 10
640.4242
 20
-343.4364
 30
0.0
 10
640.4242
 20
-343.4364
 30
0.0
 10
640.4242
 20
-345.093
 30
0.0
 10
639.0808
 20
-346.4364
 30
0.0
 10
637.4242
 20
-346.4364
 30
0.0
 10
637.4242
 20
-346.4364
 30
0.0
 10
635.7676
 20
-346.4364
 30
0.0
 10
634.4242
 20
-345.093
 30
0.0
 10
634.4242
 20
-343.4364
 30
0.0
 10
634.4242
 20
-343.4364
 30
0.0
 10
634.4242
 20
-341.7798
 30
0.0
 10
635.7676
 20
-340.4364
 30
0.0
 10
637.4242
 20
-340.4364
 30
0.0
  0
SPLINE
  5
61
330
1F
100
AcDbEntity
  8
layer 1
 62
   250
370
     0
100
AcDbSpline
210
0.0
220
0.0
230
1.0
 70
    11
 71
     3
 72
    20
 73
    16
 74
     0
 42
0.0000000001
 43
0.0000000001
 40
0.0
 40
0.0
 40
0.0
 40
0.0
 40
0.25
 40
0.25
 40
0.25
 40
0.25
 40
0.5
 40
0.5
 40
0.5
 40
0.5
 40
0.75
 40
0.75
 40
0.75
 40
0.75
 40
1.0
 40
1.0
 40
1.0
 40
1.0
 10
917.4242
 20
-15.4364
 30
0.0
 10
919.0808
 20
-15.4364
 30
0.0
 10
920.4242
 20
-16.7798
 30
0.0
 10
920.4242
 20
-18.4364
 30
0.0
 10
920.4242
 20
-18.4364
 30
0.0
 10
920.4242
 20
-20.093
 30
0.0
 10
919.0808
 20
-21.4364
 30
0.0
 10
917.4242
 20
-21.4364
 30
0.0
 10
917.4242
 20
-21.4364
 30
0.0
 10
915.7676
 20
-21.4364
 30
0.0
 10
914.4242
 20
-20.093
 30
0.0
 10
914.4242
 20
-18.4364
 30
0.0
 10
914.4242
 20
-18.4364
 30
0.0
 10
914.4242
 20
-16.7798
 30
0.0
 10
915.7676
 20
-15.4364
 30
0.0
 10
917.4242
 20
-15.4364
 30
0.0
  0
SPLINE
  5
62
330
1F
100
AcDbEntity
  8
layer 1
 62
   250
370
     0
100
AcDbSpline
210
0.0
220
0.0
230
1.0
 70
    11
 71
     3
 72
    20
 73
    16
 74
     0
 42
0.0000000001
 43
0.0000000001
 40
0.0
 40
0.0
 40
0.0
 40
0.0
 40
0.25
 40
0.25
 40
0.25
 40
0.25
 40
0.5
 40
0.5
 40
0.5
 40
0.5
 40
0.75
 40
0.75
 40
0.75
 40
0.75
 40
1.0
 40
1.0
 40
1.0
 40
1.0
 10
917.4242
 20
-340.4364
 30
0.0
 10
919.0808
 20
-340.4364
 30
0.0
 10
920.4242
 20
-341.7798
 30
0.0
 10
920.4242
 20
-343.4364
 30
0.0
 10
920.4242
 20
-343.4364
 30
0.0
 10
920.4242
 20
-345.093
 30
0.0
 10
919.0808
 20
-346.4364
 30
0.0
 10
917.4242
 20
-346.4364
 30
0.0
 10
917.4242
 20
-346.4364
 30
0.0
 10
915.7676
 20
-346.4364
 30
0.0
 10
914.4242
 20
-345.093
 30
0.0
 10
914.4242
 20
-343.4364
 30
0.0
 10
914.4242
 20
-343.4364
 30
0.0
 10
914.4242
 20
-341.7798
 30
0.0
 10
915.7676
 20
-340.4364
 30
0.0
 10
917.4242
 20
-340.4364
 30
0.0
  0
SPLINE
  5
63
330
1F
100
AcDbEntity
  8
layer 1
 62
   250
370
     0
100
AcDbSpline
210
0.0
220
0.0
230
1.0
 70
    11
 71
     3
 72
    20
 73
    16
 74
     0
 42
0.0000000001
 43
0.0000000001
 40
0.0
 40
0.0
 40
0.0
 40
0.0
 40
0.25
 40
0.25
 40
0.25
 40
0.25
 40
0.5
 40
0.5
 40
0.5
 40
0.5
 40
0.75
 40
0.75
 40
0.75
 40
0.75
 40
1.0
 40
1.0
 40
1.0
 40
1.0
 10
1197.4242
 20
-15.4364
 30
0.0
 10
1199.0808
 20
-15.4364
 30
0.0
 10
1200.4242
 20
-16.7798
 30
0.0
 10
1200.4242
 20
-18.4364
 30
0.0
 10
1200.4242
 20
-18.4364
 30
0.0
 10
1200.4242
 20
-20.093
 30
0.0
 10
1199.0808
 20
-21.4364
 30
0.0
 10
1197.4242
 20
-21.4364
 30
0.0
 10
1197.4242
 20
-21.4364
 30
0.0
 10
1195.7676
 20
-21.4364
 30
0.0
 10
1194.4242
 20
-20.093
 30
0.0
 10
1194.4242
 20
-18.4364
 30
0.0
 10
1194.4242
 20
-18.4364
 30
0.0
 10
1194.4242
 20
-16.7798
 30
0.0
 10
1195.7676
 20
-15.4364
 30
0.0
 10
1197.4242
 20
-15.4364
 30
0.0
  0
SPLINE
  5
64
330
1F
100
AcDbEntity
  8
layer 1
 62
   250
370
     0
100
AcDbSpline
210
0.0
220
0.0
230
1.0
 70
    11
 71
     3
 72
    20
 73
    16
 74
     0
 42
0.0000000001
 43
0.0000000001
 40
0.0
 40
0.0
 40
0.0
 40
0.0
 40
0.25
 40
0.25
 40
0.25
 40
0.25
 40
0.5
 40
0.5
 40
0.5
 40
0.5
 40
0.75
 40
0.75
 40
0.75
 40
0.75
 40
1.0
 40
1.0
 40
1.0
 40
1.0
 10
1197.4242
 20
-340.4364
 30
0.0
 10
1199.0808
 20
-340.4364
 30
0.0
 10
1200.4242
 20
-341.7798
 30
0.0
 10
1200.4242
 20
-343.4364
 30
0.0
 10
1200.4242
 20
-343.4364
 30
0.0
 10
1200.4242
 20
-345.093
 30
0.0
 10
1199.0808
 20
-346.4364
 30
0.0
 10
1197.4242
 20
-346.4364
 30
0.0
 10
1197.4242
 20
-346.4364
 30
0.0
 10
1195.7676
 20
-346.4364
 30
0.0
 10
1194.4242
 20
-345.093
 30
0.0
 10
1194.4242
 20
-343.4364
 30
0.0
 10
1194.4242
 20
-343.4364
 30
0.0
 10
1194.4242
 20
-341.7798
 30
0.0
 10
1195.7676
 20
-340.4364
 30
0.0
 10
1197.4242
 20
-340.4364
 30
0.0
  0
SPLINE
  5
65
330
1F
100
AcDbEntity
  8
layer 1
 62
   250
370
     0
100
AcDbSpline
210
0.0
220
0.0
230
1.0
 70
    11
 71
     3
 72
    20
 73
    16
 74
     0
 42
0.0000000001
 43
0.0000000001
 40
0.0
 40
0.0
 40
0.0
 40
0.0
 40
0.25
 40
0.25
 40
0.25
 40
0.25
 40
0.5
 40
0.5
 40
0.5
 40
0.5
 40
0.75
 40
0.75
 40
0.75
 40
0.75
 40
1.0
 40
1.0
 40
1.0
 40
1.0
 10
617.424
 20
-6.4364
 30
0.0
 10
617.424
 20
-6.4364
 30
0.0
 10
1217.424
 20
-6.4364
 30
0.0
 10
1217.424
 20
-6.4364
 30
0.0
 10
1217.424
 20
-6.4364
 30
0.0
 10
1217.424
 20
-6.4364
 30
0.0
 10
1217.424
 20
-355.4364
 30
0.0
 10
1217.424
 20
-355.4364
 30
0.0
 10
1217.424
 20
-355.4364
 30
0.0
 10
1217.424
 20
-355.4364
 30
0.0
 10
617.424
 20
-355.4364
 30
0.0
 10
617.424
 20
-355.4364
 30
0.0
 10
617.424
 20
-355.4364
 30
0.0
 10
617.424
 20
-355.4364
 30
0.0
 10
617.424
 20
-6.4364
 30
0.0
 10
617.424
 20
-6.4364
 30
0.0
  0
SPLINE
  5
66
330
1F
100
AcDbEntity
  8
layer 1
 62
   250
370
     0
100
AcDbSpline
210
0.0
220
0.0
230
1.0
 70
    11
 71
     3
 72
    20
 73
    16
 74
     0
 42
0.0000000001
 43
0.0000000001
 40
0.0
 40
0.0
 40
0.0
 40
0.0
 40
0.25
 40
0.25
 40
0.25
 40
0.25
 40
0.5
 40
0.5
 40
0.5
 40
0.5
 40
0.75
 40
0.75
 40
0.75
 40
0.75
 40
1.0
 40
1.0
 40
1.0
 40
1.0
 10
665.425
 20
-173.9359
 30
0.0
 10
667.3577
 20
-173.9359
 30
0.0
 10
668.925
 20
-175.5032
 30
0.0
 10
668.925
 20
-177.4359
 30
0.0
 10
668.925
 20
-177.4359
 30
0.0
 10
668.925
 20
-179.3686
 30
0.0
 10
667.3577
 20
-180.9359
 30
0.0
 10
665.425
 20
-180.9359
 30
0.0
 10
665.425
 20
-180.9359
 30
0.0
 10
663.4923
 20
-180.9359
 30
0.0
 10
661.925
 20
-179.3686
 30
0.0
 10
661.925
 20
-177.4359
 30
0.0
 10
661.925
 20
-177.4359
 30
0.0
 10
661.925
 20
-175.5032
 30
0.0
 10
663.4923
 20
-173.9359
 30
0.0
 10
665.425
 20
-173.9359
 30
0.0
  0
SPLINE
  5
67
330
1F
100
AcDbEntity
  8
layer 1
 62
   250
370
     0
100
AcDbSpline
210
0.0
220
0.0
230
1.0
 70
    11
 71
     3
 72
    20
 73
    16
 74
     0
 42
0.0000000001
 43
0.0000000001
 40
0.0
 40
0.0
 40
0.0
 40
0.0
 40
0.25
 40
0.25
 40
0.25
 40
0.25
 40
0.5
 40
0.5
 40
0.5
 40
0.5
 40
0.75
 40
0.75
 40
0.75
 40
0.75
 40
1.0
 40
1.0
 40
1.0
 40
1.0
 10
665.425
 20
-323.9359
 30
0.0
 10
667.3577
 20
-323.9359
 30
0.0
 10
668.925
 20
-325.5032
 30
0.0
 10
668.925
 20
-327.4359
 30
0.0
 10
668.925
 20
-327.4359
 30
0.0
 10
668.925
 20
-329.3686
 30
0.0
 10
667.3577
 20
-330.9359
 30
0.0
 10
665.425
 20
-330.9359
 30
0.0
 10
665.425
 20
-330.9359
 30
0.0
 10
663.4923
 20
-330.9359
 30
0.0
 10
661.925
 20
-329.3686
 30
0.0
 10
661.925
 20
-327.4359
 30
0.0
 10
661.925
 20
-327.4359
 30
0.0
 10
661.925
 20
-325.5032
 30
0.0
 10
663.4923
 20
-323.9359
 30
0.0
 10
665.425
 20
-323.9359
 30
0.0
  0
SPLINE
  5
68
330
1F
100
AcDbEntity
  8
layer 1
 62
   250
370
     0
100
AcDbSpline
210
0.0
220
0.0
230
1.0
 70
    11
 71
     3
 72
    20
 73
    16
 74
     0
 42
0.0000000001
 43
0.0000000001
 40
0.0
 40
0.0
 40
0.0
 40
0.0
 40
0.25
 40
0.25
 40
0.25
 40
0.25
 40
0.5
 40
0.5
 40
0.5
 40
0.5
 40
0.75
 40
0.75
 40
0.75
 40
0.75
 40
1.0
 40
1.0
 40
1.0
 40
1.0
 10
815.425
 20
-173.9359
 30
0.0
 10
817.3577
 20
-173.9359
 30
0.0
 10
818.925
 20
-175.5032
 30
0.0
 10
818.925
 20
-177.4359
 30
0.0
 10
818.925
 20
-177.4359
 30
0.0
 10
818.925
 20
-179.3686
 30
0.0
 10
817.3577
 20
-180.9359
 30
0.0
 10
815.425
 20
-180.9359
 30
0.0
 10
815.425
 20
-180.9359
 30
0.0
 10
813.4923
 20
-180.9359
 30
0.0
 10
811.925
 20
-179.3686
 30
0.0
 10
811.925
 20
-177.4359
 30
0.0
 10
811.925
 20
-177.4359
 30
0.0
 10
811.925
 20
-175.5032
 30
0.0
 10
813.4923
 20
-173.9359
 30
0.0
 10
815.425
 20
-173.9359
 30
0.0
  0
SPLINE
  5
69
330
1F
100
AcDbEntity
  8
layer 1
 62
   250
370
     0
100
AcDbSpline
210
0.0
220
0.0
230
1.0
 70
    11
 71
     3
 72
    20
 73
    16
 74
     0
 42
0.0000000001
 43
0.0000000001
 40
0.0
 40
0.0
 40
0.0
 40
0.0
 40
0.25
 40
0.25
 40
0.25
 40
0.25
 40
0.5
 40
0.5
 40
0.5
 40
0.5
 40
0.75
 40
0.75
 40
0.75
 40
0.75
 40
1.0
 40
1.0
 40
1.0
 40
1.0
 10
815.425
 20
-323.9359
 30
0.0
 10
817.3577
 20
-323.9359
 30
0.0
 10
818.925
 20
-325.5032
 30
0.0
 10
818.925
 20
-327.4359
 30
0.0
 10
818.925
 20
-327.4359
 30
0.0
 10
818.925
 20
-329.3686
 30
0.0
 10
817.3577
 20
-330.9359
 30
0.0
 10
815.425
 20
-330.9359
 30
0.0
 10
815.425
 20
-330.9359
 30
0.0
 10
813.4923
 20
-330.9359
 30
0.0
 10
811.925
 20
-329.3686
 30
0.0
 10
811.925
 20
-327.4359
 30
0.0
 10
811.925
 20
-327.4359
 30
0.0
 10
811.925
 20
-325.5032
 30
0.0
 10
813.4923
 20
-323.9359
 30
0.0
 10
815.425
 20
-323.9359
 30
0.0
  0
SPLINE
  5
6A
330
1F
100
AcDbEntity
  8
layer 1
 62
   250
370
     0
100
AcDbSpline
210
0.0
220
0.0
230
1.0
 70
    11
 71
     3
 72
    20
 73
    16
 74
     0
 42
0.0000000001
 43
0.0000000001
 40
0.0
 40
0.0
 40
0.0
 40
0.0
 40
0.25
 40
0.25
 40
0.25
 40
0.25
 40
0.5
 40
0.5
 40
0.5
 40
0.5
 40
0.75
 40
0.75
 40
0.75
 40
0.75
 40
1.0
 40
1.0
 40
1.0
 40
1.0
 10
942.4196
 20
-327.9966
 30
0.0
 10
943.8001
 20
-327.9966
 30
0.0
 10
944.9196
 20
-329.1161
 30
0.0
 10
944.9196
 20
-330.4966
 30
0.0
 10
944.9196
 20
-330.4966
 30
0.0
 10
944.9196
 20
-331.8771
 30
0.0
 10
943.8001
 20
-332.9966
 30
0.0
 10
942.4196
 20
-332.9966
 30
0.0
 10
942.4196
 20
-332.9966
 30
0.0
 10
941.0391
 20
-332.9966
 30
0.0
 10
939.9196
 20
-331.8771
 30
0.0
 10
939.9196
 20
-330.4966
 30
0.0
 10
939.9196
 20
-330.4966
 30
0.0
 10
939.9196
 20
-329.1161
 30
0.0
 10
941.0391
 20
-327.9966
 30
0.0
 10
942.4196
 20
-327.9966
 30
0.0
  0
SPLINE
  5
6B
330
1F
100
AcDbEntity
  8
layer 1
 62
   250
370
     0
100
AcDbSpline
210
0.0
220
0.0
230
1.0
 70
    11
 71
     3
 72
    20
 73
    16
 74
     0
 42
0.0000000001
 43
0.0000000001
 40
0.0
 40
0.0
 40
0.0
 40
0.0
 40
0.25
 40
0.25
 40
0.25
 40
0.25
 40
0.5
 40
0.5
 40
0.5
 40
0.5
 40
0.75
 40
0.75
 40
0.75
 40
0.75
 40
1.0
 40
1.0
 40
1.0
 40
1.0
 10
942.4196
 20
-302.9966
 30
0.0
 10
943.8001
 20
-302.9966
 30
0.0
 10
944.9196
 20
-304.1161
 30
0.0
 10
944.9196
 20
-305.4966
 30
0.0
 10
944.9196
 20
-305.4966
 30
0.0
 10
944.9196
 20
-306.8771
 30
0.0
 10
943.8001
 20
-307.9966
 30
0.0
 10
942.4196
 20
-307.9966
 30
0.0
 10
942.4196
 20
-307.9966
 30
0.0
 10
941.0391
 20
-307.9966
 30
0.0
 10
939.9196
 20
-306.8771
 30
0.0
 10
939.9196
 20
-305.4966
 30
0.0
 10
939.9196
 20
-305.4966
 30
0.0
 10
939.9196
 20
-304.1161
 30
0.0
 10
941.0391
 20
-302.9966
 30
0.0
 10
942.4196
 20
-302.9966
 30
0.0
  0
SPLINE
  5
6C
330
1F
100
AcDbEntity
  8
layer 1
 62
   250
370
     0
100
AcDbSpline
210
0.0
220
0.0
230
1.0
 70
    11
 71
     3
 72
    20
 73
    16
 74
     0
 42
0.0000000001
 43
0.0000000001
 40
0.0
 40
0.0
 40
0.0
 40
0.0
 40
0.25
 40
0.25
 40
0.25
 40
0.25
 40
0.5
 40
0.5
 40
0.5
 40
0.5
 40
0.75
 40
0.75
 40
0.75
 40
0.75
 40
1.0
 40
1.0
 40
1.0
 40
1.0
 10
942.4196
 20
-277.9966
 30
0.0
 10
943.8001
 20
-277.9966
 30
0.0
 10
944.9196
 20
-279.1161
 30
0.0
 10
944.9196
 20
-280.4966
 30
0.0
 10
944.9196
 20
-280.4966
 30
0.0
 10
944.9196
 20
-281.8771
 30
0.0
 10
943.8001
 20
-282.9966
 30
0.0
 10
942.4196
 20
-282.9966
 30
0.0
 10
942.4196
 20
-282.9966
 30
0.0
 10
941.0391
 20
-282.9966
 30
0.0
 10
939.9196
 20
-281.8771
 30
0.0
 10
939.9196
 20
-280.4966
 30
0.0
 10
939.9196
 20
-280.4966
 30
0.0
 10
939.9196
 20
-279.1161
 30
0.0
 10
941.0391
 20
-277.9966
 30
0.0
 10
942.4196
 20
-277.9966
 30
0.0
  0
SPLINE
  5
6D
330
1F
100
AcDbEntity
  8
layer 1
 62
   250
370
     0
100
AcDbSpline
210
0.0
220
0.0
230
1.0
 70
    11
 71
     3
 72
    20
 73
    16
 74
     0
 42
0.0000000001
 43
0.0000000001
 40
0.0
 40
0.0
 40
0.0
 40
0.0
 40
0.25
 40
0.25
 40
0.25
 40
0.25
 40
0.5
 40
0.5
 40
0.5
 40
0.5
 40
0.75
 40
0.75
 40
0.75
 40
0.75
 40
1.0
 40
1.0
 40
1.0
 40
1.0
 10
942.4196
 20
-252.9966
 30
0.0
 10
943.8001
 20
-252.9966
 30
0.0
 10
944.9196
 20
-254.1161
 30
0.0
 10
944.9196
 20
-255.4966
 30
0.0
 10
944.9196
 20
-255.4966
 30
0.0
 10
944.9196
 20
-256.8771
 30
0.0
 10
943.8001
 20
-257.9966
 30
0.0
 10
942.4196
 20
-257.9966
 30
0.0
 10
942.4196
 20
-257.9966
 30
0.0
 10
941.0391
 20
-257.9966
 30
0.0
 10
939.9196
 20
-256.8771
 30
0.0
 10
939.9196
 20
-255.4966
 30
0.0
 10
939.9196
 20
-255.4966
 30
0.0
 10
939.9196
 20
-254.1161
 30
0.0
 10
941.0391
 20
-252.9966
 30
0.0
 10
942.4196
 20
-252.9966
 30
0.0
  0
SPLINE
  5
6E
330
1F
100
AcDbEntity
  8
layer 1
 62
   250
370
     0
100
AcDbSpline
210
0.0
220
0.0
230
1.0
 70
    11
 71
     3
 72
    20
 73
    16
 74
     0
 42
0.0000000001
 43
0.0000000001
 40
0.0
 40
0.0
 40
0.0
 40
0.0
 40
0.25
 40
0.25
 40
0.25
 40
0.25
 40
0.5
 40
0.5
 40
0.5
 40
0.5
 40
0.75
 40
0.75
 40
0.75
 40
0.75
 40
1.0
 40
1.0
 40
1.0
 40
1.0
 10
942.4196
 20
-227.9966
 30
0.0
 10
943.8001
 20
-227.9966
 30
0.0
 10
944.9196
 20
-229.1161
 30
0.0
 10
944.9196
 20
-230.4966
 30
0.0
 10
944.9196
 20
-230.4966
 30
0.0
 10
944.9196
 20
-231.8771
 30
0.0
 10
943.8001
 20
-232.9966
 30
0.0
 10
942.4196
 20
-232.9966
 30
0.0
 10
942.4196
 20
-232.9966
 30
0.0
 10
941.0391
 20
-232.9966
 30
0.0
 10
939.9196
 20
-231.8771
 30
0.0
 10
939.9196
 20
-230.4966
 30
0.0
 10
939.9196
 20
-230.4966
 30
0.0
 10
939.9196
 20
-229.1161
 30
0.0
 10
941.0391
 20
-227.9966
 30
0.0
 10
942.4196
 20
-227.9966
 30
0.0
  0
SPLINE
  5
6F
330
1F
100
AcDbEntity
  8
layer 1
 62
   250
370
     0
100
AcDbSpline
210
0.0
220
0.0
230
1.0
 70
    11
 71
     3
 72
    20
 73
    16
 74
     0
 42
0.0000000001
 43
0.0000000001
 40
0.0
 40
0.0
 40
0.0
 40
0.0
 40
0.25
 40
0.25
 40
0.25
 40
0.25
 40
0.5
 40
0.5
 40
0.5
 40
0.5
 40
0.75
 40
0.75
 40
0.75
 40
0.75
 40
1.0
 40
1.0
 40
1.0
 40
1.0
 10
942.4196
 20
-202.9966
 30
0.0
 10
943.8001
 20
-202.9966
 30
0.0
 10
944.9196
 20
-204.1161
 30
0.0
 10
944.9196
 20
-205.4966
 30
0.0
 10
944.9196
 20
-205.4966
 30
0.0
 10
944.9196
 20
-206.8771
 30
0.0
 10
943.8001
 20
-207.9966
 30
0.0
 10
942.4196
 20
-207.9966
 30
0.0
 10
942.4196
 20
-207.9966
 30
0.0
 10
941.0391
 20
-207.9966
 30
0.0
 10
939.9196
 20
-206.8771
 30
0.0
 10
939.9196
 20
-205.4966
 30
0.0
 10
939.9196
 20
-205.4966
 30
0.0
 10
939.9196
 20
-204.1161
 30
0.0
 10
941.0391
 20
-202.9966
 30
0.0
 10
942.4196
 20
-202.9966
 30
0.0
  0
SPLINE
  5
70
330
1F
100
AcDbEntity
  8
layer 1
 62
   250
370
     0
100
AcDbSpline
210
0.0
220
0.0
230
1.0
 70
    11
 71
     3
 72
    20
 73
    16
 74
     0
 42
0.0000000001
 43
0.0000000001
 40
0.0
 40
0.0
 40
0.0
 40
0.0
 40
0.25
 40
0.25
 40
0.25
 40
0.25
 40
0.5
 40
0.5
 40
0.5
 40
0.5
 40
0.75
 40
0.75
 40
0.75
 40
0.75
 40
1.0
 40
1.0
 40
1.0
 40
1.0
 10
942.4196
 20
-177.9966
 30
0.0
 10
943.8001
 20
-177.9966
 30
0.0
 10
944.9196
 20
-179.1161
 30
0.0
 10
944.9196
 20
-180.4966
 30
0.0
 10
944.9196
 20
-180.4966
 30
0.0
 10
944.9196
 20
-181.8771
 30
0.0
 10
943.8001
 20
-182.9966
 30
0.0
 10
942.4196
 20
-182.9966
 30
0.0
 10
942.4196
 20
-182.9966
 30
0.0
 10
941.0391
 20
-182.9966
 30
0.0
 10
939.9196
 20
-181.8771
 30
0.0
 10
939.9196
 20
-180.4966
 30
0.0
 10
939.9196
 20
-180.4966
 30
0.0
 10
939.9196
 20
-179.1161
 30
0.0
 10
941.0391
 20
-177.9966
 30
0.0
 10
942.4196
 20
-177.9966
 30
0.0
  0
SPLINE
  5
71
330
1F
100
AcDbEntity
  8
layer 1
 62
   250
370
     0
100
AcDbSpline
210
0.0
220
0.0
230
1.0
 70
    11
 71
     3
 72
    20
 73
    16
 74
     0
 42
0.0000000001
 43
0.0000000001
 40
0.0
 40
0.0
 40
0.0
 40
0.0
 40
0.25
 40
0.25
 40
0.25
 40
0.25
 40
0.5
 40
0.5
 40
0.5
 40
0.5
 40
0.75
 40
0.75
 40
0.75
 40
0.75
 40
1.0
 40
1.0
 40
1.0
 40
1.0
 10
942.4196
 20
-152.9966
 30
0.0
 10
943.8001
 20
-152.9966
 30
0.0
 10
944.9196
 20
-154.1161
 30
0.0
 10
944.9196
 20
-155.4966
 30
0.0
 10
944.9196
 20
-155.4966
 30
0.0
 10
944.9196
 20
-156.8771
 30
0.0
 10
943.8001
 20
-157.9966
 30
0.0
 10
942.4196
 20
-157.9966
 30
0.0
 10
942.4196
 20
-157.9966
 30
0.0
 10
941.0391
 20
-157.9966
 30
0.0
 10
939.9196
 20
-156.8771
 30
0.0
 10
939.9196
 20
-155.4966
 30
0.0
 10
939.9196
 20
-155.4966
 30
0.0
 10
939.9196
 20
-154.1161
 30
0.0
 10
941.0391
 20
-152.9966
 30
0.0
 10
942.4196
 20
-152.9966
 30
0.0
  0
SPLINE
  5
72
330
1F
100
AcDbEntity
  8
layer 1
 62
   250
370
     0
100
AcDbSpline
210
0.0
220
0.0
230
1.0
 70
    11
 71
     3
 72
    20
 73
    16
 74
     0
 42
0.0000000001
 43
0.0000000001
 40
0.0
 40
0.0
 40
0.0
 40
0.0
 40
0.25
 40
0.25
 40
0.25
 40
0.25
 40
0.5
 40
0.5
 40
0.5
 40
0.5
 40
0.75
 40
0.75
 40
0.75
 40
0.75
 40
1.0
 40
1.0
 40
1.0
 40
1.0
 10
942.4196
 20
-127.9966
 30
0.0
 10
943.8001
 20
-127.9966
 30
0.0
 10
944.9196
 20
-129.1161
 30
0.0
 10
944.9196
 20
-130.4966
 30
0.0
 10
944.9196
 20
-130.4966
 30
0.0
 10
944.9196
 20
-131.8771
 30
0.0
 10
943.8001
 20
-132.9966
 30
0.0
 10
942.4196
 20
-132.9966
 30
0.0
 10
942.4196
 20
-132.9966
 30
0.0
 10
941.0391
 20
-132.9966
 30
0.0
 10
939.9196
 20
-131.8771
 30
0.0
 10
939.9196
 20
-130.4966
 30
0.0
 10
939.9196
 20
-130.4966
 30
0.0
 10
939.9196
 20
-129.1161
 30
0.0
 10
941.0391
 20
-127.9966
 30
0.0
 10
942.4196
 20
-127.9966
 30
0.0
  0
SPLINE
  5
73
330
1F
100
AcDbEntity
  8
layer 1
 62
   250
370
     0
100
AcDbSpline
210
0.0
220
0.0
230
1.0
 70
    11
 71
     3
 72
    20
 73
    16
 74
     0
 42
0.0000000001
 43
0.0000000001
 40
0.0
 40
0.0
 40
0.0
 40
0.0
 40
0.25
 40
0.25
 40
0.25
 40
0.25
 40
0.5
 40
0.5
 40
0.5
 40
0.5
 40
0.75
 40
0.75
 40
0.75
 40
0.75
 40
1.0
 40
1.0
 40
1.0
 40
1.0
 10
942.4196
 20
-102.9966
 30
0.0
 10
943.8001
 20
-102.9966
 30
0.0
 10
944.9196
 20
-104.1161
 30
0.0
 10
944.9196
 20
-105.4966
 30
0.0
 10
944.9196
 20
-105.4966
 30
0.0
 10
944.9196
 20
-106.8771
 30
0.0
 10
943.8001
 20
-107.9966
 30
0.0
 10
942.4196
 20
-107.9966
 30
0.0
 10
942.4196
 20
-107.9966
 30
0.0
 10
941.0391
 20
-107.9966
 30
0.0
 10
939.9196
 20
-106.8771
 30
0.0
 10
939.9196
 20
-105.4966
 30
0.0
 10
939.9196
 20
-105.4966
 30
0.0
 10
939.9196
 20
-104.1161
 30
0.0
 10
941.0391
 20
-102.9966
 30
0.0
 10
942.4196
 20
-102.9966
 30
0.0
  0
SPLINE
  5
74
330
1F
100
AcDbEntity
  8
layer 1
 62
   250
370
     0
100
AcDbSpline
210
0.0
220
0.0
230
1.0
 70
    11
 71
     3
 72
    20
 73
    16
 74
     0
 42
0.0000000001
 43
0.0000000001
 40
0.0
 40
0.0
 40
0.0
 40
0.0
 40
0.25
 40
0.25
 40
0.25
 40
0.25
 40
0.5
 40
0.5
 40
0.5
 40
0.5
 40
0.75
 40
0.75
 40
0.75
 40
0.75
 40
1.0
 40
1.0
 40
1.0
 40
1.0
 10
942.4196
 20
-77.9966
 30
0.0
 10
943.8001
 20
-77.9966
 30
0.0
 10
944.9196
 20
-79.1161
 30
0.0
 10
944.9196
 20
-80.4966
 30
0.0
 10
944.9196
 20
-80.4966
 30
0.0
 10
944.9196
 20
-81.8771
 30
0.0
 10
943.8001
 20
-82.9966
 30
0.0
 10
942.4196
 20
-82.9966
 30
0.0
 10
942.4196
 20
-82.9966
 30
0.0
 10
941.0391
 20
-82.9966
 30
0.0
 10
939.9196
 20
-81.8771
 30
0.0
 10
939.9196
 20
-80.4966
 30
0.0
 10
939.9196
 20
-80.4966
 30
0.0
 10
939.9196
 20
-79.1161
 30
0.0
 10
941.0391
 20
-77.9966
 30
0.0
 10
942.4196
 20
-77.9966
 30
0.0
  0
SPLINE
  5
75
330
1F
100
AcDbEntity
  8
layer 1
 62
   250
370
     0
100
AcDbSpline
210
0.0
220
0.0
230
1.0
 70
    11
 71
     3
 72
    20
 73
    16
 74
     0
 42
0.0000000001
 43
0.0000000001
 40
0.0
 40
0.0
 40
0.0
 40
0.0
 40
0.25
 40
0.25
 40
0.25
 40
0.25
 40
0.5
 40
0.5
 40
0.5
 40
0.5
 40
0.75
 40
0.75
 40
0.75
 40
0.75
 40
1.0
 40
1.0
 40
1.0
 40
1.0
 10
942.4196
 20
-52.9966
 30
0.0
 10
943.8001
 20
-52.9966
 30
0.0
 10
944.9196
 20
-54.1161
 30
0.0
 10
944.9196
 20
-55.4966
 30
0.0
 10
944.9196
 20
-55.4966
 30
0.0
 10
944.9196
 20
-56.8771
 30
0.0
 10
943.8001
 20
-57.9966
 30
0.0
 10
942.4196
 20
-57.9966
 30
0.0
 10
942.4196
 20
-57.9966
 30
0.0
 10
941.0391
 20
-57.9966
 30
0.0
 10
939.9196
 20
-56.8771
 30
0.0
 10
939.9196
 20
-55.4966
 30
0.0
 10
939.9196
 20
-55.4966
 30
0.0
 10
939.9196
 20
-54.1161
 30
0.0
 10
941.0391
 20
-52.9966
 30
0.0
 10
942.4196
 20
-52.9966
 30
0.0
  0
SPLINE
  5
76
330
1F
100
AcDbEntity
  8
layer 1
 62
   250
370
     0
100
AcDbSpline
210
0.0
220
0.0
230
1.0
 70
    11
 71
     3
 72
    20
 73
    16
 74
     0
 42
0.0000000001
 43
0.0000000001
 40
0.0
 40
0.0
 40
0.0
 40
0.0
 40
0.25
 40
0.25
 40
0.25
 40
0.25
 40
0.5
 40
0.5
 40
0.5
 40
0.5
 40
0.75
 40
0.75
 40
0.75
 40
0.75
 40
1.0
 40
1.0
 40
1.0
 40
1.0
 10
942.4196
 20
-27.9966
 30
0.0
 10
943.8001
 20
-27.9966
 30
0.0
 10
944.9196
 20
-29.1161
 30
0.0
 10
944.9196
 20
-30.4966
 30
0.0
 10
944.9196
 20
-30.4966
 30
0.0
 10
944.9196
 20
-31.8771
 30
0.0
 10
943.8001
 20
-32.9966
 30
0.0
 10
942.4196
 20
-32.9966
 30
0.0
 10
942.4196
 20
-32.9966
 30
0.0
 10
941.0391
 20
-32.9966
 30
0.0
 10
939.9196
 20
-31.8771
 30
0.0
 10
939.9196
 20
-30.4966
 30
0.0
 10
939.9196
 20
-30.4966
 30
0.0
 10
939.9196
 20
-29.1161
 30
0.0
 10
941.0391
 20
-27.9966
 30
0.0
 10
942.4196
 20
-27.9966
 30
0.0
  0
SPLINE
  5
77
330
1F
100
AcDbEntity
  8
layer 1
 62
   250
370
     0
100
AcDbSpline
210
0.0
220
0.0
230
1.0
 70
    11
 71
     3
 72
    20
 73
    16
 74
     0
 42
0.0000000001
 43
0.0000000001
 40
0.0
 40
0.0
 40
0.0
 40
0.0
 40
0.25
 40
0.25
 40
0.25
 40
0.25
 40
0.5
 40
0.5
 40
0.5
 40
0.5
 40
0.75
 40
0.75
 40
0.75
 40
0.75
 40
1.0
 40
1.0
 40
1.0
 40
1.0
 10
967.4196
 20
-327.9966
 30
0.0
 10
968.8001
 20
-327.9966
 30
0.0
 10
969.9196
 20
-329.1161
 30
0.0
 10
969.9196
 20
-330.4966
 30
0.0
 10
969.9196
 20
-330.4966
 30
0.0
 10
969.9196
 20
-331.8771
 30
0.0
 10
968.8001
 20
-332.9966
 30
0.0
 10
967.4196
 20
-332.9966
 30
0.0
 10
967.4196
 20
-332.9966
 30
0.0
 10
966.0391
 20
-332.9966
 30
0.0
 10
964.9196
 20
-331.8771
 30
0.0
 10
964.9196
 20
-330.4966
 30
0.0
 10
964.9196
 20
-330.4966
 30
0.0
 10
964.9196
 20
-329.1161
 30
0.0
 10
966.0391
 20
-327.9966
 30
0.0
 10
967.4196
 20
-327.9966
 30
0.0
  0
SPLINE
  5
78
330
1F
100
AcDbEntity
  8
layer 1
 62
   250
370
     0
100
AcDbSpline
210
0.0
220
0.0
230
1.0
 70
    11
 71
     3
 72
    20
 73
    16
 74
     0
 42
0.0000000001
 43
0.0000000001
 40
0.0
 40
0.0
 40
0.0
 40
0.0
 40
0.25
 40
0.25
 40
0.25
 40
0.25
 40
0.5
 40
0.5
 40
0.5
 40
0.5
 40
0.75
 40
0.75
 40
0.75
 40
0.75
 40
1.0
 40
1.0
 40
1.0
 40
1.0
 10
967.4196
 20
-302.9966
 30
0.0
 10
968.8001
 20
-302.9966
 30
0.0
 10
969.9196
 20
-304.1161
 30
0.0
 10
969.9196
 20
-305.4966
 30
0.0
 10
969.9196
 20
-305.4966
 30
0.0
 10
969.9196
 20
-306.8771
 30
0.0
 10
968.8001
 20
-307.9966
 30
0.0
 10
967.4196
 20
-307.9966
 30
0.0
 10
967.4196
 20
-307.9966
 30
0.0
 10
966.0391
 20
-307.9966
 30
0.0
 10
964.9196
 20
-306.8771
 30
0.0
 10
964.9196
 20
-305.4966
 30
0.0
 10
964.9196
 20
-305.4966
 30
0.0
 10
964.9196
 20
-304.1161
 30
0.0
 10
966.0391
 20
-302.9966
 30
0.0
 10
967.4196
 20
-302.9966
 30
0.0
  0
SPLINE
  5
79
330
1F
100
AcDbEntity
  8
layer 1
 62
   250
370
     0
100
AcDbSpline
210
0.0
220
0.0
230
1.0
 70
    11
 71
     3
 72
    20
 73
    16
 74
     0
 42
0.0000000001
 43
0.0000000001
 40
0.0
 40
0.0
 40
0.0
 40
0.0
 40
0.25
 40
0.25
 40
0.25
 40
0.25
 40
0.5
 40
0.5
 40
0.5
 40
0.5
 40
0.75
 40
0.75
 40
0.75
 40
0.75
 40
1.0
 40
1.0
 40
1.0
 40
1.0
 10
967.4196
 20
-277.9966
 30
0.0
 10
968.8001
 20
-277.9966
 30
0.0
 10
969.9196
 20
-279.1161
 30
0.0
 10
969.9196
 20
-280.4966
 30
0.0
 10
969.9196
 20
-280.4966
 30
0.0
 10
969.9196
 20
-281.8771
 30
0.0
 10
968.8001
 20
-282.9966
 30
0.0
 10
967.4196
 20
-282.9966
 30
0.0
 10
967.4196
 20
-282.9966
 30
0.0
 10
966.0391
 20
-282.9966
 30
0.0
 10
964.9196
 20
-281.8771
 30
0.0
 10
964.9196
 20
-280.4966
 30
0.0
 10
964.9196
 20
-280.4966
 30
0.0
 10
964.9196
 20
-279.1161
 30
0.0
 10
966.0391
 20
-277.9966
 30
0.0
 10
967.4196
 20
-277.9966
 30
0.0
  0
SPLINE
  5
7A
330
1F
100
AcDbEntity
  8
layer 1
 62
   250
370
     0
100
AcDbSpline
210
0.0
220
0.0
230
1.0
 70
    11
 71
     3
 72
    20
 73
    16
 74
     0
 42
0.0000000001
 43
0.0000000001
 40
0.0
 40
0.0
 40
0.0
 40
0.0
 40
0.25
 40
0.25
 40
0.25
 40
0.25
 40
0.5
 40
0.5
 40
0.5
 40
0.5
 40
0.75
 40
0.75
 40
0.75
 40
0.75
 40
1.0
 40
1.0
 40
1.0
 40
1.0
 10
967.4196
 20
-252.9966
 30
0.0
 10
968.8001
 20
-252.9966
 30
0.0
 10
969.9196
 20
-254.1161
 30
0.0
 10
969.9196
 20
-255.4966
 30
0.0
 10
969.9196
 20
-255.4966
 30
0.0
 10
969.9196
 20
-256.8771
 30
0.0
 10
968.8001
 20
-257.9966
 30
0.0
 10
967.4196
 20
-257.9966
 30
0.0
 10
967.4196
 20
-257.9966
 30
0.0
 10
966.0391
 20
-257.9966
 30
0.0
 10
964.9196
 20
-256.8771
 30
0.0
 10
964.9196
 20
-255.4966
 30
0.0
 10
964.9196
 20
-255.4966
 30
0.0
 10
964.9196
 20
-254.1161
 30
0.0
 10
966.0391
 20
-252.9966
 30
0.0
 10
967.4196
 20
-252.9966
 30
0.0
  0
SPLINE
  5
7B
330
1F
100
AcDbEntity
  8
layer 1
 62
   250
370
     0
100
AcDbSpline
210
0.0
220
0.0
230
1.0
 70
    11
 71
     3
 72
    20
 73
    16
 74
     0
 42
0.0000000001
 43
0.0000000001
 40
0.0
 40
0.0
 40
0.0
 40
0.0
 40
0.25
 40
0.25
 40
0.25
 40
0.25
 40
0.5
 40
0.5
 40
0.5
 40
0.5
 40
0.75
 40
0.75
 40
0.75
 40
0.75
 40
1.0
 40
1.0
 40
1.0
 40
1.0
 10
967.4196
 20
-227.9966
 30
0.0
 10
968.8001
 20
-227.9966
 30
0.0
 10
969.9196
 20
-229.1161
 30
0.0
 10
969.9196
 20
-230.4966
 30
0.0
 10
969.9196
 20
-230.4966
 30
0.0
 10
969.9196
 20
-231.8771
 30
0.0
 10
968.8001
 20
-232.9966
 30
0.0
 10
967.4196
 20
-232.9966
 30
0.0
 10
967.4196
 20
-232.9966
 30
0.0
 10
966.0391
 20
-232.9966
 30
0.0
 10
964.9196
 20
-231.8771
 30
0.0
 10
964.9196
 20
-230.4966
 30
0.0
 10
964.9196
 20
-230.4966
 30
0.0
 10
964.9196
 20
-229.1161
 30
0.0
 10
966.0391
 20
-227.9966
 30
0.0
 10
967.4196
 20
-227.9966
 30
0.0
  0
SPLINE
  5
7C
330
1F
100
AcDbEntity
  8
layer 1
 62
   250
370
     0
100
AcDbSpline
210
0.0
220
0.0
230
1.0
 70
    11
 71
     3
 72
    20
 73
    16
 74
     0
 42
0.0000000001
 43
0.0000000001
 40
0.0
 40
0.0
 40
0.0
 40
0.0
 40
0.25
 40
0.25
 40
0.25
 40
0.25
 40
0.5
 40
0.5
 40
0.5
 40
0.5
 40
0.75
 40
0.75
 40
0.75
 40
0.75
 40
1.0
 40
1.0
 40
1.0
 40
1.0
 10
967.4196
 20
-202.9966
 30
0.0
 10
968.8001
 20
-202.9966
 30
0.0
 10
969.9196
 20
-204.1161
 30
0.0
 10
969.9196
 20
-205.4966
 30
0.0
 10
969.9196
 20
-205.4966
 30
0.0
 10
969.9196
 20
-206.8771
 30
0.0
 10
968.8001
 20
-207.9966
 30
0.0
 10
967.4196
 20
-207.9966
 30
0.0
 10
967.4196
 20
-207.9966
 30
0.0
 10
966.0391
 20
-207.9966
 30
0.0
 10
964.9196
 20
-206.8771
 30
0.0
 10
964.9196
 20
-205.4966
 30
0.0
 10
964.9196
 20
-205.4966
 30
0.0
 10
964.9196
 20
-204.1161
 30
0.0
 10
966.0391
 20
-202.9966
 30
0.0
 10
967.4196
 20
-202.9966
 30
0.0
  0
SPLINE
  5
7D
330
1F
100
AcDbEntity
  8
layer 1
 62
   250
370
     0
100
AcDbSpline
210
0.0
220
0.0
230
1.0
 70
    11
 71
     3
 72
    20
 73
    16
 74
     0
 42
0.0000000001
 43
0.0000000001
 40
0.0
 40
0.0
 40
0.0
 40
0.0
 40
0.25
 40
0.25
 40
0.25
 40
0.25
 40
0.5
 40
0.5
 40
0.5
 40
0.5
 40
0.75
 40
0.75
 40
0.75
 40
0.75
 40
1.0
 40
1.0
 40
1.0
 40
1.0
 10
967.4196
 20
-177.9966
 30
0.0
 10
968.8001
 20
-177.9966
 30
0.0
 10
969.9196
 20
-179.1161
 30
0.0
 10
969.9196
 20
-180.4966
 30
0.0
 10
969.9196
 20
-180.4966
 30
0.0
 10
969.9196
 20
-181.8771
 30
0.0
 10
968.8001
 20
-182.9966
 30
0.0
 10
967.4196
 20
-182.9966
 30
0.0
 10
967.4196
 20
-182.9966
 30
0.0
 10
966.0391
 20
-182.9966
 30
0.0
 10
964.9196
 20
-181.8771
 30
0.0
 10
964.9196
 20
-180.4966
 30
0.0
 10
964.9196
 20
-180.4966
 30
0.0
 10
964.9196
 20
-179.1161
 30
0.0
 10
966.0391
 20
-177.9966
 30
0.0
 10
967.4196
 20
-177.9966
 30
0.0
  0
SPLINE
  5
7E
330
1F
100
AcDbEntity
  8
layer 1
 62
   250
370
     0
100
AcDbSpline
210
0.0
220
0.0
230
1.0
 70
    11
 71
     3
 72
    20
 73
    16
 74
     0
 42
0.0000000001
 43
0.0000000001
 40
0.0
 40
0.0
 40
0.0
 40
0.0
 40
0.25
 40
0.25
 40
0.25
 40
0.25
 40
0.5
 40
0.5
 40
0.5
 40
0.5
 40
0.75
 40
0.75
 40
0.75
 40
0.75
 40
1.0
 40
1.0
 40
1.0
 40
1.0
 10
967.4196
 20
-152.9966
 30
0.0
 10
968.8001
 20
-152.9966
 30
0.0
 10
969.9196
 20
-154.1161
 30
0.0
 10
969.9196
 20
-155.4966
 30
0.0
 10
969.9196
 20
-155.4966
 30
0.0
 10
969.9196
 20
-156.8771
 30
0.0
 10
968.8001
 20
-157.9966
 30
0.0
 10
967.4196
 20
-157.9966
 30
0.0
 10
967.4196
 20
-157.9966
 30
0.0
 10
966.0391
 20
-157.9966
 30
0.0
 10
964.9196
 20
-156.8771
 30
0.0
 10
964.9196
 20
-155.4966
 30
0.0
 10
964.9196
 20
-155.4966
 30
0.0
 10
964.9196
 20
-154.1161
 30
0.0
 10
966.0391
 20
-152.9966
 30
0.0
 10
967.4196
 20
-152.9966
 30
0.0
  0
SPLINE
  5
7F
330
1F
100
AcDbEntity
  8
layer 1
 62
   250
370
     0
100
AcDbSpline
210
0.0
220
0.0
230
1.0
 70
    11
 71
     3
 72
    20
 73
    16
 74
     0
 42
0.0000000001
 43
0.0000000001
 40
0.0
 40
0.0
 40
0.0
 40
0.0
 40
0.25
 40
0.25
 40
0.25
 40
0.25
 40
0.5
 40
0.5
 40
0.5
 40
0.5
 40
0.75
 40
0.75
 40
0.75
 40
0.75
 40
1.0
 40
1.0
 40
1.0
 40
1.0
 10
967.4196
 20
-127.9966
 30
0.0
 10
968.8001
 20
-127.9966
 30
0.0
 10
969.9196
 20
-129.1161
 30
0.0
 10
969.9196
 20
-130.4966
 30
0.0
 10
969.9196
 20
-130.4966
 30
0.0
 10
969.9196
 20
-131.8771
 30
0.0
 10
968.8001
 20
-132.9966
 30
0.0
 10
967.4196
 20
-132.9966
 30
0.0
 10
967.4196
 20
-132.9966
 30
0.0
 10
966.0391
 20
-132.9966
 30
0.0
 10
964.9196
 20
-131.8771
 30
0.0
 10
964.9196
 20
-130.4966
 30
0.0
 10
964.9196
 20
-130.4966
 30
0.0
 10
964.9196
 20
-129.1161
 30
0.0
 10
966.0391
 20
-127.9966
 30
0.0
 10
967.4196
 20
-127.9966
 30
0.0
  0
SPLINE
  5
80
330
1F
100
AcDbEntity
  8
layer 1
 62
   250
370
     0
100
AcDbSpline
210
0.0
220
0.0
230
1.0
 70
    11
 71
     3
 72
    20
 73
    16
 74
     0
 42
0.0000000001
 43
0.0000000001
 40
0.0
 40
0.0
 40
0.0
 40
0.0
 40
0.25
 40
0.25
 40
0.25
 40
0.25
 40
0.5
 40
0.5
 40
0.5
 40
0.5
 40
0.75
 40
0.75
 40
0.75
 40
0.75
 40
1.0
 40
1.0
 40
1.0
 40
1.0
 10
967.4196
 20
-102.9966
 30
0.0
 10
968.8001
 20
-102.9966
 30
0.0
 10
969.9196
 20
-104.1161
 30
0.0
 10
969.9196
 20
-105.4966
 30
0.0
 10
969.9196
 20
-105.4966
 30
0.0
 10
969.9196
 20
-106.8771
 30
0.0
 10
968.8001
 20
-107.9966
 30
0.0
 10
967.4196
 20
-107.9966
 30
0.0
 10
967.4196
 20
-107.9966
 30
0.0
 10
966.0391
 20
-107.9966
 30
0.0
 10
964.9196
 20
-106.8771
 30
0.0
 10
964.9196
 20
-105.4966
 30
0.0
 10
964.9196
 20
-105.4966
 30
0.0
 10
964.9196
 20
-104.1161
 30
0.0
 10
966.0391
 20
-102.9966
 30
0.0
 10
967.4196
 20
-102.9966
 30
0.0
  0
SPLINE
  5
81
330
1F
100
AcDbEntity
  8
layer 1
 62
   250
370
     0
100
AcDbSpline
210
0.0
220
0.0
230
1.0
 70
    11
 71
     3
 72
    20
 73
    16
 74
     0
 42
0.0000000001
 43
0.0000000001
 40
0.0
 40
0.0
 40
0.0
 40
0.0
 40
0.25
 40
0.25
 40
0.25
 40
0.25
 40
0.5
 40
0.5
 40
0.5
 40
0.5
 40
0.75
 40
0.75
 40
0.75
 40
0.75
 40
1.0
 40
1.0
 40
1.0
 40
1.0
 10
967.4196
 20
-77.9966
 30
0.0
 10
968.8001
 20
-77.9966
 30
0.0
 10
969.9196
 20
-79.1161
 30
0.0
 10
969.9196
 20
-80.4966
 30
0.0
 10
969.9196
 20
-80.4966
 30
0.0
 10
969.9196
 20
-81.8771
 30
0.0
 10
968.8001
 20
-82.9966
 30
0.0
 10
967.4196
 20
-82.9966
 30
0.0
 10
967.4196
 20
-82.9966
 30
0.0
 10
966.0391
 20
-82.9966
 30
0.0
 10
964.9196
 20
-81.8771
 30
0.0
 10
964.9196
 20
-80.4966
 30
0.0
 10
964.9196
 20
-80.4966
 30
0.0
 10
964.9196
 20
-79.1161
 30
0.0
 10
966.0391
 20
-77.9966
 30
0.0
 10
967.4196
 20
-77.9966
 30
0.0
  0
SPLINE
  5
82
330
1F
100
AcDbEntity
  8
layer 1
 62
   250
370
     0
100
AcDbSpline
210
0.0
220
0.0
230
1.0
 70
    11
 71
     3
 72
    20
 73
    16
 74
     0
 42
0.0000000001
 43
0.0000000001
 40
0.0
 40
0.0
 40
0.0
 40
0.0
 40
0.25
 40
0.25
 40
0.25
 40
0.25
 40
0.5
 40
0.5
 40
0.5
 40
0.5
 40
0.75
 40
0.75
 40
0.75
 40
0.75
 40
1.0
 40
1.0
 40
1.0
 40
1.0
 10
967.4196
 20
-52.9966
 30
0.0
 10
968.8001
 20
-52.9966
 30
0.0
 10
969.9196
 20
-54.1161
 30
0.0
 10
969.9196
 20
-55.4966
 30
0.0
 10
969.9196
 20
-55.4966
 30
0.0
 10
969.9196
 20
-56.8771
 30
0.0
 10
968.8001
 20
-57.9966
 30
0.0
 10
967.4196
 20
-57.9966
 30
0.0
 10
967.4196
 20
-57.9966
 30
0.0
 10
966.0391
 20
-57.9966
 30
0.0
 10
964.9196
 20
-56.8771
 30
0.0
 10
964.9196
 20
-55.4966
 30
0.0
 10
964.9196
 20
-55.4966
 30
0.0
 10
964.9196
 20
-54.1161
 30
0.0
 10
966.0391
 20
-52.9966
 30
0.0
 10
967.4196
 20
-52.9966
 30
0.0
  0
SPLINE
  5
83
330
1F
100
AcDbEntity
  8
layer 1
 62
   250
370
     0
100
AcDbSpline
210
0.0
220
0.0
230
1.0
 70
    11
 71
     3
 72
    20
 73
    16
 74
     0
 42
0.0000000001
 43
0.0000000001
 40
0.0
 40
0.0
 40
0.0
 40
0.0
 40
0.25
 40
0.25
 40
0.25
 40
0.25
 40
0.5
 40
0.5
 40
0.5
 40
0.5
 40
0.75
 40
0.75
 40
0.75
 40
0.75
 40
1.0
 40
1.0
 40
1.0
 40
1.0
 10
967.4196
 20
-27.9966
 30
0.0
 10
968.8001
 20
-27.9966
 30
0.0
 10
969.9196
 20
-29.1161
 30
0.0
 10
969.9196
 20
-30.4966
 30
0.0
 10
969.9196
 20
-30.4966
 30
0.0
 10
969.9196
 20
-31.8771
 30
0.0
 10
968.8001
 20
-32.9966
 30
0.0
 10
967.4196
 20
-32.9966
 30
0.0
 10
967.4196
 20
-32.9966
 30
0.0
 10
966.0391
 20
-32.9966
 30
0.0
 10
964.9196
 20
-31.8771
 30
0.0
 10
964.9196
 20
-30.4966
 30
0.0
 10
964.9196
 20
-30.4966
 30
0.0
 10
964.9196
 20
-29.1161
 30
0.0
 10
966.0391
 20
-27.9966
 30
0.0
 10
967.4196
 20
-27.9966
 30
0.0
  0
SPLINE
  5
84
330
1F
100
AcDbEntity
  8
layer 1
 62
   250
370
     0
100
AcDbSpline
210
0.0
220
0.0
230
1.0
 70
    11
 71
     3
 72
    20
 73
    16
 74
     0
 42
0.0000000001
 43
0.0000000001
 40
0.0
 40
0.0
 40
0.0
 40
0.0
 40
0.25
 40
0.25
 40
0.25
 40
0.25
 40
0.5
 40
0.5
 40
0.5
 40
0.5
 40
0.75
 40
0.75
 40
0.75
 40
0.75
 40
1.0
 40
1.0
 40
1.0
 40
1.0
 10
992.4196
 20
-327.9966
 30
0.0
 10
993.8001
 20
-327.9966
 30
0.0
 10
994.9196
 20
-329.1161
 30
0.0
 10
994.9196
 20
-330.4966
 30
0.0
 10
994.9196
 20
-330.4966
 30
0.0
 10
994.9196
 20
-331.8771
 30
0.0
 10
993.8001
 20
-332.9966
 30
0.0
 10
992.4196
 20
-332.9966
 30
0.0
 10
992.4196
 20
-332.9966
 30
0.0
 10
991.0391
 20
-332.9966
 30
0.0
 10
989.9196
 20
-331.8771
 30
0.0
 10
989.9196
 20
-330.4966
 30
0.0
 10
989.9196
 20
-330.4966
 30
0.0
 10
989.9196
 20
-329.1161
 30
0.0
 10
991.0391
 20
-327.9966
 30
0.0
 10
992.4196
 20
-327.9966
 30
0.0
  0
SPLINE
  5
85
330
1F
100
AcDbEntity
  8
layer 1
 62
   250
370
     0
100
AcDbSpline
210
0.0
220
0.0
230
1.0
 70
    11
 71
     3
 72
    20
 73
    16
 74
     0
 42
0.0000000001
 43
0.0000000001
 40
0.0
 40
0.0
 40
0.0
 40
0.0
 40
0.25
 40
0.25
 40
0.25
 40
0.25
 40
0.5
 40
0.5
 40
0.5
 40
0.5
 40
0.75
 40
0.75
 40
0.75
 40
0.75
 40
1.0
 40
1.0
 40
1.0
 40
1.0
 10
992.4196
 20
-302.9966
 30
0.0
 10
993.8001
 20
-302.9966
 30
0.0
 10
994.9196
 20
-304.1161
 30
0.0
 10
994.9196
 20
-305.4966
 30
0.0
 10
994.9196
 20
-305.4966
 30
0.0
 10
994.9196
 20
-306.8771
 30
0.0
 10
993.8001
 20
-307.9966
 30
0.0
 10
992.4196
 20
-307.9966
 30
0.0
 10
992.4196
 20
-307.9966
 30
0.0
 10
991.0391
 20
-307.9966
 30
0.0
 10
989.9196
 20
-306.8771
 30
0.0
 10
989.9196
 20
-305.4966
 30
0.0
 10
989.9196
 20
-305.4966
 30
0.0
 10
989.9196
 20
-304.1161
 30
0.0
 10
991.0391
 20
-302.9966
 30
0.0
 10
992.4196
 20
-302.9966
 30
0.0
  0
SPLINE
  5
86
330
1F
100
AcDbEntity
  8
layer 1
 62
   250
370
     0
100
AcDbSpline
210
0.0
220
0.0
230
1.0
 70
    11
 71
     3
 72
    20
 73
    16
 74
     0
 42
0.0000000001
 43
0.0000000001
 40
0.0
 40
0.0
 40
0.0
 40
0.0
 40
0.25
 40
0.25
 40
0.25
 40
0.25
 40
0.5
 40
0.5
 40
0.5
 40
0.5
 40
0.75
 40
0.75
 40
0.75
 40
0.75
 40
1.0
 40
1.0
 40
1.0
 40
1.0
 10
992.4196
 20
-277.9966
 30
0.0
 10
993.8001
 20
-277.9966
 30
0.0
 10
994.9196
 20
-279.1161
 30
0.0
 10
994.9196
 20
-280.4966
 30
0.0
 10
994.9196
 20
-280.4966
 30
0.0
 10
994.9196
 20
-281.8771
 30
0.0
 10
993.8001
 20
-282.9966
 30
0.0
 10
992.4196
 20
-282.9966
 30
0.0
 10
992.4196
 20
-282.9966
 30
0.0
 10
991.0391
 20
-282.9966
 30
0.0
 10
989.9196
 20
-281.8771
 30
0.0
 10
989.9196
 20
-280.4966
 30
0.0
 10
989.9196
 20
-280.4966
 30
0.0
 10
989.9196
 20
-279.1161
 30
0.0
 10
991.0391
 20
-277.9966
 30
0.0
 10
992.4196
 20
-277.9966
 30
0.0
  0
SPLINE
  5
87
330
1F
100
AcDbEntity
  8
layer 1
 62
   250
370
     0
100
AcDbSpline
210
0.0
220
0.0
230
1.0
 70
    11
 71
     3
 72
    20
 73
    16
 74
     0
 42
0.0000000001
 43
0.0000000001
 40
0.0
 40
0.0
 40
0.0
 40
0.0
 40
0.25
 40
0.25
 40
0.25
 40
0.25
 40
0.5
 40
0.5
 40
0.5
 40
0.5
 40
0.75
 40
0.75
 40
0.75
 40
0.75
 40
1.0
 40
1.0
 40
1.0
 40
1.0
 10
992.4196
 20
-252.9966
 30
0.0
 10
993.8001
 20
-252.9966
 30
0.0
 10
994.9196
 20
-254.1161
 30
0.0
 10
994.9196
 20
-255.4966
 30
0.0
 10
994.9196
 20
-255.4966
 30
0.0
 10
994.9196
 20
-256.8771
 30
0.0
 10
993.8001
 20
-257.9966
 30
0.0
 10
992.4196
 20
-257.9966
 30
0.0
 10
992.4196
 20
-257.9966
 30
0.0
 10
991.0391
 20
-257.9966
 30
0.0
 10
989.9196
 20
-256.8771
 30
0.0
 10
989.9196
 20
-255.4966
 30
0.0
 10
989.9196
 20
-255.4966
 30
0.0
 10
989.9196
 20
-254.1161
 30
0.0
 10
991.0391
 20
-252.9966
 30
0.0
 10
992.4196
 20
-252.9966
 30
0.0
  0
SPLINE
  5
88
330
1F
100
AcDbEntity
  8
layer 1
 62
   250
370
     0
100
AcDbSpline
210
0.0
220
0.0
230
1.0
 70
    11
 71
     3
 72
    20
 73
    16
 74
     0
 42
0.0000000001
 43
0.0000000001
 40
0.0
 40
0.0
 40
0.0
 40
0.0
 40
0.25
 40
0.25
 40
0.25
 40
0.25
 40
0.5
 40
0.5
 40
0.5
 40
0.5
 40
0.75
 40
0.75
 40
0.75
 40
0.75
 40
1.0
 40
1.0
 40
1.0
 40
1.0
 10
992.4196
 20
-227.9966
 30
0.0
 10
993.8001
 20
-227.9966
 30
0.0
 10
994.9196
 20
-229.1161
 30
0.0
 10
994.9196
 20
-230.4966
 30
0.0
 10
994.9196
 20
-230.4966
 30
0.0
 10
994.9196
 20
-231.8771
 30
0.0
 10
993.8001
 20
-232.9966
 30
0.0
 10
992.4196
 20
-232.9966
 30
0.0
 10
992.4196
 20
-232.9966
 30
0.0
 10
991.0391
 20
-232.9966
 30
0.0
 10
989.9196
 20
-231.8771
 30
0.0
 10
989.9196
 20
-230.4966
 30
0.0
 10
989.9196
 20
-230.4966
 30
0.0
 10
989.9196
 20
-229.1161
 30
0.0
 10
991.0391
 20
-227.9966
 30
0.0
 10
992.4196
 20
-227.9966
 30
0.0
  0
SPLINE
  5
89
330
1F
100
AcDbEntity
  8
layer 1
 62
   250
370
     0
100
AcDbSpline
210
0.0
220
0.0
230
1.0
 70
    11
 71
     3
 72
    20
 73
    16
 74
     0
 42
0.0000000001
 43
0.0000000001
 40
0.0
 40
0.0
 40
0.0
 40
0.0
 40
0.25
 40
0.25
 40
0.25
 40
0.25
 40
0.5
 40
0.5
 40
0.5
 40
0.5
 40
0.75
 40
0.75
 40
0.75
 40
0.75
 40
1.0
 40
1.0
 40
1.0
 40
1.0
 10
992.4196
 20
-202.9966
 30
0.0
 10
993.8001
 20
-202.9966
 30
0.0
 10
994.9196
 20
-204.1161
 30
0.0
 10
994.9196
 20
-205.4966
 30
0.0
 10
994.9196
 20
-205.4966
 30
0.0
 10
994.9196
 20
-206.8771
 30
0.0
 10
993.8001
 20
-207.9966
 30
0.0
 10
992.4196
 20
-207.9966
 30
0.0
 10
992.4196
 20
-207.9966
 30
0.0
 10
991.0391
 20
-207.9966
 30
0.0
 10
989.9196
 20
-206.8771
 30
0.0
 10
989.9196
 20
-205.4966
 30
0.0
 10
989.9196
 20
-205.4966
 30
0.0
 10
989.9196
 20
-204.1161
 30
0.0
 10
991.0391
 20
-202.9966
 30
0.0
 10
992.4196
 20
-202.9966
 30
0.0
  0
SPLINE
  5
8A
330
1F
100
AcDbEntity
  8
layer 1
 62
   250
370
     0
100
AcDbSpline
210
0.0
220
0.0
230
1.0
 70
    11
 71
     3
 72
    20
 73
    16
 74
     0
 42
0.0000000001
 43
0.0000000001
 40
0.0
 40
0.0
 40
0.0
 40
0.0
 40
0.25
 40
0.25
 40
0.25
 40
0.25
 40
0.5
 40
0.5
 40
0.5
 40
0.5
 40
0.75
 40
0.75
 40
0.75
 40
0.75
 40
1.0
 40
1.0
 40
1.0
 40
1.0
 10
992.4196
 20
-177.9966
 30
0.0
 10
993.8001
 20
-177.9966
 30
0.0
 10
994.9196
 20
-179.1161
 30
0.0
 10
994.9196
 20
-180.4966
 30
0.0
 10
994.9196
 20
-180.4966
 30
0.0
 10
994.9196
 20
-181.8771
 30
0.0
 10
993.8001
 20
-182.9966
 30
0.0
 10
992.4196
 20
-182.9966
 30
0.0
 10
992.4196
 20
-182.9966
 30
0.0
 10
991.0391
 20
-182.9966
 30
0.0
 10
989.9196
 20
-181.8771
 30
0.0
 10
989.9196
 20
-180.4966
 30
0.0
 10
989.9196
 20
-180.4966
 30
0.0
 10
989.9196
 20
-179.1161
 30
0.0
 10
991.0391
 20
-177.9966
 30
0.0
 10
992.4196
 20
-177.9966
 30
0.0
  0
SPLINE
  5
8B
330
1F
100
AcDbEntity
  8
layer 1
 62
   250
370
     0
100
AcDbSpline
210
0.0
220
0.0
230
1.0
 70
    11
 71
     3
 72
    20
 73
    16
 74
     0
 42
0.0000000001
 43
0.0000000001
 40
0.0
 40
0.0
 40
0.0
 40
0.0
 40
0.25
 40
0.25
 40
0.25
 40
0.25
 40
0.5
 40
0.5
 40
0.5
 40
0.5
 40
0.75
 40
0.75
 40
0.75
 40
0.75
 40
1.0
 40
1.0
 40
1.0
 40
1.0
 10
992.4196
 20
-152.9966
 30
0.0
 10
993.8001
 20
-152.9966
 30
0.0
 10
994.9196
 20
-154.1161
 30
0.0
 10
994.9196
 20
-155.4966
 30
0.0
 10
994.9196
 20
-155.4966
 30
0.0
 10
994.9196
 20
-156.8771
 30
0.0
 10
993.8001
 20
-157.9966
 30
0.0
 10
992.4196
 20
-157.9966
 30
0.0
 10
992.4196
 20
-157.9966
 30
0.0
 10
991.0391
 20
-157.9966
 30
0.0
 10
989.9196
 20
-156.8771
 30
0.0
 10
989.9196
 20
-155.4966
 30
0.0
 10
989.9196
 20
-155.4966
 30
0.0
 10
989.9196
 20
-154.1161
 30
0.0
 10
991.0391
 20
-152.9966
 30
0.0
 10
992.4196
 20
-152.9966
 30
0.0
  0
SPLINE
  5
8C
330
1F
100
AcDbEntity
  8
layer 1
 62
   250
370
     0
100
AcDbSpline
210
0.0
220
0.0
230
1.0
 70
    11
 71
     3
 72
    20
 73
    16
 74
     0
 42
0.0000000001
 43
0.0000000001
 40
0.0
 40
0.0
 40
0.0
 40
0.0
 40
0.25
 40
0.25
 40
0.25
 40
0.25
 40
0.5
 40
0.5
 40
0.5
 40
0.5
 40
0.75
 40
0.75
 40
0.75
 40
0.75
 40
1.0
 40
1.0
 40
1.0
 40
1.0
 10
992.4196
 20
-127.9966
 30
0.0
 10
993.8001
 20
-127.9966
 30
0.0
 10
994.9196
 20
-129.1161
 30
0.0
 10
994.9196
 20
-130.4966
 30
0.0
 10
994.9196
 20
-130.4966
 30
0.0
 10
994.9196
 20
-131.8771
 30
0.0
 10
993.8001
 20
-132.9966
 30
0.0
 10
992.4196
 20
-132.9966
 30
0.0
 10
992.4196
 20
-132.9966
 30
0.0
 10
991.0391
 20
-132.9966
 30
0.0
 10
989.9196
 20
-131.8771
 30
0.0
 10
989.9196
 20
-130.4966
 30
0.0
 10
989.9196
 20
-130.4966
 30
0.0
 10
989.9196
 20
-129.1161
 30
0.0
 10
991.0391
 20
-127.9966
 30
0.0
 10
992.4196
 20
-127.9966
 30
0.0
  0
SPLINE
  5
8D
330
1F
100
AcDbEntity
  8
layer 1
 62
   250
370
     0
100
AcDbSpline
210
0.0
220
0.0
230
1.0
 70
    11
 71
     3
 72
    20
 73
    16
 74
     0
 42
0.0000000001
 43
0.0000000001
 40
0.0
 40
0.0
 40
0.0
 40
0.0
 40
0.25
 40
0.25
 40
0.25
 40
0.25
 40
0.5
 40
0.5
 40
0.5
 40
0.5
 40
0.75
 40
0.75
 40
0.75
 40
0.75
 40
1.0
 40
1.0
 40
1.0
 40
1.0
 10
992.4196
 20
-102.9966
 30
0.0
 10
993.8001
 20
-102.9966
 30
0.0
 10
994.9196
 20
-104.1161
 30
0.0
 10
994.9196
 20
-105.4966
 30
0.0
 10
994.9196
 20
-105.4966
 30
0.0
 10
994.9196
 20
-106.8771
 30
0.0
 10
993.8001
 20
-107.9966
 30
0.0
 10
992.4196
 20
-107.9966
 30
0.0
 10
992.4196
 20
-107.9966
 30
0.0
 10
991.0391
 20
-107.9966
 30
0.0
 10
989.9196
 20
-106.8771
 30
0.0
 10
989.9196
 20
-105.4966
 30
0.0
 10
989.9196
 20
-105.4966
 30
0.0
 10
989.9196
 20
-104.1161
 30
0.0
 10
991.0391
 20
-102.9966
 30
0.0
 10
992.4196
 20
-102.9966
 30
0.0
  0
SPLINE
  5
8E
330
1F
100
AcDbEntity
  8
layer 1
 62
   250
370
     0
100
AcDbSpline
210
0.0
220
0.0
230
1.0
 70
    11
 71
     3
 72
    20
 73
    16
 74
     0
 42
0.0000000001
 43
0.0000000001
 40
0.0
 40
0.0
 40
0.0
 40
0.0
 40
0.25
 40
0.25
 40
0.25
 40
0.25
 40
0.5
 40
0.5
 40
0.5
 40
0.5
 40
0.75
 40
0.75
 40
0.75
 40
0.75
 40
1.0
 40
1.0
 40
1.0
 40
1.0
 10
992.4196
 20
-77.9966
 30
0.0
 10
993.8001
 20
-77.9966
 30
0.0
 10
994.9196
 20
-79.1161
 30
0.0
 10
994.9196
 20
-80.4966
 30
0.0
 10
994.9196
 20
-80.4966
 30
0.0
 10
994.9196
 20
-81.8771
 30
0.0
 10
993.8001
 20
-82.9966
 30
0.0
 10
992.4196
 20
-82.9966
 30
0.0
 10
992.4196
 20
-82.9966
 30
0.0
 10
991.0391
 20
-82.9966
 30
0.0
 10
989.9196
 20
-81.8771
 30
0.0
 10
989.9196
 20
-80.4966
 30
0.0
 10
989.9196
 20
-80.4966
 30
0.0
 10
989.9196
 20
-79.1161
 30
0.0
 10
991.0391
 20
-77.9966
 30
0.0
 10
992.4196
 20
-77.9966
 30
0.0
  0
SPLINE
  5
8F
330
1F
100
AcDbEntity
  8
layer 1
 62
   250
370
     0
100
AcDbSpline
210
0.0
220
0.0
230
1.0
 70
    11
 71
     3
 72
    20
 73
    16
 74
     0
 42
0.0000000001
 43
0.0000000001
 40
0.0
 40
0.0
 40
0.0
 40
0.0
 40
0.25
 40
0.25
 40
0.25
 40
0.25
 40
0.5
 40
0.5
 40
0.5
 40
0.5
 40
0.75
 40
0.75
 40
0.75
 40
0.75
 40
1.0
 40
1.0
 40
1.0
 40
1.0
 10
992.4196
 20
-52.9966
 30
0.0
 10
993.8001
 20
-52.9966
 30
0.0
 10
994.9196
 20
-54.1161
 30
0.0
 10
994.9196
 20
-55.4966
 30
0.0
 10
994.9196
 20
-55.4966
 30
0.0
 10
994.9196
 20
-56.8771
 30
0.0
 10
993.8001
 20
-57.9966
 30
0.0
 10
992.4196
 20
-57.9966
 30
0.0
 10
992.4196
 20
-57.9966
 30
0.0
 10
991.0391
 20
-57.9966
 30
0.0
 10
989.9196
 20
-56.8771
 30
0.0
 10
989.9196
 20
-55.4966
 30
0.0
 10
989.9196
 20
-55.4966
 30
0.0
 10
989.9196
 20
-54.1161
 30
0.0
 10
991.0391
 20
-52.9966
 30
0.0
 10
992.4196
 20
-52.9966
 30
0.0
  0
SPLINE
  5
90
330
1F
100
AcDbEntity
  8
layer 1
 62
   250
370
     0
100
AcDbSpline
210
0.0
220
0.0
230
1.0
 70
    11
 71
     3
 72
    20
 73
    16
 74
     0
 42
0.0000000001
 43
0.0000000001
 40
0.0
 40
0.0
 40
0.0
 40
0.0
 40
0.25
 40
0.25
 40
0.25
 40
0.25
 40
0.5
 40
0.5
 40
0.5
 40
0.5
 40
0.75
 40
0.75
 40
0.75
 40
0.75
 40
1.0
 40
1.0
 40
1.0
 40
1.0
 10
992.4196
 20
-27.9966
 30
0.0
 10
993.8001
 20
-27.9966
 30
0.0
 10
994.9196
 20
-29.1161
 30
0.0
 10
994.9196
 20
-30.4966
 30
0.0
 10
994.9196
 20
-30.4966
 30
0.0
 10
994.9196
 20
-31.8771
 30
0.0
 10
993.8001
 20
-32.9966
 30
0.0
 10
992.4196
 20
-32.9966
 30
0.0
 10
992.4196
 20
-32.9966
 30
0.0
 10
991.0391
 20
-32.9966
 30
0.0
 10
989.9196
 20
-31.8771
 30
0.0
 10
989.9196
 20
-30.4966
 30
0.0
 10
989.9196
 20
-30.4966
 30
0.0
 10
989.9196
 20
-29.1161
 30
0.0
 10
991.0391
 20
-27.9966
 30
0.0
 10
992.4196
 20
-27.9966
 30
0.0
  0
SPLINE
  5
91
330
1F
100
AcDbEntity
  8
layer 1
 62
   250
370
     0
100
AcDbSpline
210
0.0
220
0.0
230
1.0
 70
    11
 71
     3
 72
    20
 73
    16
 74
     0
 42
0.0000000001
 43
0.0000000001
 40
0.0
 40
0.0
 40
0.0
 40
0.0
 40
0.25
 40
0.25
 40
0.25
 40
0.25
 40
0.5
 40
0.5
 40
0.5
 40
0.5
 40
0.75
 40
0.75
 40
0.75
 40
0.75
 40
1.0
 40
1.0
 40
1.0
 40
1.0
 10
1017.4196
 20
-327.9966
 30
0.0
 10
1018.8001
 20
-327.9966
 30
0.0
 10
1019.9196
 20
-329.1161
 30
0.0
 10
1019.9196
 20
-330.4966
 30
0.0
 10
1019.9196
 20
-330.4966
 30
0.0
 10
1019.9196
 20
-331.8771
 30
0.0
 10
1018.8001
 20
-332.9966
 30
0.0
 10
1017.4196
 20
-332.9966
 30
0.0
 10
1017.4196
 20
-332.9966
 30
0.0
 10
1016.0391
 20
-332.9966
 30
0.0
 10
1014.9196
 20
-331.8771
 30
0.0
 10
1014.9196
 20
-330.4966
 30
0.0
 10
1014.9196
 20
-330.4966
 30
0.0
 10
1014.9196
 20
-329.1161
 30
0.0
 10
1016.0391
 20
-327.9966
 30
0.0
 10
1017.4196
 20
-327.9966
 30
0.0
  0
SPLINE
  5
92
330
1F
100
AcDbEntity
  8
layer 1
 62
   250
370
     0
100
AcDbSpline
210
0.0
220
0.0
230
1.0
 70
    11
 71
     3
 72
    20
 73
    16
 74
     0
 42
0.0000000001
 43
0.0000000001
 40
0.0
 40
0.0
 40
0.0
 40
0.0
 40
0.25
 40
0.25
 40
0.25
 40
0.25
 40
0.5
 40
0.5
 40
0.5
 40
0.5
 40
0.75
 40
0.75
 40
0.75
 40
0.75
 40
1.0
 40
1.0
 40
1.0
 40
1.0
 10
1017.4196
 20
-302.9966
 30
0.0
 10
1018.8001
 20
-302.9966
 30
0.0
 10
1019.9196
 20
-304.1161
 30
0.0
 10
1019.9196
 20
-305.4966
 30
0.0
 10
1019.9196
 20
-305.4966
 30
0.0
 10
1019.9196
 20
-306.8771
 30
0.0
 10
1018.8001
 20
-307.9966
 30
0.0
 10
1017.4196
 20
-307.9966
 30
0.0
 10
1017.4196
 20
-307.9966
 30
0.0
 10
1016.0391
 20
-307.9966
 30
0.0
 10
1014.9196
 20
-306.8771
 30
0.0
 10
1014.9196
 20
-305.4966
 30
0.0
 10
1014.9196
 20
-305.4966
 30
0.0
 10
1014.9196
 20
-304.1161
 30
0.0
 10
1016.0391
 20
-302.9966
 30
0.0
 10
1017.4196
 20
-302.9966
 30
0.0
  0
SPLINE
  5
93
330
1F
100
AcDbEntity
  8
layer 1
 62
   250
370
     0
100
AcDbSpline
210
0.0
220
0.0
230
1.0
 70
    11
 71
     3
 72
    20
 73
    16
 74
     0
 42
0.0000000001
 43
0.0000000001
 40
0.0
 40
0.0
 40
0.0
 40
0.0
 40
0.25
 40
0.25
 40
0.25
 40
0.25
 40
0.5
 40
0.5
 40
0.5
 40
0.5
 40
0.75
 40
0.75
 40
0.75
 40
0.75
 40
1.0
 40
1.0
 40
1.0
 40
1.0
 10
1017.4196
 20
-277.9966
 30
0.0
 10
1018.8001
 20
-277.9966
 30
0.0
 10
1019.9196
 20
-279.1161
 30
0.0
 10
1019.9196
 20
-280.4966
 30
0.0
 10
1019.9196
 20
-280.4966
 30
0.0
 10
1019.9196
 20
-281.8771
 30
0.0
 10
1018.8001
 20
-282.9966
 30
0.0
 10
1017.4196
 20
-282.9966
 30
0.0
 10
1017.4196
 20
-282.9966
 30
0.0
 10
1016.0391
 20
-282.9966
 30
0.0
 10
1014.9196
 20
-281.8771
 30
0.0
 10
1014.9196
 20
-280.4966
 30
0.0
 10
1014.9196
 20
-280.4966
 30
0.0
 10
1014.9196
 20
-279.1161
 30
0.0
 10
1016.0391
 20
-277.9966
 30
0.0
 10
1017.4196
 20
-277.9966
 30
0.0
  0
SPLINE
  5
94
330
1F
100
AcDbEntity
  8
layer 1
 62
   250
370
     0
100
AcDbSpline
210
0.0
220
0.0
230
1.0
 70
    11
 71
     3
 72
    20
 73
    16
 74
     0
 42
0.0000000001
 43
0.0000000001
 40
0.0
 40
0.0
 40
0.0
 40
0.0
 40
0.25
 40
0.25
 40
0.25
 40
0.25
 40
0.5
 40
0.5
 40
0.5
 40
0.5
 40
0.75
 40
0.75
 40
0.75
 40
0.75
 40
1.0
 40
1.0
 40
1.0
 40
1.0
 10
1017.4196
 20
-252.9966
 30
0.0
 10
1018.8001
 20
-252.9966
 30
0.0
 10
1019.9196
 20
-254.1161
 30
0.0
 10
1019.9196
 20
-255.4966
 30
0.0
 10
1019.9196
 20
-255.4966
 30
0.0
 10
1019.9196
 20
-256.8771
 30
0.0
 10
1018.8001
 20
-257.9966
 30
0.0
 10
1017.4196
 20
-257.9966
 30
0.0
 10
1017.4196
 20
-257.9966
 30
0.0
 10
1016.0391
 20
-257.9966
 30
0.0
 10
1014.9196
 20
-256.8771
 30
0.0
 10
1014.9196
 20
-255.4966
 30
0.0
 10
1014.9196
 20
-255.4966
 30
0.0
 10
1014.9196
 20
-254.1161
 30
0.0
 10
1016.0391
 20
-252.9966
 30
0.0
 10
1017.4196
 20
-252.9966
 30
0.0
  0
SPLINE
  5
95
330
1F
100
AcDbEntity
  8
layer 1
 62
   250
370
     0
100
AcDbSpline
210
0.0
220
0.0
230
1.0
 70
    11
 71
     3
 72
    20
 73
    16
 74
     0
 42
0.0000000001
 43
0.0000000001
 40
0.0
 40
0.0
 40
0.0
 40
0.0
 40
0.25
 40
0.25
 40
0.25
 40
0.25
 40
0.5
 40
0.5
 40
0.5
 40
0.5
 40
0.75
 40
0.75
 40
0.75
 40
0.75
 40
1.0
 40
1.0
 40
1.0
 40
1.0
 10
1017.4196
 20
-227.9966
 30
0.0
 10
1018.8001
 20
-227.9966
 30
0.0
 10
1019.9196
 20
-229.1161
 30
0.0
 10
1019.9196
 20
-230.4966
 30
0.0
 10
1019.9196
 20
-230.4966
 30
0.0
 10
1019.9196
 20
-231.8771
 30
0.0
 10
1018.8001
 20
-232.9966
 30
0.0
 10
1017.4196
 20
-232.9966
 30
0.0
 10
1017.4196
 20
-232.9966
 30
0.0
 10
1016.0391
 20
-232.9966
 30
0.0
 10
1014.9196
 20
-231.8771
 30
0.0
 10
1014.9196
 20
-230.4966
 30
0.0
 10
1014.9196
 20
-230.4966
 30
0.0
 10
1014.9196
 20
-229.1161
 30
0.0
 10
1016.0391
 20
-227.9966
 30
0.0
 10
1017.4196
 20
-227.9966
 30
0.0
  0
SPLINE
  5
96
330
1F
100
AcDbEntity
  8
layer 1
 62
   250
370
     0
100
AcDbSpline
210
0.0
220
0.0
230
1.0
 70
    11
 71
     3
 72
    20
 73
    16
 74
     0
 42
0.0000000001
 43
0.0000000001
 40
0.0
 40
0.0
 40
0.0
 40
0.0
 40
0.25
 40
0.25
 40
0.25
 40
0.25
 40
0.5
 40
0.5
 40
0.5
 40
0.5
 40
0.75
 40
0.75
 40
0.75
 40
0.75
 40
1.0
 40
1.0
 40
1.0
 40
1.0
 10
1017.4196
 20
-202.9966
 30
0.0
 10
1018.8001
 20
-202.9966
 30
0.0
 10
1019.9196
 20
-204.1161
 30
0.0
 10
1019.9196
 20
-205.4966
 30
0.0
 10
1019.9196
 20
-205.4966
 30
0.0
 10
1019.9196
 20
-206.8771
 30
0.0
 10
1018.8001
 20
-207.9966
 30
0.0
 10
1017.4196
 20
-207.9966
 30
0.0
 10
1017.4196
 20
-207.9966
 30
0.0
 10
1016.0391
 20
-207.9966
 30
0.0
 10
1014.9196
 20
-206.8771
 30
0.0
 10
1014.9196
 20
-205.4966
 30
0.0
 10
1014.9196
 20
-205.4966
 30
0.0
 10
1014.9196
 20
-204.1161
 30
0.0
 10
1016.0391
 20
-202.9966
 30
0.0
 10
1017.4196
 20
-202.9966
 30
0.0
  0
SPLINE
  5
97
330
1F
100
AcDbEntity
  8
layer 1
 62
   250
370
     0
100
AcDbSpline
210
0.0
220
0.0
230
1.0
 70
    11
 71
     3
 72
    20
 73
    16
 74
     0
 42
0.0000000001
 43
0.0000000001
 40
0.0
 40
0.0
 40
0.0
 40
0.0
 40
0.25
 40
0.25
 40
0.25
 40
0.25
 40
0.5
 40
0.5
 40
0.5
 40
0.5
 40
0.75
 40
0.75
 40
0.75
 40
0.75
 40
1.0
 40
1.0
 40
1.0
 40
1.0
 10
1017.4196
 20
-177.9966
 30
0.0
 10
1018.8001
 20
-177.9966
 30
0.0
 10
1019.9196
 20
-179.1161
 30
0.0
 10
1019.9196
 20
-180.4966
 30
0.0
 10
1019.9196
 20
-180.4966
 30
0.0
 10
1019.9196
 20
-181.8771
 30
0.0
 10
1018.8001
 20
-182.9966
 30
0.0
 10
1017.4196
 20
-182.9966
 30
0.0
 10
1017.4196
 20
-182.9966
 30
0.0
 10
1016.0391
 20
-182.9966
 30
0.0
 10
1014.9196
 20
-181.8771
 30
0.0
 10
1014.9196
 20
-180.4966
 30
0.0
 10
1014.9196
 20
-180.4966
 30
0.0
 10
1014.9196
 20
-179.1161
 30
0.0
 10
1016.0391
 20
-177.9966
 30
0.0
 10
1017.4196
 20
-177.9966
 30
0.0
  0
SPLINE
  5
98
330
1F
100
AcDbEntity
  8
layer 1
 62
   250
370
     0
100
AcDbSpline
210
0.0
220
0.0
230
1.0
 70
    11
 71
     3
 72
    20
 73
    16
 74
     0
 42
0.0000000001
 43
0.0000000001
 40
0.0
 40
0.0
 40
0.0
 40
0.0
 40
0.25
 40
0.25
 40
0.25
 40
0.25
 40
0.5
 40
0.5
 40
0.5
 40
0.5
 40
0.75
 40
0.75
 40
0.75
 40
0.75
 40
1.0
 40
1.0
 40
1.0
 40
1.0
 10
1017.4196
 20
-152.9966
 30
0.0
 10
1018.8001
 20
-152.9966
 30
0.0
 10
1019.9196
 20
-154.1161
 30
0.0
 10
1019.9196
 20
-155.4966
 30
0.0
 10
1019.9196
 20
-155.4966
 30
0.0
 10
1019.9196
 20
-156.8771
 30
0.0
 10
1018.8001
 20
-157.9966
 30
0.0
 10
1017.4196
 20
-157.9966
 30
0.0
 10
1017.4196
 20
-157.9966
 30
0.0
 10
1016.0391
 20
-157.9966
 30
0.0
 10
1014.9196
 20
-156.8771
 30
0.0
 10
1014.9196
 20
-155.4966
 30
0.0
 10
1014.9196
 20
-155.4966
 30
0.0
 10
1014.9196
 20
-154.1161
 30
0.0
 10
1016.0391
 20
-152.9966
 30
0.0
 10
1017.4196
 20
-152.9966
 30
0.0
  0
SPLINE
  5
99
330
1F
100
AcDbEntity
  8
layer 1
 62
   250
370
     0
100
AcDbSpline
210
0.0
220
0.0
230
1.0
 70
    11
 71
     3
 72
    20
 73
    16
 74
     0
 42
0.0000000001
 43
0.0000000001
 40
0.0
 40
0.0
 40
0.0
 40
0.0
 40
0.25
 40
0.25
 40
0.25
 40
0.25
 40
0.5
 40
0.5
 40
0.5
 40
0.5
 40
0.75
 40
0.75
 40
0.75
 40
0.75
 40
1.0
 40
1.0
 40
1.0
 40
1.0
 10
1017.4196
 20
-127.9966
 30
0.0
 10
1018.8001
 20
-127.9966
 30
0.0
 10
1019.9196
 20
-129.1161
 30
0.0
 10
1019.9196
 20
-130.4966
 30
0.0
 10
1019.9196
 20
-130.4966
 30
0.0
 10
1019.9196
 20
-131.8771
 30
0.0
 10
1018.8001
 20
-132.9966
 30
0.0
 10
1017.4196
 20
-132.9966
 30
0.0
 10
1017.4196
 20
-132.9966
 30
0.0
 10
1016.0391
 20
-132.9966
 30
0.0
 10
1014.9196
 20
-131.8771
 30
0.0
 10
1014.9196
 20
-130.4966
 30
0.0
 10
1014.9196
 20
-130.4966
 30
0.0
 10
1014.9196
 20
-129.1161
 30
0.0
 10
1016.0391
 20
-127.9966
 30
0.0
 10
1017.4196
 20
-127.9966
 30
0.0
  0
SPLINE
  5
9A
330
1F
100
AcDbEntity
  8
layer 1
 62
   250
370
     0
100
AcDbSpline
210
0.0
220
0.0
230
1.0
 70
    11
 71
     3
 72
    20
 73
    16
 74
     0
 42
0.0000000001
 43
0.0000000001
 40
0.0
 40
0.0
 40
0.0
 40
0.0
 40
0.25
 40
0.25
 40
0.25
 40
0.25
 40
0.5
 40
0.5
 40
0.5
 40
0.5
 40
0.75
 40
0.75
 40
0.75
 40
0.75
 40
1.0
 40
1.0
 40
1.0
 40
1.0
 10
1017.4196
 20
-102.9966
 30
0.0
 10
1018.8001
 20
-102.9966
 30
0.0
 10
1019.9196
 20
-104.1161
 30
0.0
 10
1019.9196
 20
-105.4966
 30
0.0
 10
1019.9196
 20
-105.4966
 30
0.0
 10
1019.9196
 20
-106.8771
 30
0.0
 10
1018.8001
 20
-107.9966
 30
0.0
 10
1017.4196
 20
-107.9966
 30
0.0
 10
1017.4196
 20
-107.9966
 30
0.0
 10
1016.0391
 20
-107.9966
 30
0.0
 10
1014.9196
 20
-106.8771
 30
0.0
 10
1014.9196
 20
-105.4966
 30
0.0
 10
1014.9196
 20
-105.4966
 30
0.0
 10
1014.9196
 20
-104.1161
 30
0.0
 10
1016.0391
 20
-102.9966
 30
0.0
 10
1017.4196
 20
-102.9966
 30
0.0
  0
SPLINE
  5
9B
330
1F
100
AcDbEntity
  8
layer 1
 62
   250
370
     0
100
AcDbSpline
210
0.0
220
0.0
230
1.0
 70
    11
 71
     3
 72
    20
 73
    16
 74
     0
 42
0.0000000001
 43
0.0000000001
 40
0.0
 40
0.0
 40
0.0
 40
0.0
 40
0.25
 40
0.25
 40
0.25
 40
0.25
 40
0.5
 40
0.5
 40
0.5
 40
0.5
 40
0.75
 40
0.75
 40
0.75
 40
0.75
 40
1.0
 40
1.0
 40
1.0
 40
1.0
 10
1017.4196
 20
-77.9966
 30
0.0
 10
1018.8001
 20
-77.9966
 30
0.0
 10
1019.9196
 20
-79.1161
 30
0.0
 10
1019.9196
 20
-80.4966
 30
0.0
 10
1019.9196
 20
-80.4966
 30
0.0
 10
1019.9196
 20
-81.8771
 30
0.0
 10
1018.8001
 20
-82.9966
 30
0.0
 10
1017.4196
 20
-82.9966
 30
0.0
 10
1017.4196
 20
-82.9966
 30
0.0
 10
1016.0391
 20
-82.9966
 30
0.0
 10
1014.9196
 20
-81.8771
 30
0.0
 10
1014.9196
 20
-80.4966
 30
0.0
 10
1014.9196
 20
-80.4966
 30
0.0
 10
1014.9196
 20
-79.1161
 30
0.0
 10
1016.0391
 20
-77.9966
 30
0.0
 10
1017.4196
 20
-77.9966
 30
0.0
  0
SPLINE
  5
9C
330
1F
100
AcDbEntity
  8
layer 1
 62
   250
370
     0
100
AcDbSpline
210
0.0
220
0.0
230
1.0
 70
    11
 71
     3
 72
    20
 73
    16
 74
     0
 42
0.0000000001
 43
0.0000000001
 40
0.0
 40
0.0
 40
0.0
 40
0.0
 40
0.25
 40
0.25
 40
0.25
 40
0.25
 40
0.5
 40
0.5
 40
0.5
 40
0.5
 40
0.75
 40
0.75
 40
0.75
 40
0.75
 40
1.0
 40
1.0
 40
1.0
 40
1.0
 10
1017.4196
 20
-52.9966
 30
0.0
 10
1018.8001
 20
-52.9966
 30
0.0
 10
1019.9196
 20
-54.1161
 30
0.0
 10
1019.9196
 20
-55.4966
 30
0.0
 10
1019.9196
 20
-55.4966
 30
0.0
 10
1019.9196
 20
-56.8771
 30
0.0
 10
1018.8001
 20
-57.9966
 30
0.0
 10
1017.4196
 20
-57.9966
 30
0.0
 10
1017.4196
 20
-57.9966
 30
0.0
 10
1016.0391
 20
-57.9966
 30
0.0
 10
1014.9196
 20
-56.8771
 30
0.0
 10
1014.9196
 20
-55.4966
 30
0.0
 10
1014.9196
 20
-55.4966
 30
0.0
 10
1014.9196
 20
-54.1161
 30
0.0
 10
1016.0391
 20
-52.9966
 30
0.0
 10
1017.4196
 20
-52.9966
 30
0.0
  0
SPLINE
  5
9D
330
1F
100
AcDbEntity
  8
layer 1
 62
   250
370
     0
100
AcDbSpline
210
0.0
220
0.0
230
1.0
 70
    11
 71
     3
 72
    20
 73
    16
 74
     0
 42
0.0000000001
 43
0.0000000001
 40
0.0
 40
0.0
 40
0.0
 40
0.0
 40
0.25
 40
0.25
 40
0.25
 40
0.25
 40
0.5
 40
0.5
 40
0.5
 40
0.5
 40
0.75
 40
0.75
 40
0.75
 40
0.75
 40
1.0
 40
1.0
 40
1.0
 40
1.0
 10
1017.4196
 20
-27.9966
 30
0.0
 10
1018.8001
 20
-27.9966
 30
0.0
 10
1019.9196
 20
-29.1161
 30
0.0
 10
1019.9196
 20
-30.4966
 30
0.0
 10
1019.9196
 20
-30.4966
 30
0.0
 10
1019.9196
 20
-31.8771
 30
0.0
 10
1018.8001
 20
-32.9966
 30
0.0
 10
1017.4196
 20
-32.9966
 30
0.0
 10
1017.4196
 20
-32.9966
 30
0.0
 10
1016.0391
 20
-32.9966
 30
0.0
 10
1014.9196
 20
-31.8771
 30
0.0
 10
1014.9196
 20
-30.4966
 30
0.0
 10
1014.9196
 20
-30.4966
 30
0.0
 10
1014.9196
 20
-29.1161
 30
0.0
 10
1016.0391
 20
-27.9966
 30
0.0
 10
1017.4196
 20
-27.9966
 30
0.0
  0
SPLINE
  5
9E
330
1F
100
AcDbEntity
  8
layer 1
 62
   250
370
     0
100
AcDbSpline
210
0.0
220
0.0
230
1.0
 70
    11
 71
     3
 72
    20
 73
    16
 74
     0
 42
0.0000000001
 43
0.0000000001
 40
0.0
 40
0.0
 40
0.0
 40
0.0
 40
0.25
 40
0.25
 40
0.25
 40
0.25
 40
0.5
 40
0.5
 40
0.5
 40
0.5
 40
0.75
 40
0.75
 40
0.75
 40
0.75
 40
1.0
 40
1.0
 40
1.0
 40
1.0
 10
1042.4196
 20
-327.9966
 30
0.0
 10
1043.8001
 20
-327.9966
 30
0.0
 10
1044.9196
 20
-329.1161
 30
0.0
 10
1044.9196
 20
-330.4966
 30
0.0
 10
1044.9196
 20
-330.4966
 30
0.0
 10
1044.9196
 20
-331.8771
 30
0.0
 10
1043.8001
 20
-332.9966
 30
0.0
 10
1042.4196
 20
-332.9966
 30
0.0
 10
1042.4196
 20
-332.9966
 30
0.0
 10
1041.0391
 20
-332.9966
 30
0.0
 10
1039.9196
 20
-331.8771
 30
0.0
 10
1039.9196
 20
-330.4966
 30
0.0
 10
1039.9196
 20
-330.4966
 30
0.0
 10
1039.9196
 20
-329.1161
 30
0.0
 10
1041.0391
 20
-327.9966
 30
0.0
 10
1042.4196
 20
-327.9966
 30
0.0
  0
SPLINE
  5
9F
330
1F
100
AcDbEntity
  8
layer 1
 62
   250
370
     0
100
AcDbSpline
210
0.0
220
0.0
230
1.0
 70
    11
 71
     3
 72
    20
 73
    16
 74
     0
 42
0.0000000001
 43
0.0000000001
 40
0.0
 40
0.0
 40
0.0
 40
0.0
 40
0.25
 40
0.25
 40
0.25
 40
0.25
 40
0.5
 40
0.5
 40
0.5
 40
0.5
 40
0.75
 40
0.75
 40
0.75
 40
0.75
 40
1.0
 40
1.0
 40
1.0
 40
1.0
 10
1042.4196
 20
-302.9966
 30
0.0
 10
1043.8001
 20
-302.9966
 30
0.0
 10
1044.9196
 20
-304.1161
 30
0.0
 10
1044.9196
 20
-305.4966
 30
0.0
 10
1044.9196
 20
-305.4966
 30
0.0
 10
1044.9196
 20
-306.8771
 30
0.0
 10
1043.8001
 20
-307.9966
 30
0.0
 10
1042.4196
 20
-307.9966
 30
0.0
 10
1042.4196
 20
-307.9966
 30
0.0
 10
1041.0391
 20
-307.9966
 30
0.0
 10
1039.9196
 20
-306.8771
 30
0.0
 10
1039.9196
 20
-305.4966
 30
0.0
 10
1039.9196
 20
-305.4966
 30
0.0
 10
1039.9196
 20
-304.1161
 30
0.0
 10
1041.0391
 20
-302.9966
 30
0.0
 10
1042.4196
 20
-302.9966
 30
0.0
  0
SPLINE
  5
A0
330
1F
100
AcDbEntity
  8
layer 1
 62
   250
370
     0
100
AcDbSpline
210
0.0
220
0.0
230
1.0
 70
    11
 71
     3
 72
    20
 73
    16
 74
     0
 42
0.0000000001
 43
0.0000000001
 40
0.0
 40
0.0
 40
0.0
 40
0.0
 40
0.25
 40
0.25
 40
0.25
 40
0.25
 40
0.5
 40
0.5
 40
0.5
 40
0.5
 40
0.75
 40
0.75
 40
0.75
 40
0.75
 40
1.0
 40
1.0
 40
1.0
 40
1.0
 10
1042.4196
 20
-277.9966
 30
0.0
 10
1043.8001
 20
-277.9966
 30
0.0
 10
1044.9196
 20
-279.1161
 30
0.0
 10
1044.9196
 20
-280.4966
 30
0.0
 10
1044.9196
 20
-280.4966
 30
0.0
 10
1044.9196
 20
-281.8771
 30
0.0
 10
1043.8001
 20
-282.9966
 30
0.0
 10
1042.4196
 20
-282.9966
 30
0.0
 10
1042.4196
 20
-282.9966
 30
0.0
 10
1041.0391
 20
-282.9966
 30
0.0
 10
1039.9196
 20
-281.8771
 30
0.0
 10
1039.9196
 20
-280.4966
 30
0.0
 10
1039.9196
 20
-280.4966
 30
0.0
 10
1039.9196
 20
-279.1161
 30
0.0
 10
1041.0391
 20
-277.9966
 30
0.0
 10
1042.4196
 20
-277.9966
 30
0.0
  0
SPLINE
  5
A1
330
1F
100
AcDbEntity
  8
layer 1
 62
   250
370
     0
100
AcDbSpline
210
0.0
220
0.0
230
1.0
 70
    11
 71
     3
 72
    20
 73
    16
 74
     0
 42
0.0000000001
 43
0.0000000001
 40
0.0
 40
0.0
 40
0.0
 40
0.0
 40
0.25
 40
0.25
 40
0.25
 40
0.25
 40
0.5
 40
0.5
 40
0.5
 40
0.5
 40
0.75
 40
0.75
 40
0.75
 40
0.75
 40
1.0
 40
1.0
 40
1.0
 40
1.0
 10
1042.4196
 20
-252.9966
 30
0.0
 10
1043.8001
 20
-252.9966
 30
0.0
 10
1044.9196
 20
-254.1161
 30
0.0
 10
1044.9196
 20
-255.4966
 30
0.0
 10
1044.9196
 20
-255.4966
 30
0.0
 10
1044.9196
 20
-256.8771
 30
0.0
 10
1043.8001
 20
-257.9966
 30
0.0
 10
1042.4196
 20
-257.9966
 30
0.0
 10
1042.4196
 20
-257.9966
 30
0.0
 10
1041.0391
 20
-257.9966
 30
0.0
 10
1039.9196
 20
-256.8771
 30
0.0
 10
1039.9196
 20
-255.4966
 30
0.0
 10
1039.9196
 20
-255.4966
 30
0.0
 10
1039.9196
 20
-254.1161
 30
0.0
 10
1041.0391
 20
-252.9966
 30
0.0
 10
1042.4196
 20
-252.9966
 30
0.0
  0
SPLINE
  5
A2
330
1F
100
AcDbEntity
  8
layer 1
 62
   250
370
     0
100
AcDbSpline
210
0.0
220
0.0
230
1.0
 70
    11
 71
     3
 72
    20
 73
    16
 74
     0
 42
0.0000000001
 43
0.0000000001
 40
0.0
 40
0.0
 40
0.0
 40
0.0
 40
0.25
 40
0.25
 40
0.25
 40
0.25
 40
0.5
 40
0.5
 40
0.5
 40
0.5
 40
0.75
 40
0.75
 40
0.75
 40
0.75
 40
1.0
 40
1.0
 40
1.0
 40
1.0
 10
1042.4196
 20
-227.9966
 30
0.0
 10
1043.8001
 20
-227.9966
 30
0.0
 10
1044.9196
 20
-229.1161
 30
0.0
 10
1044.9196
 20
-230.4966
 30
0.0
 10
1044.9196
 20
-230.4966
 30
0.0
 10
1044.9196
 20
-231.8771
 30
0.0
 10
1043.8001
 20
-232.9966
 30
0.0
 10
1042.4196
 20
-232.9966
 30
0.0
 10
1042.4196
 20
-232.9966
 30
0.0
 10
1041.0391
 20
-232.9966
 30
0.0
 10
1039.9196
 20
-231.8771
 30
0.0
 10
1039.9196
 20
-230.4966
 30
0.0
 10
1039.9196
 20
-230.4966
 30
0.0
 10
1039.9196
 20
-229.1161
 30
0.0
 10
1041.0391
 20
-227.9966
 30
0.0
 10
1042.4196
 20
-227.9966
 30
0.0
  0
SPLINE
  5
A3
330
1F
100
AcDbEntity
  8
layer 1
 62
   250
370
     0
100
AcDbSpline
210
0.0
220
0.0
230
1.0
 70
    11
 71
     3
 72
    20
 73
    16
 74
     0
 42
0.0000000001
 43
0.0000000001
 40
0.0
 40
0.0
 40
0.0
 40
0.0
 40
0.25
 40
0.25
 40
0.25
 40
0.25
 40
0.5
 40
0.5
 40
0.5
 40
0.5
 40
0.75
 40
0.75
 40
0.75
 40
0.75
 40
1.0
 40
1.0
 40
1.0
 40
1.0
 10
1042.4196
 20
-202.9966
 30
0.0
 10
1043.8001
 20
-202.9966
 30
0.0
 10
1044.9196
 20
-204.1161
 30
0.0
 10
1044.9196
 20
-205.4966
 30
0.0
 10
1044.9196
 20
-205.4966
 30
0.0
 10
1044.9196
 20
-206.8771
 30
0.0
 10
1043.8001
 20
-207.9966
 30
0.0
 10
1042.4196
 20
-207.9966
 30
0.0
 10
1042.4196
 20
-207.9966
 30
0.0
 10
1041.0391
 20
-207.9966
 30
0.0
 10
1039.9196
 20
-206.8771
 30
0.0
 10
1039.9196
 20
-205.4966
 30
0.0
 10
1039.9196
 20
-205.4966
 30
0.0
 10
1039.9196
 20
-204.1161
 30
0.0
 10
1041.0391
 20
-202.9966
 30
0.0
 10
1042.4196
 20
-202.9966
 30
0.0
  0
SPLINE
  5
A4
330
1F
100
AcDbEntity
  8
layer 1
 62
   250
370
     0
100
AcDbSpline
210
0.0
220
0.0
230
1.0
 70
    11
 71
     3
 72
    20
 73
    16
 74
     0
 42
0.0000000001
 43
0.0000000001
 40
0.0
 40
0.0
 40
0.0
 40
0.0
 40
0.25
 40
0.25
 40
0.25
 40
0.25
 40
0.5
 40
0.5
 40
0.5
 40
0.5
 40
0.75
 40
0.75
 40
0.75
 40
0.75
 40
1.0
 40
1.0
 40
1.0
 40
1.0
 10
1042.4196
 20
-177.9966
 30
0.0
 10
1043.8001
 20
-177.9966
 30
0.0
 10
1044.9196
 20
-179.1161
 30
0.0
 10
1044.9196
 20
-180.4966
 30
0.0
 10
1044.9196
 20
-180.4966
 30
0.0
 10
1044.9196
 20
-181.8771
 30
0.0
 10
1043.8001
 20
-182.9966
 30
0.0
 10
1042.4196
 20
-182.9966
 30
0.0
 10
1042.4196
 20
-182.9966
 30
0.0
 10
1041.0391
 20
-182.9966
 30
0.0
 10
1039.9196
 20
-181.8771
 30
0.0
 10
1039.9196
 20
-180.4966
 30
0.0
 10
1039.9196
 20
-180.4966
 30
0.0
 10
1039.9196
 20
-179.1161
 30
0.0
 10
1041.0391
 20
-177.9966
 30
0.0
 10
1042.4196
 20
-177.9966
 30
0.0
  0
SPLINE
  5
A5
330
1F
100
AcDbEntity
  8
layer 1
 62
   250
370
     0
100
AcDbSpline
210
0.0
220
0.0
230
1.0
 70
    11
 71
     3
 72
    20
 73
    16
 74
     0
 42
0.0000000001
 43
0.0000000001
 40
0.0
 40
0.0
 40
0.0
 40
0.0
 40
0.25
 40
0.25
 40
0.25
 40
0.25
 40
0.5
 40
0.5
 40
0.5
 40
0.5
 40
0.75
 40
0.75
 40
0.75
 40
0.75
 40
1.0
 40
1.0
 40
1.0
 40
1.0
 10
1042.4196
 20
-152.9966
 30
0.0
 10
1043.8001
 20
-152.9966
 30
0.0
 10
1044.9196
 20
-154.1161
 30
0.0
 10
1044.9196
 20
-155.4966
 30
0.0
 10
1044.9196
 20
-155.4966
 30
0.0
 10
1044.9196
 20
-156.8771
 30
0.0
 10
1043.8001
 20
-157.9966
 30
0.0
 10
1042.4196
 20
-157.9966
 30
0.0
 10
1042.4196
 20
-157.9966
 30
0.0
 10
1041.0391
 20
-157.9966
 30
0.0
 10
1039.9196
 20
-156.8771
 30
0.0
 10
1039.9196
 20
-155.4966
 30
0.0
 10
1039.9196
 20
-155.4966
 30
0.0
 10
1039.9196
 20
-154.1161
 30
0.0
 10
1041.0391
 20
-152.9966
 30
0.0
 10
1042.4196
 20
-152.9966
 30
0.0
  0
SPLINE
  5
A6
330
1F
100
AcDbEntity
  8
layer 1
 62
   250
370
     0
100
AcDbSpline
210
0.0
220
0.0
230
1.0
 70
    11
 71
     3
 72
    20
 73
    16
 74
     0
 42
0.0000000001
 43
0.0000000001
 40
0.0
 40
0.0
 40
0.0
 40
0.0
 40
0.25
 40
0.25
 40
0.25
 40
0.25
 40
0.5
 40
0.5
 40
0.5
 40
0.5
 40
0.75
 40
0.75
 40
0.75
 40
0.75
 40
1.0
 40
1.0
 40
1.0
 40
1.0
 10
1042.4196
 20
-127.9966
 30
0.0
 10
1043.8001
 20
-127.9966
 30
0.0
 10
1044.9196
 20
-129.1161
 30
0.0
 10
1044.9196
 20
-130.4966
 30
0.0
 10
1044.9196
 20
-130.4966
 30
0.0
 10
1044.9196
 20
-131.8771
 30
0.0
 10
1043.8001
 20
-132.9966
 30
0.0
 10
1042.4196
 20
-132.9966
 30
0.0
 10
1042.4196
 20
-132.9966
 30
0.0
 10
1041.0391
 20
-132.9966
 30
0.0
 10
1039.9196
 20
-131.8771
 30
0.0
 10
1039.9196
 20
-130.4966
 30
0.0
 10
1039.9196
 20
-130.4966
 30
0.0
 10
1039.9196
 20
-129.1161
 30
0.0
 10
1041.0391
 20
-127.9966
 30
0.0
 10
1042.4196
 20
-127.9966
 30
0.0
  0
SPLINE
  5
A7
330
1F
100
AcDbEntity
  8
layer 1
 62
   250
370
     0
100
AcDbSpline
210
0.0
220
0.0
230
1.0
 70
    11
 71
     3
 72
    20
 73
    16
 74
     0
 42
0.0000000001
 43
0.0000000001
 40
0.0
 40
0.0
 40
0.0
 40
0.0
 40
0.25
 40
0.25
 40
0.25
 40
0.25
 40
0.5
 40
0.5
 40
0.5
 40
0.5
 40
0.75
 40
0.75
 40
0.75
 40
0.75
 40
1.0
 40
1.0
 40
1.0
 40
1.0
 10
1042.4196
 20
-102.9966
 30
0.0
 10
1043.8001
 20
-102.9966
 30
0.0
 10
1044.9196
 20
-104.1161
 30
0.0
 10
1044.9196
 20
-105.4966
 30
0.0
 10
1044.9196
 20
-105.4966
 30
0.0
 10
1044.9196
 20
-106.8771
 30
0.0
 10
1043.8001
 20
-107.9966
 30
0.0
 10
1042.4196
 20
-107.9966
 30
0.0
 10
1042.4196
 20
-107.9966
 30
0.0
 10
1041.0391
 20
-107.9966
 30
0.0
 10
1039.9196
 20
-106.8771
 30
0.0
 10
1039.9196
 20
-105.4966
 30
0.0
 10
1039.9196
 20
-105.4966
 30
0.0
 10
1039.9196
 20
-104.1161
 30
0.0
 10
1041.0391
 20
-102.9966
 30
0.0
 10
1042.4196
 20
-102.9966
 30
0.0
  0
SPLINE
  5
A8
330
1F
100
AcDbEntity
  8
layer 1
 62
   250
370
     0
100
AcDbSpline
210
0.0
220
0.0
230
1.0
 70
    11
 71
     3
 72
    20
 73
    16
 74
     0
 42
0.0000000001
 43
0.0000000001
 40
0.0
 40
0.0
 40
0.0
 40
0.0
 40
0.25
 40
0.25
 40
0.25
 40
0.25
 40
0.5
 40
0.5
 40
0.5
 40
0.5
 40
0.75
 40
0.75
 40
0.75
 40
0.75
 40
1.0
 40
1.0
 40
1.0
 40
1.0
 10
1042.4196
 20
-77.9966
 30
0.0
 10
1043.8001
 20
-77.9966
 30
0.0
 10
1044.9196
 20
-79.1161
 30
0.0
 10
1044.9196
 20
-80.4966
 30
0.0
 10
1044.9196
 20
-80.4966
 30
0.0
 10
1044.9196
 20
-81.8771
 30
0.0
 10
1043.8001
 20
-82.9966
 30
0.0
 10
1042.4196
 20
-82.9966
 30
0.0
 10
1042.4196
 20
-82.9966
 30
0.0
 10
1041.0391
 20
-82.9966
 30
0.0
 10
1039.9196
 20
-81.8771
 30
0.0
 10
1039.9196
 20
-80.4966
 30
0.0
 10
1039.9196
 20
-80.4966
 30
0.0
 10
1039.9196
 20
-79.1161
 30
0.0
 10
1041.0391
 20
-77.9966
 30
0.0
 10
1042.4196
 20
-77.9966
 30
0.0
  0
SPLINE
  5
A9
330
1F
100
AcDbEntity
  8
layer 1
 62
   250
370
     0
100
AcDbSpline
210
0.0
220
0.0
230
1.0
 70
    11
 71
     3
 72
    20
 73
    16
 74
     0
 42
0.0000000001
 43
0.0000000001
 40
0.0
 40
0.0
 40
0.0
 40
0.0
 40
0.25
 40
0.25
 40
0.25
 40
0.25
 40
0.5
 40
0.5
 40
0.5
 40
0.5
 40
0.75
 40
0.75
 40
0.75
 40
0.75
 40
1.0
 40
1.0
 40
1.0
 40
1.0
 10
1042.4196
 20
-52.9966
 30
0.0
 10
1043.8001
 20
-52.9966
 30
0.0
 10
1044.9196
 20
-54.1161
 30
0.0
 10
1044.9196
 20
-55.4966
 30
0.0
 10
1044.9196
 20
-55.4966
 30
0.0
 10
1044.9196
 20
-56.8771
 30
0.0
 10
1043.8001
 20
-57.9966
 30
0.0
 10
1042.4196
 20
-57.9966
 30
0.0
 10
1042.4196
 20
-57.9966
 30
0.0
 10
1041.0391
 20
-57.9966
 30
0.0
 10
1039.9196
 20
-56.8771
 30
0.0
 10
1039.9196
 20
-55.4966
 30
0.0
 10
1039.9196
 20
-55.4966
 30
0.0
 10
1039.9196
 20
-54.1161
 30
0.0
 10
1041.0391
 20
-52.9966
 30
0.0
 10
1042.4196
 20
-52.9966
 30
0.0
  0
SPLINE
  5
AA
330
1F
100
AcDbEntity
  8
layer 1
 62
   250
370
     0
100
AcDbSpline
210
0.0
220
0.0
230
1.0
 70
    11
 71
     3
 72
    20
 73
    16
 74
     0
 42
0.0000000001
 43
0.0000000001
 40
0.0
 40
0.0
 40
0.0
 40
0.0
 40
0.25
 40
0.25
 40
0.25
 40
0.25
 40
0.5
 40
0.5
 40
0.5
 40
0.5
 40
0.75
 40
0.75
 40
0.75
 40
0.75
 40
1.0
 40
1.0
 40
1.0
 40
1.0
 10
1042.4196
 20
-27.9966
 30
0.0
 10
1043.8001
 20
-27.9966
 30
0.0
 10
1044.9196
 20
-29.1161
 30
0.0
 10
1044.9196
 20
-30.4966
 30
0.0
 10
1044.9196
 20
-30.4966
 30
0.0
 10
1044.9196
 20
-31.8771
 30
0.0
 10
1043.8001
 20
-32.9966
 30
0.0
 10
1042.4196
 20
-32.9966
 30
0.0
 10
1042.4196
 20
-32.9966
 30
0.0
 10
1041.0391
 20
-32.9966
 30
0.0
 10
1039.9196
 20
-31.8771
 30
0.0
 10
1039.9196
 20
-30.4966
 30
0.0
 10
1039.9196
 20
-30.4966
 30
0.0
 10
1039.9196
 20
-29.1161
 30
0.0
 10
1041.0391
 20
-27.9966
 30
0.0
 10
1042.4196
 20
-27.9966
 30
0.0
  0
SPLINE
  5
AB
330
1F
100
AcDbEntity
  8
layer 1
 62
   250
370
     0
100
AcDbSpline
210
0.0
220
0.0
230
1.0
 70
    11
 71
     3
 72
    20
 73
    16
 74
     0
 42
0.0000000001
 43
0.0000000001
 40
0.0
 40
0.0
 40
0.0
 40
0.0
 40
0.25
 40
0.25
 40
0.25
 40
0.25
 40
0.5
 40
0.5
 40
0.5
 40
0.5
 40
0.75
 40
0.75
 40
0.75
 40
0.75
 40
1.0
 40
1.0
 40
1.0
 40
1.0
 10
1067.4196
 20
-327.9966
 30
0.0
 10
1068.8001
 20
-327.9966
 30
0.0
 10
1069.9196
 20
-329.1161
 30
0.0
 10
1069.9196
 20
-330.4966
 30
0.0
 10
1069.9196
 20
-330.4966
 30
0.0
 10
1069.9196
 20
-331.8771
 30
0.0
 10
1068.8001
 20
-332.9966
 30
0.0
 10
1067.4196
 20
-332.9966
 30
0.0
 10
1067.4196
 20
-332.9966
 30
0.0
 10
1066.0391
 20
-332.9966
 30
0.0
 10
1064.9196
 20
-331.8771
 30
0.0
 10
1064.9196
 20
-330.4966
 30
0.0
 10
1064.9196
 20
-330.4966
 30
0.0
 10
1064.9196
 20
-329.1161
 30
0.0
 10
1066.0391
 20
-327.9966
 30
0.0
 10
1067.4196
 20
-327.9966
 30
0.0
  0
SPLINE
  5
AC
330
1F
100
AcDbEntity
  8
layer 1
 62
   250
370
     0
100
AcDbSpline
210
0.0
220
0.0
230
1.0
 70
    11
 71
     3
 72
    20
 73
    16
 74
     0
 42
0.0000000001
 43
0.0000000001
 40
0.0
 40
0.0
 40
0.0
 40
0.0
 40
0.25
 40
0.25
 40
0.25
 40
0.25
 40
0.5
 40
0.5
 40
0.5
 40
0.5
 40
0.75
 40
0.75
 40
0.75
 40
0.75
 40
1.0
 40
1.0
 40
1.0
 40
1.0
 10
1067.4196
 20
-302.9966
 30
0.0
 10
1068.8001
 20
-302.9966
 30
0.0
 10
1069.9196
 20
-304.1161
 30
0.0
 10
1069.9196
 20
-305.4966
 30
0.0
 10
1069.9196
 20
-305.4966
 30
0.0
 10
1069.9196
 20
-306.8771
 30
0.0
 10
1068.8001
 20
-307.9966
 30
0.0
 10
1067.4196
 20
-307.9966
 30
0.0
 10
1067.4196
 20
-307.9966
 30
0.0
 10
1066.0391
 20
-307.9966
 30
0.0
 10
1064.9196
 20
-306.8771
 30
0.0
 10
1064.9196
 20
-305.4966
 30
0.0
 10
1064.9196
 20
-305.4966
 30
0.0
 10
1064.9196
 20
-304.1161
 30
0.0
 10
1066.0391
 20
-302.9966
 30
0.0
 10
1067.4196
 20
-302.9966
 30
0.0
  0
SPLINE
  5
AD
330
1F
100
AcDbEntity
  8
layer 1
 62
   250
370
     0
100
AcDbSpline
210
0.0
220
0.0
230
1.0
 70
    11
 71
     3
 72
    20
 73
    16
 74
     0
 42
0.0000000001
 43
0.0000000001
 40
0.0
 40
0.0
 40
0.0
 40
0.0
 40
0.25
 40
0.25
 40
0.25
 40
0.25
 40
0.5
 40
0.5
 40
0.5
 40
0.5
 40
0.75
 40
0.75
 40
0.75
 40
0.75
 40
1.0
 40
1.0
 40
1.0
 40
1.0
 10
1067.4196
 20
-277.9966
 30
0.0
 10
1068.8001
 20
-277.9966
 30
0.0
 10
1069.9196
 20
-279.1161
 30
0.0
 10
1069.9196
 20
-280.4966
 30
0.0
 10
1069.9196
 20
-280.4966
 30
0.0
 10
1069.9196
 20
-281.8771
 30
0.0
 10
1068.8001
 20
-282.9966
 30
0.0
 10
1067.4196
 20
-282.9966
 30
0.0
 10
1067.4196
 20
-282.9966
 30
0.0
 10
1066.0391
 20
-282.9966
 30
0.0
 10
1064.9196
 20
-281.8771
 30
0.0
 10
1064.9196
 20
-280.4966
 30
0.0
 10
1064.9196
 20
-280.4966
 30
0.0
 10
1064.9196
 20
-279.1161
 30
0.0
 10
1066.0391
 20
-277.9966
 30
0.0
 10
1067.4196
 20
-277.9966
 30
0.0
  0
SPLINE
  5
AE
330
1F
100
AcDbEntity
  8
layer 1
 62
   250
370
     0
100
AcDbSpline
210
0.0
220
0.0
230
1.0
 70
    11
 71
     3
 72
    20
 73
    16
 74
     0
 42
0.0000000001
 43
0.0000000001
 40
0.0
 40
0.0
 40
0.0
 40
0.0
 40
0.25
 40
0.25
 40
0.25
 40
0.25
 40
0.5
 40
0.5
 40
0.5
 40
0.5
 40
0.75
 40
0.75
 40
0.75
 40
0.75
 40
1.0
 40
1.0
 40
1.0
 40
1.0
 10
1067.4196
 20
-252.9966
 30
0.0
 10
1068.8001
 20
-252.9966
 30
0.0
 10
1069.9196
 20
-254.1161
 30
0.0
 10
1069.9196
 20
-255.4966
 30
0.0
 10
1069.9196
 20
-255.4966
 30
0.0
 10
1069.9196
 20
-256.8771
 30
0.0
 10
1068.8001
 20
-257.9966
 30
0.0
 10
1067.4196
 20
-257.9966
 30
0.0
 10
1067.4196
 20
-257.9966
 30
0.0
 10
1066.0391
 20
-257.9966
 30
0.0
 10
1064.9196
 20
-256.8771
 30
0.0
 10
1064.9196
 20
-255.4966
 30
0.0
 10
1064.9196
 20
-255.4966
 30
0.0
 10
1064.9196
 20
-254.1161
 30
0.0
 10
1066.0391
 20
-252.9966
 30
0.0
 10
1067.4196
 20
-252.9966
 30
0.0
  0
SPLINE
  5
AF
330
1F
100
AcDbEntity
  8
layer 1
 62
   250
370
     0
100
AcDbSpline
210
0.0
220
0.0
230
1.0
 70
    11
 71
     3
 72
    20
 73
    16
 74
     0
 42
0.0000000001
 43
0.0000000001
 40
0.0
 40
0.0
 40
0.0
 40
0.0
 40
0.25
 40
0.25
 40
0.25
 40
0.25
 40
0.5
 40
0.5
 40
0.5
 40
0.5
 40
0.75
 40
0.75
 40
0.75
 40
0.75
 40
1.0
 40
1.0
 40
1.0
 40
1.0
 10
1067.4196
 20
-227.9966
 30
0.0
 10
1068.8001
 20
-227.9966
 30
0.0
 10
1069.9196
 20
-229.1161
 30
0.0
 10
1069.9196
 20
-230.4966
 30
0.0
 10
1069.9196
 20
-230.4966
 30
0.0
 10
1069.9196
 20
-231.8771
 30
0.0
 10
1068.8001
 20
-232.9966
 30
0.0
 10
1067.4196
 20
-232.9966
 30
0.0
 10
1067.4196
 20
-232.9966
 30
0.0
 10
1066.0391
 20
-232.9966
 30
0.0
 10
1064.9196
 20
-231.8771
 30
0.0
 10
1064.9196
 20
-230.4966
 30
0.0
 10
1064.9196
 20
-230.4966
 30
0.0
 10
1064.9196
 20
-229.1161
 30
0.0
 10
1066.0391
 20
-227.9966
 30
0.0
 10
1067.4196
 20
-227.9966
 30
0.0
  0
SPLINE
  5
B0
330
1F
100
AcDbEntity
  8
layer 1
 62
   250
370
     0
100
AcDbSpline
210
0.0
220
0.0
230
1.0
 70
    11
 71
     3
 72
    20
 73
    16
 74
     0
 42
0.0000000001
 43
0.0000000001
 40
0.0
 40
0.0
 40
0.0
 40
0.0
 40
0.25
 40
0.25
 40
0.25
 40
0.25
 40
0.5
 40
0.5
 40
0.5
 40
0.5
 40
0.75
 40
0.75
 40
0.75
 40
0.75
 40
1.0
 40
1.0
 40
1.0
 40
1.0
 10
1067.4196
 20
-202.9966
 30
0.0
 10
1068.8001
 20
-202.9966
 30
0.0
 10
1069.9196
 20
-204.1161
 30
0.0
 10
1069.9196
 20
-205.4966
 30
0.0
 10
1069.9196
 20
-205.4966
 30
0.0
 10
1069.9196
 20
-206.8771
 30
0.0
 10
1068.8001
 20
-207.9966
 30
0.0
 10
1067.4196
 20
-207.9966
 30
0.0
 10
1067.4196
 20
-207.9966
 30
0.0
 10
1066.0391
 20
-207.9966
 30
0.0
 10
1064.9196
 20
-206.8771
 30
0.0
 10
1064.9196
 20
-205.4966
 30
0.0
 10
1064.9196
 20
-205.4966
 30
0.0
 10
1064.9196
 20
-204.1161
 30
0.0
 10
1066.0391
 20
-202.9966
 30
0.0
 10
1067.4196
 20
-202.9966
 30
0.0
  0
SPLINE
  5
B1
330
1F
100
AcDbEntity
  8
layer 1
 62
   250
370
     0
100
AcDbSpline
210
0.0
220
0.0
230
1.0
 70
    11
 71
     3
 72
    20
 73
    16
 74
     0
 42
0.0000000001
 43
0.0000000001
 40
0.0
 40
0.0
 40
0.0
 40
0.0
 40
0.25
 40
0.25
 40
0.25
 40
0.25
 40
0.5
 40
0.5
 40
0.5
 40
0.5
 40
0.75
 40
0.75
 40
0.75
 40
0.75
 40
1.0
 40
1.0
 40
1.0
 40
1.0
 10
1067.4196
 20
-177.9966
 30
0.0
 10
1068.8001
 20
-177.9966
 30
0.0
 10
1069.9196
 20
-179.1161
 30
0.0
 10
1069.9196
 20
-180.4966
 30
0.0
 10
1069.9196
 20
-180.4966
 30
0.0
 10
1069.9196
 20
-181.8771
 30
0.0
 10
1068.8001
 20
-182.9966
 30
0.0
 10
1067.4196
 20
-182.9966
 30
0.0
 10
1067.4196
 20
-182.9966
 30
0.0
 10
1066.0391
 20
-182.9966
 30
0.0
 10
1064.9196
 20
-181.8771
 30
0.0
 10
1064.9196
 20
-180.4966
 30
0.0
 10
1064.9196
 20
-180.4966
 30
0.0
 10
1064.9196
 20
-179.1161
 30
0.0
 10
1066.0391
 20
-177.9966
 30
0.0
 10
1067.4196
 20
-177.9966
 30
0.0
  0
SPLINE
  5
B2
330
1F
100
AcDbEntity
  8
layer 1
 62
   250
370
     0
100
AcDbSpline
210
0.0
220
0.0
230
1.0
 70
    11
 71
     3
 72
    20
 73
    16
 74
     0
 42
0.0000000001
 43
0.0000000001
 40
0.0
 40
0.0
 40
0.0
 40
0.0
 40
0.25
 40
0.25
 40
0.25
 40
0.25
 40
0.5
 40
0.5
 40
0.5
 40
0.5
 40
0.75
 40
0.75
 40
0.75
 40
0.75
 40
1.0
 40
1.0
 40
1.0
 40
1.0
 10
1067.4196
 20
-152.9966
 30
0.0
 10
1068.8001
 20
-152.9966
 30
0.0
 10
1069.9196
 20
-154.1161
 30
0.0
 10
1069.9196
 20
-155.4966
 30
0.0
 10
1069.9196
 20
-155.4966
 30
0.0
 10
1069.9196
 20
-156.8771
 30
0.0
 10
1068.8001
 20
-157.9966
 30
0.0
 10
1067.4196
 20
-157.9966
 30
0.0
 10
1067.4196
 20
-157.9966
 30
0.0
 10
1066.0391
 20
-157.9966
 30
0.0
 10
1064.9196
 20
-156.8771
 30
0.0
 10
1064.9196
 20
-155.4966
 30
0.0
 10
1064.9196
 20
-155.4966
 30
0.0
 10
1064.9196
 20
-154.1161
 30
0.0
 10
1066.0391
 20
-152.9966
 30
0.0
 10
1067.4196
 20
-152.9966
 30
0.0
  0
SPLINE
  5
B3
330
1F
100
AcDbEntity
  8
layer 1
 62
   250
370
     0
100
AcDbSpline
210
0.0
220
0.0
230
1.0
 70
    11
 71
     3
 72
    20
 73
    16
 74
     0
 42
0.0000000001
 43
0.0000000001
 40
0.0
 40
0.0
 40
0.0
 40
0.0
 40
0.25
 40
0.25
 40
0.25
 40
0.25
 40
0.5
 40
0.5
 40
0.5
 40
0.5
 40
0.75
 40
0.75
 40
0.75
 40
0.75
 40
1.0
 40
1.0
 40
1.0
 40
1.0
 10
1067.4196
 20
-127.9966
 30
0.0
 10
1068.8001
 20
-127.9966
 30
0.0
 10
1069.9196
 20
-129.1161
 30
0.0
 10
1069.9196
 20
-130.4966
 30
0.0
 10
1069.9196
 20
-130.4966
 30
0.0
 10
1069.9196
 20
-131.8771
 30
0.0
 10
1068.8001
 20
-132.9966
 30
0.0
 10
1067.4196
 20
-132.9966
 30
0.0
 10
1067.4196
 20
-132.9966
 30
0.0
 10
1066.0391
 20
-132.9966
 30
0.0
 10
1064.9196
 20
-131.8771
 30
0.0
 10
1064.9196
 20
-130.4966
 30
0.0
 10
1064.9196
 20
-130.4966
 30
0.0
 10
1064.9196
 20
-129.1161
 30
0.0
 10
1066.0391
 20
-127.9966
 30
0.0
 10
1067.4196
 20
-127.9966
 30
0.0
  0
SPLINE
  5
B4
330
1F
100
AcDbEntity
  8
layer 1
 62
   250
370
     0
100
AcDbSpline
210
0.0
220
0.0
230
1.0
 70
    11
 71
     3
 72
    20
 73
    16
 74
     0
 42
0.0000000001
 43
0.0000000001
 40
0.0
 40
0.0
 40
0.0
 40
0.0
 40
0.25
 40
0.25
 40
0.25
 40
0.25
 40
0.5
 40
0.5
 40
0.5
 40
0.5
 40
0.75
 40
0.75
 40
0.75
 40
0.75
 40
1.0
 40
1.0
 40
1.0
 40
1.0
 10
1067.4196
 20
-102.9966
 30
0.0
 10
1068.8001
 20
-102.9966
 30
0.0
 10
1069.9196
 20
-104.1161
 30
0.0
 10
1069.9196
 20
-105.4966
 30
0.0
 10
1069.9196
 20
-105.4966
 30
0.0
 10
1069.9196
 20
-106.8771
 30
0.0
 10
1068.8001
 20
-107.9966
 30
0.0
 10
1067.4196
 20
-107.9966
 30
0.0
 10
1067.4196
 20
-107.9966
 30
0.0
 10
1066.0391
 20
-107.9966
 30
0.0
 10
1064.9196
 20
-106.8771
 30
0.0
 10
1064.9196
 20
-105.4966
 30
0.0
 10
1064.9196
 20
-105.4966
 30
0.0
 10
1064.9196
 20
-104.1161
 30
0.0
 10
1066.0391
 20
-102.9966
 30
0.0
 10
1067.4196
 20
-102.9966
 30
0.0
  0
SPLINE
  5
B5
330
1F
100
AcDbEntity
  8
layer 1
 62
   250
370
     0
100
AcDbSpline
210
0.0
220
0.0
230
1.0
 70
    11
 71
     3
 72
    20
 73
    16
 74
     0
 42
0.0000000001
 43
0.0000000001
 40
0.0
 40
0.0
 40
0.0
 40
0.0
 40
0.25
 40
0.25
 40
0.25
 40
0.25
 40
0.5
 40
0.5
 40
0.5
 40
0.5
 40
0.75
 40
0.75
 40
0.75
 40
0.75
 40
1.0
 40
1.0
 40
1.0
 40
1.0
 10
1067.4196
 20
-77.9966
 30
0.0
 10
1068.8001
 20
-77.9966
 30
0.0
 10
1069.9196
 20
-79.1161
 30
0.0
 10
1069.9196
 20
-80.4966
 30
0.0
 10
1069.9196
 20
-80.4966
 30
0.0
 10
1069.9196
 20
-81.8771
 30
0.0
 10
1068.8001
 20
-82.9966
 30
0.0
 10
1067.4196
 20
-82.9966
 30
0.0
 10
1067.4196
 20
-82.9966
 30
0.0
 10
1066.0391
 20
-82.9966
 30
0.0
 10
1064.9196
 20
-81.8771
 30
0.0
 10
1064.9196
 20
-80.4966
 30
0.0
 10
1064.9196
 20
-80.4966
 30
0.0
 10
1064.9196
 20
-79.1161
 30
0.0
 10
1066.0391
 20
-77.9966
 30
0.0
 10
1067.4196
 20
-77.9966
 30
0.0
  0
SPLINE
  5
B6
330
1F
100
AcDbEntity
  8
layer 1
 62
   250
370
     0
100
AcDbSpline
210
0.0
220
0.0
230
1.0
 70
    11
 71
     3
 72
    20
 73
    16
 74
     0
 42
0.0000000001
 43
0.0000000001
 40
0.0
 40
0.0
 40
0.0
 40
0.0
 40
0.25
 40
0.25
 40
0.25
 40
0.25
 40
0.5
 40
0.5
 40
0.5
 40
0.5
 40
0.75
 40
0.75
 40
0.75
 40
0.75
 40
1.0
 40
1.0
 40
1.0
 40
1.0
 10
1067.4196
 20
-52.9966
 30
0.0
 10
1068.8001
 20
-52.9966
 30
0.0
 10
1069.9196
 20
-54.1161
 30
0.0
 10
1069.9196
 20
-55.4966
 30
0.0
 10
1069.9196
 20
-55.4966
 30
0.0
 10
1069.9196
 20
-56.8771
 30
0.0
 10
1068.8001
 20
-57.9966
 30
0.0
 10
1067.4196
 20
-57.9966
 30
0.0
 10
1067.4196
 20
-57.9966
 30
0.0
 10
1066.0391
 20
-57.9966
 30
0.0
 10
1064.9196
 20
-56.8771
 30
0.0
 10
1064.9196
 20
-55.4966
 30
0.0
 10
1064.9196
 20
-55.4966
 30
0.0
 10
1064.9196
 20
-54.1161
 30
0.0
 10
1066.0391
 20
-52.9966
 30
0.0
 10
1067.4196
 20
-52.9966
 30
0.0
  0
SPLINE
  5
B7
330
1F
100
AcDbEntity
  8
layer 1
 62
   250
370
     0
100
AcDbSpline
210
0.0
220
0.0
230
1.0
 70
    11
 71
     3
 72
    20
 73
    16
 74
     0
 42
0.0000000001
 43
0.0000000001
 40
0.0
 40
0.0
 40
0.0
 40
0.0
 40
0.25
 40
0.25
 40
0.25
 40
0.25
 40
0.5
 40
0.5
 40
0.5
 40
0.5
 40
0.75
 40
0.75
 40
0.75
 40
0.75
 40
1.0
 40
1.0
 40
1.0
 40
1.0
 10
1067.4196
 20
-27.9966
 30
0.0
 10
1068.8001
 20
-27.9966
 30
0.0
 10
1069.9196
 20
-29.1161
 30
0.0
 10
1069.9196
 20
-30.4966
 30
0.0
 10
1069.9196
 20
-30.4966
 30
0.0
 10
1069.9196
 20
-31.8771
 30
0.0
 10
1068.8001
 20
-32.9966
 30
0.0
 10
1067.4196
 20
-32.9966
 30
0.0
 10
1067.4196
 20
-32.9966
 30
0.0
 10
1066.0391
 20
-32.9966
 30
0.0
 10
1064.9196
 20
-31.8771
 30
0.0
 10
1064.9196
 20
-30.4966
 30
0.0
 10
1064.9196
 20
-30.4966
 30
0.0
 10
1064.9196
 20
-29.1161
 30
0.0
 10
1066.0391
 20
-27.9966
 30
0.0
 10
1067.4196
 20
-27.9966
 30
0.0
  0
SPLINE
  5
B8
330
1F
100
AcDbEntity
  8
layer 1
 62
   250
370
     0
100
AcDbSpline
210
0.0
220
0.0
230
1.0
 70
    11
 71
     3
 72
    20
 73
    16
 74
     0
 42
0.0000000001
 43
0.0000000001
 40
0.0
 40
0.0
 40
0.0
 40
0.0
 40
0.25
 40
0.25
 40
0.25
 40
0.25
 40
0.5
 40
0.5
 40
0.5
 40
0.5
 40
0.75
 40
0.75
 40
0.75
 40
0.75
 40
1.0
 40
1.0
 40
1.0
 40
1.0
 10
1092.4196
 20
-327.9966
 30
0.0
 10
1093.8001
 20
-327.9966
 30
0.0
 10
1094.9196
 20
-329.1161
 30
0.0
 10
1094.9196
 20
-330.4966
 30
0.0
 10
1094.9196
 20
-330.4966
 30
0.0
 10
1094.9196
 20
-331.8771
 30
0.0
 10
1093.8001
 20
-332.9966
 30
0.0
 10
1092.4196
 20
-332.9966
 30
0.0
 10
1092.4196
 20
-332.9966
 30
0.0
 10
1091.0391
 20
-332.9966
 30
0.0
 10
1089.9196
 20
-331.8771
 30
0.0
 10
1089.9196
 20
-330.4966
 30
0.0
 10
1089.9196
 20
-330.4966
 30
0.0
 10
1089.9196
 20
-329.1161
 30
0.0
 10
1091.0391
 20
-327.9966
 30
0.0
 10
1092.4196
 20
-327.9966
 30
0.0
  0
SPLINE
  5
B9
330
1F
100
AcDbEntity
  8
layer 1
 62
   250
370
     0
100
AcDbSpline
210
0.0
220
0.0
230
1.0
 70
    11
 71
     3
 72
    20
 73
    16
 74
     0
 42
0.0000000001
 43
0.0000000001
 40
0.0
 40
0.0
 40
0.0
 40
0.0
 40
0.25
 40
0.25
 40
0.25
 40
0.25
 40
0.5
 40
0.5
 40
0.5
 40
0.5
 40
0.75
 40
0.75
 40
0.75
 40
0.75
 40
1.0
 40
1.0
 40
1.0
 40
1.0
 10
1092.4196
 20
-302.9966
 30
0.0
 10
1093.8001
 20
-302.9966
 30
0.0
 10
1094.9196
 20
-304.1161
 30
0.0
 10
1094.9196
 20
-305.4966
 30
0.0
 10
1094.9196
 20
-305.4966
 30
0.0
 10
1094.9196
 20
-306.8771
 30
0.0
 10
1093.8001
 20
-307.9966
 30
0.0
 10
1092.4196
 20
-307.9966
 30
0.0
 10
1092.4196
 20
-307.9966
 30
0.0
 10
1091.0391
 20
-307.9966
 30
0.0
 10
1089.9196
 20
-306.8771
 30
0.0
 10
1089.9196
 20
-305.4966
 30
0.0
 10
1089.9196
 20
-305.4966
 30
0.0
 10
1089.9196
 20
-304.1161
 30
0.0
 10
1091.0391
 20
-302.9966
 30
0.0
 10
1092.4196
 20
-302.9966
 30
0.0
  0
SPLINE
  5
BA
330
1F
100
AcDbEntity
  8
layer 1
 62
   250
370
     0
100
AcDbSpline
210
0.0
220
0.0
230
1.0
 70
    11
 71
     3
 72
    20
 73
    16
 74
     0
 42
0.0000000001
 43
0.0000000001
 40
0.0
 40
0.0
 40
0.0
 40
0.0
 40
0.25
 40
0.25
 40
0.25
 40
0.25
 40
0.5
 40
0.5
 40
0.5
 40
0.5
 40
0.75
 40
0.75
 40
0.75
 40
0.75
 40
1.0
 40
1.0
 40
1.0
 40
1.0
 10
1092.4196
 20
-277.9966
 30
0.0
 10
1093.8001
 20
-277.9966
 30
0.0
 10
1094.9196
 20
-279.1161
 30
0.0
 10
1094.9196
 20
-280.4966
 30
0.0
 10
1094.9196
 20
-280.4966
 30
0.0
 10
1094.9196
 20
-281.8771
 30
0.0
 10
1093.8001
 20
-282.9966
 30
0.0
 10
1092.4196
 20
-282.9966
 30
0.0
 10
1092.4196
 20
-282.9966
 30
0.0
 10
1091.0391
 20
-282.9966
 30
0.0
 10
1089.9196
 20
-281.8771
 30
0.0
 10
1089.9196
 20
-280.4966
 30
0.0
 10
1089.9196
 20
-280.4966
 30
0.0
 10
1089.9196
 20
-279.1161
 30
0.0
 10
1091.0391
 20
-277.9966
 30
0.0
 10
1092.4196
 20
-277.9966
 30
0.0
  0
SPLINE
  5
BB
330
1F
100
AcDbEntity
  8
layer 1
 62
   250
370
     0
100
AcDbSpline
210
0.0
220
0.0
230
1.0
 70
    11
 71
     3
 72
    20
 73
    16
 74
     0
 42
0.0000000001
 43
0.0000000001
 40
0.0
 40
0.0
 40
0.0
 40
0.0
 40
0.25
 40
0.25
 40
0.25
 40
0.25
 40
0.5
 40
0.5
 40
0.5
 40
0.5
 40
0.75
 40
0.75
 40
0.75
 40
0.75
 40
1.0
 40
1.0
 40
1.0
 40
1.0
 10
1092.4196
 20
-252.9966
 30
0.0
 10
1093.8001
 20
-252.9966
 30
0.0
 10
1094.9196
 20
-254.1161
 30
0.0
 10
1094.9196
 20
-255.4966
 30
0.0
 10
1094.9196
 20
-255.4966
 30
0.0
 10
1094.9196
 20
-256.8771
 30
0.0
 10
1093.8001
 20
-257.9966
 30
0.0
 10
1092.4196
 20
-257.9966
 30
0.0
 10
1092.4196
 20
-257.9966
 30
0.0
 10
1091.0391
 20
-257.9966
 30
0.0
 10
1089.9196
 20
-256.8771
 30
0.0
 10
1089.9196
 20
-255.4966
 30
0.0
 10
1089.9196
 20
-255.4966
 30
0.0
 10
1089.9196
 20
-254.1161
 30
0.0
 10
1091.0391
 20
-252.9966
 30
0.0
 10
1092.4196
 20
-252.9966
 30
0.0
  0
SPLINE
  5
BC
330
1F
100
AcDbEntity
  8
layer 1
 62
   250
370
     0
100
AcDbSpline
210
0.0
220
0.0
230
1.0
 70
    11
 71
     3
 72
    20
 73
    16
 74
     0
 42
0.0000000001
 43
0.0000000001
 40
0.0
 40
0.0
 40
0.0
 40
0.0
 40
0.25
 40
0.25
 40
0.25
 40
0.25
 40
0.5
 40
0.5
 40
0.5
 40
0.5
 40
0.75
 40
0.75
 40
0.75
 40
0.75
 40
1.0
 40
1.0
 40
1.0
 40
1.0
 10
1092.4196
 20
-227.9966
 30
0.0
 10
1093.8001
 20
-227.9966
 30
0.0
 10
1094.9196
 20
-229.1161
 30
0.0
 10
1094.9196
 20
-230.4966
 30
0.0
 10
1094.9196
 20
-230.4966
 30
0.0
 10
1094.9196
 20
-231.8771
 30
0.0
 10
1093.8001
 20
-232.9966
 30
0.0
 10
1092.4196
 20
-232.9966
 30
0.0
 10
1092.4196
 20
-232.9966
 30
0.0
 10
1091.0391
 20
-232.9966
 30
0.0
 10
1089.9196
 20
-231.8771
 30
0.0
 10
1089.9196
 20
-230.4966
 30
0.0
 10
1089.9196
 20
-230.4966
 30
0.0
 10
1089.9196
 20
-229.1161
 30
0.0
 10
1091.0391
 20
-227.9966
 30
0.0
 10
1092.4196
 20
-227.9966
 30
0.0
  0
SPLINE
  5
BD
330
1F
100
AcDbEntity
  8
layer 1
 62
   250
370
     0
100
AcDbSpline
210
0.0
220
0.0
230
1.0
 70
    11
 71
     3
 72
    20
 73
    16
 74
     0
 42
0.0000000001
 43
0.0000000001
 40
0.0
 40
0.0
 40
0.0
 40
0.0
 40
0.25
 40
0.25
 40
0.25
 40
0.25
 40
0.5
 40
0.5
 40
0.5
 40
0.5
 40
0.75
 40
0.75
 40
0.75
 40
0.75
 40
1.0
 40
1.0
 40
1.0
 40
1.0
 10
1092.4196
 20
-202.9966
 30
0.0
 10
1093.8001
 20
-202.9966
 30
0.0
 10
1094.9196
 20
-204.1161
 30
0.0
 10
1094.9196
 20
-205.4966
 30
0.0
 10
1094.9196
 20
-205.4966
 30
0.0
 10
1094.9196
 20
-206.8771
 30
0.0
 10
1093.8001
 20
-207.9966
 30
0.0
 10
1092.4196
 20
-207.9966
 30
0.0
 10
1092.4196
 20
-207.9966
 30
0.0
 10
1091.0391
 20
-207.9966
 30
0.0
 10
1089.9196
 20
-206.8771
 30
0.0
 10
1089.9196
 20
-205.4966
 30
0.0
 10
1089.9196
 20
-205.4966
 30
0.0
 10
1089.9196
 20
-204.1161
 30
0.0
 10
1091.0391
 20
-202.9966
 30
0.0
 10
1092.4196
 20
-202.9966
 30
0.0
  0
SPLINE
  5
BE
330
1F
100
AcDbEntity
  8
layer 1
 62
   250
370
     0
100
AcDbSpline
210
0.0
220
0.0
230
1.0
 70
    11
 71
     3
 72
    20
 73
    16
 74
     0
 42
0.0000000001
 43
0.0000000001
 40
0.0
 40
0.0
 40
0.0
 40
0.0
 40
0.25
 40
0.25
 40
0.25
 40
0.25
 40
0.5
 40
0.5
 40
0.5
 40
0.5
 40
0.75
 40
0.75
 40
0.75
 40
0.75
 40
1.0
 40
1.0
 40
1.0
 40
1.0
 10
1092.4196
 20
-177.9966
 30
0.0
 10
1093.8001
 20
-177.9966
 30
0.0
 10
1094.9196
 20
-179.1161
 30
0.0
 10
1094.9196
 20
-180.4966
 30
0.0
 10
1094.9196
 20
-180.4966
 30
0.0
 10
1094.9196
 20
-181.8771
 30
0.0
 10
1093.8001
 20
-182.9966
 30
0.0
 10
1092.4196
 20
-182.9966
 30
0.0
 10
1092.4196
 20
-182.9966
 30
0.0
 10
1091.0391
 20
-182.9966
 30
0.0
 10
1089.9196
 20
-181.8771
 30
0.0
 10
1089.9196
 20
-180.4966
 30
0.0
 10
1089.9196
 20
-180.4966
 30
0.0
 10
1089.9196
 20
-179.1161
 30
0.0
 10
1091.0391
 20
-177.9966
 30
0.0
 10
1092.4196
 20
-177.9966
 30
0.0
  0
SPLINE
  5
BF
330
1F
100
AcDbEntity
  8
layer 1
 62
   250
370
     0
100
AcDbSpline
210
0.0
220
0.0
230
1.0
 70
    11
 71
     3
 72
    20
 73
    16
 74
     0
 42
0.0000000001
 43
0.0000000001
 40
0.0
 40
0.0
 40
0.0
 40
0.0
 40
0.25
 40
0.25
 40
0.25
 40
0.25
 40
0.5
 40
0.5
 40
0.5
 40
0.5
 40
0.75
 40
0.75
 40
0.75
 40
0.75
 40
1.0
 40
1.0
 40
1.0
 40
1.0
 10
1092.4196
 20
-152.9966
 30
0.0
 10
1093.8001
 20
-152.9966
 30
0.0
 10
1094.9196
 20
-154.1161
 30
0.0
 10
1094.9196
 20
-155.4966
 30
0.0
 10
1094.9196
 20
-155.4966
 30
0.0
 10
1094.9196
 20
-156.8771
 30
0.0
 10
1093.8001
 20
-157.9966
 30
0.0
 10
1092.4196
 20
-157.9966
 30
0.0
 10
1092.4196
 20
-157.9966
 30
0.0
 10
1091.0391
 20
-157.9966
 30
0.0
 10
1089.9196
 20
-156.8771
 30
0.0
 10
1089.9196
 20
-155.4966
 30
0.0
 10
1089.9196
 20
-155.4966
 30
0.0
 10
1089.9196
 20
-154.1161
 30
0.0
 10
1091.0391
 20
-152.9966
 30
0.0
 10
1092.4196
 20
-152.9966
 30
0.0
  0
SPLINE
  5
C0
330
1F
100
AcDbEntity
  8
layer 1
 62
   250
370
     0
100
AcDbSpline
210
0.0
220
0.0
230
1.0
 70
    11
 71
     3
 72
    20
 73
    16
 74
     0
 42
0.0000000001
 43
0.0000000001
 40
0.0
 40
0.0
 40
0.0
 40
0.0
 40
0.25
 40
0.25
 40
0.25
 40
0.25
 40
0.5
 40
0.5
 40
0.5
 40
0.5
 40
0.75
 40
0.75
 40
0.75
 40
0.75
 40
1.0
 40
1.0
 40
1.0
 40
1.0
 10
1092.4196
 20
-127.9966
 30
0.0
 10
1093.8001
 20
-127.9966
 30
0.0
 10
1094.9196
 20
-129.1161
 30
0.0
 10
1094.9196
 20
-130.4966
 30
0.0
 10
1094.9196
 20
-130.4966
 30
0.0
 10
1094.9196
 20
-131.8771
 30
0.0
 10
1093.8001
 20
-132.9966
 30
0.0
 10
1092.4196
 20
-132.9966
 30
0.0
 10
1092.4196
 20
-132.9966
 30
0.0
 10
1091.0391
 20
-132.9966
 30
0.0
 10
1089.9196
 20
-131.8771
 30
0.0
 10
1089.9196
 20
-130.4966
 30
0.0
 10
1089.9196
 20
-130.4966
 30
0.0
 10
1089.9196
 20
-129.1161
 30
0.0
 10
1091.0391
 20
-127.9966
 30
0.0
 10
1092.4196
 20
-127.9966
 30
0.0
  0
SPLINE
  5
C1
330
1F
100
AcDbEntity
  8
layer 1
 62
   250
370
     0
100
AcDbSpline
210
0.0
220
0.0
230
1.0
 70
    11
 71
     3
 72
    20
 73
    16
 74
     0
 42
0.0000000001
 43
0.0000000001
 40
0.0
 40
0.0
 40
0.0
 40
0.0
 40
0.25
 40
0.25
 40
0.25
 40
0.25
 40
0.5
 40
0.5
 40
0.5
 40
0.5
 40
0.75
 40
0.75
 40
0.75
 40
0.75
 40
1.0
 40
1.0
 40
1.0
 40
1.0
 10
1092.4196
 20
-102.9966
 30
0.0
 10
1093.8001
 20
-102.9966
 30
0.0
 10
1094.9196
 20
-104.1161
 30
0.0
 10
1094.9196
 20
-105.4966
 30
0.0
 10
1094.9196
 20
-105.4966
 30
0.0
 10
1094.9196
 20
-106.8771
 30
0.0
 10
1093.8001
 20
-107.9966
 30
0.0
 10
1092.4196
 20
-107.9966
 30
0.0
 10
1092.4196
 20
-107.9966
 30
0.0
 10
1091.0391
 20
-107.9966
 30
0.0
 10
1089.9196
 20
-106.8771
 30
0.0
 10
1089.9196
 20
-105.4966
 30
0.0
 10
1089.9196
 20
-105.4966
 30
0.0
 10
1089.9196
 20
-104.1161
 30
0.0
 10
1091.0391
 20
-102.9966
 30
0.0
 10
1092.4196
 20
-102.9966
 30
0.0
  0
SPLINE
  5
C2
330
1F
100
AcDbEntity
  8
layer 1
 62
   250
370
     0
100
AcDbSpline
210
0.0
220
0.0
230
1.0
 70
    11
 71
     3
 72
    20
 73
    16
 74
     0
 42
0.0000000001
 43
0.0000000001
 40
0.0
 40
0.0
 40
0.0
 40
0.0
 40
0.25
 40
0.25
 40
0.25
 40
0.25
 40
0.5
 40
0.5
 40
0.5
 40
0.5
 40
0.75
 40
0.75
 40
0.75
 40
0.75
 40
1.0
 40
1.0
 40
1.0
 40
1.0
 10
1092.4196
 20
-77.9966
 30
0.0
 10
1093.8001
 20
-77.9966
 30
0.0
 10
1094.9196
 20
-79.1161
 30
0.0
 10
1094.9196
 20
-80.4966
 30
0.0
 10
1094.9196
 20
-80.4966
 30
0.0
 10
1094.9196
 20
-81.8771
 30
0.0
 10
1093.8001
 20
-82.9966
 30
0.0
 10
1092.4196
 20
-82.9966
 30
0.0
 10
1092.4196
 20
-82.9966
 30
0.0
 10
1091.0391
 20
-82.9966
 30
0.0
 10
1089.9196
 20
-81.8771
 30
0.0
 10
1089.9196
 20
-80.4966
 30
0.0
 10
1089.9196
 20
-80.4966
 30
0.0
 10
1089.9196
 20
-79.1161
 30
0.0
 10
1091.0391
 20
-77.9966
 30
0.0
 10
1092.4196
 20
-77.9966
 30
0.0
  0
SPLINE
  5
C3
330
1F
100
AcDbEntity
  8
layer 1
 62
   250
370
     0
100
AcDbSpline
210
0.0
220
0.0
230
1.0
 70
    11
 71
     3
 72
    20
 73
    16
 74
     0
 42
0.0000000001
 43
0.0000000001
 40
0.0
 40
0.0
 40
0.0
 40
0.0
 40
0.25
 40
0.25
 40
0.25
 40
0.25
 40
0.5
 40
0.5
 40
0.5
 40
0.5
 40
0.75
 40
0.75
 40
0.75
 40
0.75
 40
1.0
 40
1.0
 40
1.0
 40
1.0
 10
1092.4196
 20
-52.9966
 30
0.0
 10
1093.8001
 20
-52.9966
 30
0.0
 10
1094.9196
 20
-54.1161
 30
0.0
 10
1094.9196
 20
-55.4966
 30
0.0
 10
1094.9196
 20
-55.4966
 30
0.0
 10
1094.9196
 20
-56.8771
 30
0.0
 10
1093.8001
 20
-57.9966
 30
0.0
 10
1092.4196
 20
-57.9966
 30
0.0
 10
1092.4196
 20
-57.9966
 30
0.0
 10
1091.0391
 20
-57.9966
 30
0.0
 10
1089.9196
 20
-56.8771
 30
0.0
 10
1089.9196
 20
-55.4966
 30
0.0
 10
1089.9196
 20
-55.4966
 30
0.0
 10
1089.9196
 20
-54.1161
 30
0.0
 10
1091.0391
 20
-52.9966
 30
0.0
 10
1092.4196
 20
-52.9966
 30
0.0
  0
SPLINE
  5
C4
330
1F
100
AcDbEntity
  8
layer 1
 62
   250
370
     0
100
AcDbSpline
210
0.0
220
0.0
230
1.0
 70
    11
 71
     3
 72
    20
 73
    16
 74
     0
 42
0.0000000001
 43
0.0000000001
 40
0.0
 40
0.0
 40
0.0
 40
0.0
 40
0.25
 40
0.25
 40
0.25
 40
0.25
 40
0.5
 40
0.5
 40
0.5
 40
0.5
 40
0.75
 40
0.75
 40
0.75
 40
0.75
 40
1.0
 40
1.0
 40
1.0
 40
1.0
 10
1092.4196
 20
-27.9966
 30
0.0
 10
1093.8001
 20
-27.9966
 30
0.0
 10
1094.9196
 20
-29.1161
 30
0.0
 10
1094.9196
 20
-30.4966
 30
0.0
 10
1094.9196
 20
-30.4966
 30
0.0
 10
1094.9196
 20
-31.8771
 30
0.0
 10
1093.8001
 20
-32.9966
 30
0.0
 10
1092.4196
 20
-32.9966
 30
0.0
 10
1092.4196
 20
-32.9966
 30
0.0
 10
1091.0391
 20
-32.9966
 30
0.0
 10
1089.9196
 20
-31.8771
 30
0.0
 10
1089.9196
 20
-30.4966
 30
0.0
 10
1089.9196
 20
-30.4966
 30
0.0
 10
1089.9196
 20
-29.1161
 30
0.0
 10
1091.0391
 20
-27.9966
 30
0.0
 10
1092.4196
 20
-27.9966
 30
0.0
  0
SPLINE
  5
C5
330
1F
100
AcDbEntity
  8
layer 1
 62
   250
370
     0
100
AcDbSpline
210
0.0
220
0.0
230
1.0
 70
    11
 71
     3
 72
    20
 73
    16
 74
     0
 42
0.0000000001
 43
0.0000000001
 40
0.0
 40
0.0
 40
0.0
 40
0.0
 40
0.25
 40
0.25
 40
0.25
 40
0.25
 40
0.5
 40
0.5
 40
0.5
 40
0.5
 40
0.75
 40
0.75
 40
0.75
 40
0.75
 40
1.0
 40
1.0
 40
1.0
 40
1.0
 10
1117.4196
 20
-327.9966
 30
0.0
 10
1118.8001
 20
-327.9966
 30
0.0
 10
1119.9196
 20
-329.1161
 30
0.0
 10
1119.9196
 20
-330.4966
 30
0.0
 10
1119.9196
 20
-330.4966
 30
0.0
 10
1119.9196
 20
-331.8771
 30
0.0
 10
1118.8001
 20
-332.9966
 30
0.0
 10
1117.4196
 20
-332.9966
 30
0.0
 10
1117.4196
 20
-332.9966
 30
0.0
 10
1116.0391
 20
-332.9966
 30
0.0
 10
1114.9196
 20
-331.8771
 30
0.0
 10
1114.9196
 20
-330.4966
 30
0.0
 10
1114.9196
 20
-330.4966
 30
0.0
 10
1114.9196
 20
-329.1161
 30
0.0
 10
1116.0391
 20
-327.9966
 30
0.0
 10
1117.4196
 20
-327.9966
 30
0.0
  0
SPLINE
  5
C6
330
1F
100
AcDbEntity
  8
layer 1
 62
   250
370
     0
100
AcDbSpline
210
0.0
220
0.0
230
1.0
 70
    11
 71
     3
 72
    20
 73
    16
 74
     0
 42
0.0000000001
 43
0.0000000001
 40
0.0
 40
0.0
 40
0.0
 40
0.0
 40
0.25
 40
0.25
 40
0.25
 40
0.25
 40
0.5
 40
0.5
 40
0.5
 40
0.5
 40
0.75
 40
0.75
 40
0.75
 40
0.75
 40
1.0
 40
1.0
 40
1.0
 40
1.0
 10
1117.4196
 20
-302.9966
 30
0.0
 10
1118.8001
 20
-302.9966
 30
0.0
 10
1119.9196
 20
-304.1161
 30
0.0
 10
1119.9196
 20
-305.4966
 30
0.0
 10
1119.9196
 20
-305.4966
 30
0.0
 10
1119.9196
 20
-306.8771
 30
0.0
 10
1118.8001
 20
-307.9966
 30
0.0
 10
1117.4196
 20
-307.9966
 30
0.0
 10
1117.4196
 20
-307.9966
 30
0.0
 10
1116.0391
 20
-307.9966
 30
0.0
 10
1114.9196
 20
-306.8771
 30
0.0
 10
1114.9196
 20
-305.4966
 30
0.0
 10
1114.9196
 20
-305.4966
 30
0.0
 10
1114.9196
 20
-304.1161
 30
0.0
 10
1116.0391
 20
-302.9966
 30
0.0
 10
1117.4196
 20
-302.9966
 30
0.0
  0
SPLINE
  5
C7
330
1F
100
AcDbEntity
  8
layer 1
 62
   250
370
     0
100
AcDbSpline
210
0.0
220
0.0
230
1.0
 70
    11
 71
     3
 72
    20
 73
    16
 74
     0
 42
0.0000000001
 43
0.0000000001
 40
0.0
 40
0.0
 40
0.0
 40
0.0
 40
0.25
 40
0.25
 40
0.25
 40
0.25
 40
0.5
 40
0.5
 40
0.5
 40
0.5
 40
0.75
 40
0.75
 40
0.75
 40
0.75
 40
1.0
 40
1.0
 40
1.0
 40
1.0
 10
1117.4196
 20
-277.9966
 30
0.0
 10
1118.8001
 20
-277.9966
 30
0.0
 10
1119.9196
 20
-279.1161
 30
0.0
 10
1119.9196
 20
-280.4966
 30
0.0
 10
1119.9196
 20
-280.4966
 30
0.0
 10
1119.9196
 20
-281.8771
 30
0.0
 10
1118.8001
 20
-282.9966
 30
0.0
 10
1117.4196
 20
-282.9966
 30
0.0
 10
1117.4196
 20
-282.9966
 30
0.0
 10
1116.0391
 20
-282.9966
 30
0.0
 10
1114.9196
 20
-281.8771
 30
0.0
 10
1114.9196
 20
-280.4966
 30
0.0
 10
1114.9196
 20
-280.4966
 30
0.0
 10
1114.9196
 20
-279.1161
 30
0.0
 10
1116.0391
 20
-277.9966
 30
0.0
 10
1117.4196
 20
-277.9966
 30
0.0
  0
SPLINE
  5
C8
330
1F
100
AcDbEntity
  8
layer 1
 62
   250
370
     0
100
AcDbSpline
210
0.0
220
0.0
230
1.0
 70
    11
 71
     3
 72
    20
 73
    16
 74
     0
 42
0.0000000001
 43
0.0000000001
 40
0.0
 40
0.0
 40
0.0
 40
0.0
 40
0.25
 40
0.25
 40
0.25
 40
0.25
 40
0.5
 40
0.5
 40
0.5
 40
0.5
 40
0.75
 40
0.75
 40
0.75
 40
0.75
 40
1.0
 40
1.0
 40
1.0
 40
1.0
 10
1117.4196
 20
-252.9966
 30
0.0
 10
1118.8001
 20
-252.9966
 30
0.0
 10
1119.9196
 20
-254.1161
 30
0.0
 10
1119.9196
 20
-255.4966
 30
0.0
 10
1119.9196
 20
-255.4966
 30
0.0
 10
1119.9196
 20
-256.8771
 30
0.0
 10
1118.8001
 20
-257.9966
 30
0.0
 10
1117.4196
 20
-257.9966
 30
0.0
 10
1117.4196
 20
-257.9966
 30
0.0
 10
1116.0391
 20
-257.9966
 30
0.0
 10
1114.9196
 20
-256.8771
 30
0.0
 10
1114.9196
 20
-255.4966
 30
0.0
 10
1114.9196
 20
-255.4966
 30
0.0
 10
1114.9196
 20
-254.1161
 30
0.0
 10
1116.0391
 20
-252.9966
 30
0.0
 10
1117.4196
 20
-252.9966
 30
0.0
  0
SPLINE
  5
C9
330
1F
100
AcDbEntity
  8
layer 1
 62
   250
370
     0
100
AcDbSpline
210
0.0
220
0.0
230
1.0
 70
    11
 71
     3
 72
    20
 73
    16
 74
     0
 42
0.0000000001
 43
0.0000000001
 40
0.0
 40
0.0
 40
0.0
 40
0.0
 40
0.25
 40
0.25
 40
0.25
 40
0.25
 40
0.5
 40
0.5
 40
0.5
 40
0.5
 40
0.75
 40
0.75
 40
0.75
 40
0.75
 40
1.0
 40
1.0
 40
1.0
 40
1.0
 10
1117.4196
 20
-227.9966
 30
0.0
 10
1118.8001
 20
-227.9966
 30
0.0
 10
1119.9196
 20
-229.1161
 30
0.0
 10
1119.9196
 20
-230.4966
 30
0.0
 10
1119.9196
 20
-230.4966
 30
0.0
 10
1119.9196
 20
-231.8771
 30
0.0
 10
1118.8001
 20
-232.9966
 30
0.0
 10
1117.4196
 20
-232.9966
 30
0.0
 10
1117.4196
 20
-232.9966
 30
0.0
 10
1116.0391
 20
-232.9966
 30
0.0
 10
1114.9196
 20
-231.8771
 30
0.0
 10
1114.9196
 20
-230.4966
 30
0.0
 10
1114.9196
 20
-230.4966
 30
0.0
 10
1114.9196
 20
-229.1161
 30
0.0
 10
1116.0391
 20
-227.9966
 30
0.0
 10
1117.4196
 20
-227.9966
 30
0.0
  0
SPLINE
  5
CA
330
1F
100
AcDbEntity
  8
layer 1
 62
   250
370
     0
100
AcDbSpline
210
0.0
220
0.0
230
1.0
 70
    11
 71
     3
 72
    20
 73
    16
 74
     0
 42
0.0000000001
 43
0.0000000001
 40
0.0
 40
0.0
 40
0.0
 40
0.0
 40
0.25
 40
0.25
 40
0.25
 40
0.25
 40
0.5
 40
0.5
 40
0.5
 40
0.5
 40
0.75
 40
0.75
 40
0.75
 40
0.75
 40
1.0
 40
1.0
 40
1.0
 40
1.0
 10
1117.4196
 20
-202.9966
 30
0.0
 10
1118.8001
 20
-202.9966
 30
0.0
 10
1119.9196
 20
-204.1161
 30
0.0
 10
1119.9196
 20
-205.4966
 30
0.0
 10
1119.9196
 20
-205.4966
 30
0.0
 10
1119.9196
 20
-206.8771
 30
0.0
 10
1118.8001
 20
-207.9966
 30
0.0
 10
1117.4196
 20
-207.9966
 30
0.0
 10
1117.4196
 20
-207.9966
 30
0.0
 10
1116.0391
 20
-207.9966
 30
0.0
 10
1114.9196
 20
-206.8771
 30
0.0
 10
1114.9196
 20
-205.4966
 30
0.0
 10
1114.9196
 20
-205.4966
 30
0.0
 10
1114.9196
 20
-204.1161
 30
0.0
 10
1116.0391
 20
-202.9966
 30
0.0
 10
1117.4196
 20
-202.9966
 30
0.0
  0
SPLINE
  5
CB
330
1F
100
AcDbEntity
  8
layer 1
 62
   250
370
     0
100
AcDbSpline
210
0.0
220
0.0
230
1.0
 70
    11
 71
     3
 72
    20
 73
    16
 74
     0
 42
0.0000000001
 43
0.0000000001
 40
0.0
 40
0.0
 40
0.0
 40
0.0
 40
0.25
 40
0.25
 40
0.25
 40
0.25
 40
0.5
 40
0.5
 40
0.5
 40
0.5
 40
0.75
 40
0.75
 40
0.75
 40
0.75
 40
1.0
 40
1.0
 40
1.0
 40
1.0
 10
1117.4196
 20
-177.9966
 30
0.0
 10
1118.8001
 20
-177.9966
 30
0.0
 10
1119.9196
 20
-179.1161
 30
0.0
 10
1119.9196
 20
-180.4966
 30
0.0
 10
1119.9196
 20
-180.4966
 30
0.0
 10
1119.9196
 20
-181.8771
 30
0.0
 10
1118.8001
 20
-182.9966
 30
0.0
 10
1117.4196
 20
-182.9966
 30
0.0
 10
1117.4196
 20
-182.9966
 30
0.0
 10
1116.0391
 20
-182.9966
 30
0.0
 10
1114.9196
 20
-181.8771
 30
0.0
 10
1114.9196
 20
-180.4966
 30
0.0
 10
1114.9196
 20
-180.4966
 30
0.0
 10
1114.9196
 20
-179.1161
 30
0.0
 10
1116.0391
 20
-177.9966
 30
0.0
 10
1117.4196
 20
-177.9966
 30
0.0
  0
SPLINE
  5
CC
330
1F
100
AcDbEntity
  8
layer 1
 62
   250
370
     0
100
AcDbSpline
210
0.0
220
0.0
230
1.0
 70
    11
 71
     3
 72
    20
 73
    16
 74
     0
 42
0.0000000001
 43
0.0000000001
 40
0.0
 40
0.0
 40
0.0
 40
0.0
 40
0.25
 40
0.25
 40
0.25
 40
0.25
 40
0.5
 40
0.5
 40
0.5
 40
0.5
 40
0.75
 40
0.75
 40
0.75
 40
0.75
 40
1.0
 40
1.0
 40
1.0
 40
1.0
 10
1117.4196
 20
-152.9966
 30
0.0
 10
1118.8001
 20
-152.9966
 30
0.0
 10
1119.9196
 20
-154.1161
 30
0.0
 10
1119.9196
 20
-155.4966
 30
0.0
 10
1119.9196
 20
-155.4966
 30
0.0
 10
1119.9196
 20
-156.8771
 30
0.0
 10
1118.8001
 20
-157.9966
 30
0.0
 10
1117.4196
 20
-157.9966
 30
0.0
 10
1117.4196
 20
-157.9966
 30
0.0
 10
1116.0391
 20
-157.9966
 30
0.0
 10
1114.9196
 20
-156.8771
 30
0.0
 10
1114.9196
 20
-155.4966
 30
0.0
 10
1114.9196
 20
-155.4966
 30
0.0
 10
1114.9196
 20
-154.1161
 30
0.0
 10
1116.0391
 20
-152.9966
 30
0.0
 10
1117.4196
 20
-152.9966
 30
0.0
  0
SPLINE
  5
CD
330
1F
100
AcDbEntity
  8
layer 1
 62
   250
370
     0
100
AcDbSpline
210
0.0
220
0.0
230
1.0
 70
    11
 71
     3
 72
    20
 73
    16
 74
     0
 42
0.0000000001
 43
0.0000000001
 40
0.0
 40
0.0
 40
0.0
 40
0.0
 40
0.25
 40
0.25
 40
0.25
 40
0.25
 40
0.5
 40
0.5
 40
0.5
 40
0.5
 40
0.75
 40
0.75
 40
0.75
 40
0.75
 40
1.0
 40
1.0
 40
1.0
 40
1.0
 10
1117.4196
 20
-127.9966
 30
0.0
 10
1118.8001
 20
-127.9966
 30
0.0
 10
1119.9196
 20
-129.1161
 30
0.0
 10
1119.9196
 20
-130.4966
 30
0.0
 10
1119.9196
 20
-130.4966
 30
0.0
 10
1119.9196
 20
-131.8771
 30
0.0
 10
1118.8001
 20
-132.9966
 30
0.0
 10
1117.4196
 20
-132.9966
 30
0.0
 10
1117.4196
 20
-132.9966
 30
0.0
 10
1116.0391
 20
-132.9966
 30
0.0
 10
1114.9196
 20
-131.8771
 30
0.0
 10
1114.9196
 20
-130.4966
 30
0.0
 10
1114.9196
 20
-130.4966
 30
0.0
 10
1114.9196
 20
-129.1161
 30
0.0
 10
1116.0391
 20
-127.9966
 30
0.0
 10
1117.4196
 20
-127.9966
 30
0.0
  0
SPLINE
  5
CE
330
1F
100
AcDbEntity
  8
layer 1
 62
   250
370
     0
100
AcDbSpline
210
0.0
220
0.0
230
1.0
 70
    11
 71
     3
 72
    20
 73
    16
 74
     0
 42
0.0000000001
 43
0.0000000001
 40
0.0
 40
0.0
 40
0.0
 40
0.0
 40
0.25
 40
0.25
 40
0.25
 40
0.25
 40
0.5
 40
0.5
 40
0.5
 40
0.5
 40
0.75
 40
0.75
 40
0.75
 40
0.75
 40
1.0
 40
1.0
 40
1.0
 40
1.0
 10
1117.4196
 20
-102.9966
 30
0.0
 10
1118.8001
 20
-102.9966
 30
0.0
 10
1119.9196
 20
-104.1161
 30
0.0
 10
1119.9196
 20
-105.4966
 30
0.0
 10
1119.9196
 20
-105.4966
 30
0.0
 10
1119.9196
 20
-106.8771
 30
0.0
 10
1118.8001
 20
-107.9966
 30
0.0
 10
1117.4196
 20
-107.9966
 30
0.0
 10
1117.4196
 20
-107.9966
 30
0.0
 10
1116.0391
 20
-107.9966
 30
0.0
 10
1114.9196
 20
-106.8771
 30
0.0
 10
1114.9196
 20
-105.4966
 30
0.0
 10
1114.9196
 20
-105.4966
 30
0.0
 10
1114.9196
 20
-104.1161
 30
0.0
 10
1116.0391
 20
-102.9966
 30
0.0
 10
1117.4196
 20
-102.9966
 30
0.0
  0
SPLINE
  5
CF
330
1F
100
AcDbEntity
  8
layer 1
 62
   250
370
     0
100
AcDbSpline
210
0.0
220
0.0
230
1.0
 70
    11
 71
     3
 72
    20
 73
    16
 74
     0
 42
0.0000000001
 43
0.0000000001
 40
0.0
 40
0.0
 40
0.0
 40
0.0
 40
0.25
 40
0.25
 40
0.25
 40
0.25
 40
0.5
 40
0.5
 40
0.5
 40
0.5
 40
0.75
 40
0.75
 40
0.75
 40
0.75
 40
1.0
 40
1.0
 40
1.0
 40
1.0
 10
1117.4196
 20
-77.9966
 30
0.0
 10
1118.8001
 20
-77.9966
 30
0.0
 10
1119.9196
 20
-79.1161
 30
0.0
 10
1119.9196
 20
-80.4966
 30
0.0
 10
1119.9196
 20
-80.4966
 30
0.0
 10
1119.9196
 20
-81.8771
 30
0.0
 10
1118.8001
 20
-82.9966
 30
0.0
 10
1117.4196
 20
-82.9966
 30
0.0
 10
1117.4196
 20
-82.9966
 30
0.0
 10
1116.0391
 20
-82.9966
 30
0.0
 10
1114.9196
 20
-81.8771
 30
0.0
 10
1114.9196
 20
-80.4966
 30
0.0
 10
1114.9196
 20
-80.4966
 30
0.0
 10
1114.9196
 20
-79.1161
 30
0.0
 10
1116.0391
 20
-77.9966
 30
0.0
 10
1117.4196
 20
-77.9966
 30
0.0
  0
SPLINE
  5
D0
330
1F
100
AcDbEntity
  8
layer 1
 62
   250
370
     0
100
AcDbSpline
210
0.0
220
0.0
230
1.0
 70
    11
 71
     3
 72
    20
 73
    16
 74
     0
 42
0.0000000001
 43
0.0000000001
 40
0.0
 40
0.0
 40
0.0
 40
0.0
 40
0.25
 40
0.25
 40
0.25
 40
0.25
 40
0.5
 40
0.5
 40
0.5
 40
0.5
 40
0.75
 40
0.75
 40
0.75
 40
0.75
 40
1.0
 40
1.0
 40
1.0
 40
1.0
 10
1117.4196
 20
-52.9966
 30
0.0
 10
1118.8001
 20
-52.9966
 30
0.0
 10
1119.9196
 20
-54.1161
 30
0.0
 10
1119.9196
 20
-55.4966
 30
0.0
 10
1119.9196
 20
-55.4966
 30
0.0
 10
1119.9196
 20
-56.8771
 30
0.0
 10
1118.8001
 20
-57.9966
 30
0.0
 10
1117.4196
 20
-57.9966
 30
0.0
 10
1117.4196
 20
-57.9966
 30
0.0
 10
1116.0391
 20
-57.9966
 30
0.0
 10
1114.9196
 20
-56.8771
 30
0.0
 10
1114.9196
 20
-55.4966
 30
0.0
 10
1114.9196
 20
-55.4966
 30
0.0
 10
1114.9196
 20
-54.1161
 30
0.0
 10
1116.0391
 20
-52.9966
 30
0.0
 10
1117.4196
 20
-52.9966
 30
0.0
  0
SPLINE
  5
D1
330
1F
100
AcDbEntity
  8
layer 1
 62
   250
370
     0
100
AcDbSpline
210
0.0
220
0.0
230
1.0
 70
    11
 71
     3
 72
    20
 73
    16
 74
     0
 42
0.0000000001
 43
0.0000000001
 40
0.0
 40
0.0
 40
0.0
 40
0.0
 40
0.25
 40
0.25
 40
0.25
 40
0.25
 40
0.5
 40
0.5
 40
0.5
 40
0.5
 40
0.75
 40
0.75
 40
0.75
 40
0.75
 40
1.0
 40
1.0
 40
1.0
 40
1.0
 10
1117.4196
 20
-27.9966
 30
0.0
 10
1118.8001
 20
-27.9966
 30
0.0
 10
1119.9196
 20
-29.1161
 30
0.0
 10
1119.9196
 20
-30.4966
 30
0.0
 10
1119.9196
 20
-30.4966
 30
0.0
 10
1119.9196
 20
-31.8771
 30
0.0
 10
1118.8001
 20
-32.9966
 30
0.0
 10
1117.4196
 20
-32.9966
 30
0.0
 10
1117.4196
 20
-32.9966
 30
0.0
 10
1116.0391
 20
-32.9966
 30
0.0
 10
1114.9196
 20
-31.8771
 30
0.0
 10
1114.9196
 20
-30.4966
 30
0.0
 10
1114.9196
 20
-30.4966
 30
0.0
 10
1114.9196
 20
-29.1161
 30
0.0
 10
1116.0391
 20
-27.9966
 30
0.0
 10
1117.4196
 20
-27.9966
 30
0.0
  0
SPLINE
  5
D2
330
1F
100
AcDbEntity
  8
layer 1
 62
   250
370
     0
100
AcDbSpline
210
0.0
220
0.0
230
1.0
 70
    11
 71
     3
 72
    20
 73
    16
 74
     0
 42
0.0000000001
 43
0.0000000001
 40
0.0
 40
0.0
 40
0.0
 40
0.0
 40
0.25
 40
0.25
 40
0.25
 40
0.25
 40
0.5
 40
0.5
 40
0.5
 40
0.5
 40
0.75
 40
0.75
 40
0.75
 40
0.75
 40
1.0
 40
1.0
 40
1.0
 40
1.0
 10
1142.4196
 20
-327.9966
 30
0.0
 10
1143.8001
 20
-327.9966
 30
0.0
 10
1144.9196
 20
-329.1161
 30
0.0
 10
1144.9196
 20
-330.4966
 30
0.0
 10
1144.9196
 20
-330.4966
 30
0.0
 10
1144.9196
 20
-331.8771
 30
0.0
 10
1143.8001
 20
-332.9966
 30
0.0
 10
1142.4196
 20
-332.9966
 30
0.0
 10
1142.4196
 20
-332.9966
 30
0.0
 10
1141.0391
 20
-332.9966
 30
0.0
 10
1139.9196
 20
-331.8771
 30
0.0
 10
1139.9196
 20
-330.4966
 30
0.0
 10
1139.9196
 20
-330.4966
 30
0.0
 10
1139.9196
 20
-329.1161
 30
0.0
 10
1141.0391
 20
-327.9966
 30
0.0
 10
1142.4196
 20
-327.9966
 30
0.0
  0
SPLINE
  5
D3
330
1F
100
AcDbEntity
  8
layer 1
 62
   250
370
     0
100
AcDbSpline
210
0.0
220
0.0
230
1.0
 70
    11
 71
     3
 72
    20
 73
    16
 74
     0
 42
0.0000000001
 43
0.0000000001
 40
0.0
 40
0.0
 40
0.0
 40
0.0
 40
0.25
 40
0.25
 40
0.25
 40
0.25
 40
0.5
 40
0.5
 40
0.5
 40
0.5
 40
0.75
 40
0.75
 40
0.75
 40
0.75
 40
1.0
 40
1.0
 40
1.0
 40
1.0
 10
1142.4196
 20
-302.9966
 30
0.0
 10
1143.8001
 20
-302.9966
 30
0.0
 10
1144.9196
 20
-304.1161
 30
0.0
 10
1144.9196
 20
-305.4966
 30
0.0
 10
1144.9196
 20
-305.4966
 30
0.0
 10
1144.9196
 20
-306.8771
 30
0.0
 10
1143.8001
 20
-307.9966
 30
0.0
 10
1142.4196
 20
-307.9966
 30
0.0
 10
1142.4196
 20
-307.9966
 30
0.0
 10
1141.0391
 20
-307.9966
 30
0.0
 10
1139.9196
 20
-306.8771
 30
0.0
 10
1139.9196
 20
-305.4966
 30
0.0
 10
1139.9196
 20
-305.4966
 30
0.0
 10
1139.9196
 20
-304.1161
 30
0.0
 10
1141.0391
 20
-302.9966
 30
0.0
 10
1142.4196
 20
-302.9966
 30
0.0
  0
SPLINE
  5
D4
330
1F
100
AcDbEntity
  8
layer 1
 62
   250
370
     0
100
AcDbSpline
210
0.0
220
0.0
230
1.0
 70
    11
 71
     3
 72
    20
 73
    16
 74
     0
 42
0.0000000001
 43
0.0000000001
 40
0.0
 40
0.0
 40
0.0
 40
0.0
 40
0.25
 40
0.25
 40
0.25
 40
0.25
 40
0.5
 40
0.5
 40
0.5
 40
0.5
 40
0.75
 40
0.75
 40
0.75
 40
0.75
 40
1.0
 40
1.0
 40
1.0
 40
1.0
 10
1142.4196
 20
-277.9966
 30
0.0
 10
1143.8001
 20
-277.9966
 30
0.0
 10
1144.9196
 20
-279.1161
 30
0.0
 10
1144.9196
 20
-280.4966
 30
0.0
 10
1144.9196
 20
-280.4966
 30
0.0
 10
1144.9196
 20
-281.8771
 30
0.0
 10
1143.8001
 20
-282.9966
 30
0.0
 10
1142.4196
 20
-282.9966
 30
0.0
 10
1142.4196
 20
-282.9966
 30
0.0
 10
1141.0391
 20
-282.9966
 30
0.0
 10
1139.9196
 20
-281.8771
 30
0.0
 10
1139.9196
 20
-280.4966
 30
0.0
 10
1139.9196
 20
-280.4966
 30
0.0
 10
1139.9196
 20
-279.1161
 30
0.0
 10
1141.0391
 20
-277.9966
 30
0.0
 10
1142.4196
 20
-277.9966
 30
0.0
  0
SPLINE
  5
D5
330
1F
100
AcDbEntity
  8
layer 1
 62
   250
370
     0
100
AcDbSpline
210
0.0
220
0.0
230
1.0
 70
    11
 71
     3
 72
    20
 73
    16
 74
     0
 42
0.0000000001
 43
0.0000000001
 40
0.0
 40
0.0
 40
0.0
 40
0.0
 40
0.25
 40
0.25
 40
0.25
 40
0.25
 40
0.5
 40
0.5
 40
0.5
 40
0.5
 40
0.75
 40
0.75
 40
0.75
 40
0.75
 40
1.0
 40
1.0
 40
1.0
 40
1.0
 10
1142.4196
 20
-252.9966
 30
0.0
 10
1143.8001
 20
-252.9966
 30
0.0
 10
1144.9196
 20
-254.1161
 30
0.0
 10
1144.9196
 20
-255.4966
 30
0.0
 10
1144.9196
 20
-255.4966
 30
0.0
 10
1144.9196
 20
-256.8771
 30
0.0
 10
1143.8001
 20
-257.9966
 30
0.0
 10
1142.4196
 20
-257.9966
 30
0.0
 10
1142.4196
 20
-257.9966
 30
0.0
 10
1141.0391
 20
-257.9966
 30
0.0
 10
1139.9196
 20
-256.8771
 30
0.0
 10
1139.9196
 20
-255.4966
 30
0.0
 10
1139.9196
 20
-255.4966
 30
0.0
 10
1139.9196
 20
-254.1161
 30
0.0
 10
1141.0391
 20
-252.9966
 30
0.0
 10
1142.4196
 20
-252.9966
 30
0.0
  0
SPLINE
  5
D6
330
1F
100
AcDbEntity
  8
layer 1
 62
   250
370
     0
100
AcDbSpline
210
0.0
220
0.0
230
1.0
 70
    11
 71
     3
 72
    20
 73
    16
 74
     0
 42
0.0000000001
 43
0.0000000001
 40
0.0
 40
0.0
 40
0.0
 40
0.0
 40
0.25
 40
0.25
 40
0.25
 40
0.25
 40
0.5
 40
0.5
 40
0.5
 40
0.5
 40
0.75
 40
0.75
 40
0.75
 40
0.75
 40
1.0
 40
1.0
 40
1.0
 40
1.0
 10
1142.4196
 20
-227.9966
 30
0.0
 10
1143.8001
 20
-227.9966
 30
0.0
 10
1144.9196
 20
-229.1161
 30
0.0
 10
1144.9196
 20
-230.4966
 30
0.0
 10
1144.9196
 20
-230.4966
 30
0.0
 10
1144.9196
 20
-231.8771
 30
0.0
 10
1143.8001
 20
-232.9966
 30
0.0
 10
1142.4196
 20
-232.9966
 30
0.0
 10
1142.4196
 20
-232.9966
 30
0.0
 10
1141.0391
 20
-232.9966
 30
0.0
 10
1139.9196
 20
-231.8771
 30
0.0
 10
1139.9196
 20
-230.4966
 30
0.0
 10
1139.9196
 20
-230.4966
 30
0.0
 10
1139.9196
 20
-229.1161
 30
0.0
 10
1141.0391
 20
-227.9966
 30
0.0
 10
1142.4196
 20
-227.9966
 30
0.0
  0
SPLINE
  5
D7
330
1F
100
AcDbEntity
  8
layer 1
 62
   250
370
     0
100
AcDbSpline
210
0.0
220
0.0
230
1.0
 70
    11
 71
     3
 72
    20
 73
    16
 74
     0
 42
0.0000000001
 43
0.0000000001
 40
0.0
 40
0.0
 40
0.0
 40
0.0
 40
0.25
 40
0.25
 40
0.25
 40
0.25
 40
0.5
 40
0.5
 40
0.5
 40
0.5
 40
0.75
 40
0.75
 40
0.75
 40
0.75
 40
1.0
 40
1.0
 40
1.0
 40
1.0
 10
1142.4196
 20
-202.9966
 30
0.0
 10
1143.8001
 20
-202.9966
 30
0.0
 10
1144.9196
 20
-204.1161
 30
0.0
 10
1144.9196
 20
-205.4966
 30
0.0
 10
1144.9196
 20
-205.4966
 30
0.0
 10
1144.9196
 20
-206.8771
 30
0.0
 10
1143.8001
 20
-207.9966
 30
0.0
 10
1142.4196
 20
-207.9966
 30
0.0
 10
1142.4196
 20
-207.9966
 30
0.0
 10
1141.0391
 20
-207.9966
 30
0.0
 10
1139.9196
 20
-206.8771
 30
0.0
 10
1139.9196
 20
-205.4966
 30
0.0
 10
1139.9196
 20
-205.4966
 30
0.0
 10
1139.9196
 20
-204.1161
 30
0.0
 10
1141.0391
 20
-202.9966
 30
0.0
 10
1142.4196
 20
-202.9966
 30
0.0
  0
SPLINE
  5
D8
330
1F
100
AcDbEntity
  8
layer 1
 62
   250
370
     0
100
AcDbSpline
210
0.0
220
0.0
230
1.0
 70
    11
 71
     3
 72
    20
 73
    16
 74
     0
 42
0.0000000001
 43
0.0000000001
 40
0.0
 40
0.0
 40
0.0
 40
0.0
 40
0.25
 40
0.25
 40
0.25
 40
0.25
 40
0.5
 40
0.5
 40
0.5
 40
0.5
 40
0.75
 40
0.75
 40
0.75
 40
0.75
 40
1.0
 40
1.0
 40
1.0
 40
1.0
 10
1142.4196
 20
-177.9966
 30
0.0
 10
1143.8001
 20
-177.9966
 30
0.0
 10
1144.9196
 20
-179.1161
 30
0.0
 10
1144.9196
 20
-180.4966
 30
0.0
 10
1144.9196
 20
-180.4966
 30
0.0
 10
1144.9196
 20
-181.8771
 30
0.0
 10
1143.8001
 20
-182.9966
 30
0.0
 10
1142.4196
 20
-182.9966
 30
0.0
 10
1142.4196
 20
-182.9966
 30
0.0
 10
1141.0391
 20
-182.9966
 30
0.0
 10
1139.9196
 20
-181.8771
 30
0.0
 10
1139.9196
 20
-180.4966
 30
0.0
 10
1139.9196
 20
-180.4966
 30
0.0
 10
1139.9196
 20
-179.1161
 30
0.0
 10
1141.0391
 20
-177.9966
 30
0.0
 10
1142.4196
 20
-177.9966
 30
0.0
  0
SPLINE
  5
D9
330
1F
100
AcDbEntity
  8
layer 1
 62
   250
370
     0
100
AcDbSpline
210
0.0
220
0.0
230
1.0
 70
    11
 71
     3
 72
    20
 73
    16
 74
     0
 42
0.0000000001
 43
0.0000000001
 40
0.0
 40
0.0
 40
0.0
 40
0.0
 40
0.25
 40
0.25
 40
0.25
 40
0.25
 40
0.5
 40
0.5
 40
0.5
 40
0.5
 40
0.75
 40
0.75
 40
0.75
 40
0.75
 40
1.0
 40
1.0
 40
1.0
 40
1.0
 10
1142.4196
 20
-152.9966
 30
0.0
 10
1143.8001
 20
-152.9966
 30
0.0
 10
1144.9196
 20
-154.1161
 30
0.0
 10
1144.9196
 20
-155.4966
 30
0.0
 10
1144.9196
 20
-155.4966
 30
0.0
 10
1144.9196
 20
-156.8771
 30
0.0
 10
1143.8001
 20
-157.9966
 30
0.0
 10
1142.4196
 20
-157.9966
 30
0.0
 10
1142.4196
 20
-157.9966
 30
0.0
 10
1141.0391
 20
-157.9966
 30
0.0
 10
1139.9196
 20
-156.8771
 30
0.0
 10
1139.9196
 20
-155.4966
 30
0.0
 10
1139.9196
 20
-155.4966
 30
0.0
 10
1139.9196
 20
-154.1161
 30
0.0
 10
1141.0391
 20
-152.9966
 30
0.0
 10
1142.4196
 20
-152.9966
 30
0.0
  0
SPLINE
  5
DA
330
1F
100
AcDbEntity
  8
layer 1
 62
   250
370
     0
100
AcDbSpline
210
0.0
220
0.0
230
1.0
 70
    11
 71
     3
 72
    20
 73
    16
 74
     0
 42
0.0000000001
 43
0.0000000001
 40
0.0
 40
0.0
 40
0.0
 40
0.0
 40
0.25
 40
0.25
 40
0.25
 40
0.25
 40
0.5
 40
0.5
 40
0.5
 40
0.5
 40
0.75
 40
0.75
 40
0.75
 40
0.75
 40
1.0
 40
1.0
 40
1.0
 40
1.0
 10
1142.4196
 20
-127.9966
 30
0.0
 10
1143.8001
 20
-127.9966
 30
0.0
 10
1144.9196
 20
-129.1161
 30
0.0
 10
1144.9196
 20
-130.4966
 30
0.0
 10
1144.9196
 20
-130.4966
 30
0.0
 10
1144.9196
 20
-131.8771
 30
0.0
 10
1143.8001
 20
-132.9966
 30
0.0
 10
1142.4196
 20
-132.9966
 30
0.0
 10
1142.4196
 20
-132.9966
 30
0.0
 10
1141.0391
 20
-132.9966
 30
0.0
 10
1139.9196
 20
-131.8771
 30
0.0
 10
1139.9196
 20
-130.4966
 30
0.0
 10
1139.9196
 20
-130.4966
 30
0.0
 10
1139.9196
 20
-129.1161
 30
0.0
 10
1141.0391
 20
-127.9966
 30
0.0
 10
1142.4196
 20
-127.9966
 30
0.0
  0
SPLINE
  5
DB
330
1F
100
AcDbEntity
  8
layer 1
 62
   250
370
     0
100
AcDbSpline
210
0.0
220
0.0
230
1.0
 70
    11
 71
     3
 72
    20
 73
    16
 74
     0
 42
0.0000000001
 43
0.0000000001
 40
0.0
 40
0.0
 40
0.0
 40
0.0
 40
0.25
 40
0.25
 40
0.25
 40
0.25
 40
0.5
 40
0.5
 40
0.5
 40
0.5
 40
0.75
 40
0.75
 40
0.75
 40
0.75
 40
1.0
 40
1.0
 40
1.0
 40
1.0
 10
1142.4196
 20
-102.9966
 30
0.0
 10
1143.8001
 20
-102.9966
 30
0.0
 10
1144.9196
 20
-104.1161
 30
0.0
 10
1144.9196
 20
-105.4966
 30
0.0
 10
1144.9196
 20
-105.4966
 30
0.0
 10
1144.9196
 20
-106.8771
 30
0.0
 10
1143.8001
 20
-107.9966
 30
0.0
 10
1142.4196
 20
-107.9966
 30
0.0
 10
1142.4196
 20
-107.9966
 30
0.0
 10
1141.0391
 20
-107.9966
 30
0.0
 10
1139.9196
 20
-106.8771
 30
0.0
 10
1139.9196
 20
-105.4966
 30
0.0
 10
1139.9196
 20
-105.4966
 30
0.0
 10
1139.9196
 20
-104.1161
 30
0.0
 10
1141.0391
 20
-102.9966
 30
0.0
 10
1142.4196
 20
-102.9966
 30
0.0
  0
SPLINE
  5
DC
330
1F
100
AcDbEntity
  8
layer 1
 62
   250
370
     0
100
AcDbSpline
210
0.0
220
0.0
230
1.0
 70
    11
 71
     3
 72
    20
 73
    16
 74
     0
 42
0.0000000001
 43
0.0000000001
 40
0.0
 40
0.0
 40
0.0
 40
0.0
 40
0.25
 40
0.25
 40
0.25
 40
0.25
 40
0.5
 40
0.5
 40
0.5
 40
0.5
 40
0.75
 40
0.75
 40
0.75
 40
0.75
 40
1.0
 40
1.0
 40
1.0
 40
1.0
 10
1142.4196
 20
-77.9966
 30
0.0
 10
1143.8001
 20
-77.9966
 30
0.0
 10
1144.9196
 20
-79.1161
 30
0.0
 10
1144.9196
 20
-80.4966
 30
0.0
 10
1144.9196
 20
-80.4966
 30
0.0
 10
1144.9196
 20
-81.8771
 30
0.0
 10
1143.8001
 20
-82.9966
 30
0.0
 10
1142.4196
 20
-82.9966
 30
0.0
 10
1142.4196
 20
-82.9966
 30
0.0
 10
1141.0391
 20
-82.9966
 30
0.0
 10
1139.9196
 20
-81.8771
 30
0.0
 10
1139.9196
 20
-80.4966
 30
0.0
 10
1139.9196
 20
-80.4966
 30
0.0
 10
1139.9196
 20
-79.1161
 30
0.0
 10
1141.0391
 20
-77.9966
 30
0.0
 10
1142.4196
 20
-77.9966
 30
0.0
  0
SPLINE
  5
DD
330
1F
100
AcDbEntity
  8
layer 1
 62
   250
370
     0
100
AcDbSpline
210
0.0
220
0.0
230
1.0
 70
    11
 71
     3
 72
    20
 73
    16
 74
     0
 42
0.0000000001
 43
0.0000000001
 40
0.0
 40
0.0
 40
0.0
 40
0.0
 40
0.25
 40
0.25
 40
0.25
 40
0.25
 40
0.5
 40
0.5
 40
0.5
 40
0.5
 40
0.75
 40
0.75
 40
0.75
 40
0.75
 40
1.0
 40
1.0
 40
1.0
 40
1.0
 10
1142.4196
 20
-52.9966
 30
0.0
 10
1143.8001
 20
-52.9966
 30
0.0
 10
1144.9196
 20
-54.1161
 30
0.0
 10
1144.9196
 20
-55.4966
 30
0.0
 10
1144.9196
 20
-55.4966
 30
0.0
 10
1144.9196
 20
-56.8771
 30
0.0
 10
1143.8001
 20
-57.9966
 30
0.0
 10
1142.4196
 20
-57.9966
 30
0.0
 10
1142.4196
 20
-57.9966
 30
0.0
 10
1141.0391
 20
-57.9966
 30
0.0
 10
1139.9196
 20
-56.8771
 30
0.0
 10
1139.9196
 20
-55.4966
 30
0.0
 10
1139.9196
 20
-55.4966
 30
0.0
 10
1139.9196
 20
-54.1161
 30
0.0
 10
1141.0391
 20
-52.9966
 30
0.0
 10
1142.4196
 20
-52.9966
 30
0.0
  0
SPLINE
  5
DE
330
1F
100
AcDbEntity
  8
layer 1
 62
   250
370
     0
100
AcDbSpline
210
0.0
220
0.0
230
1.0
 70
    11
 71
     3
 72
    20
 73
    16
 74
     0
 42
0.0000000001
 43
0.0000000001
 40
0.0
 40
0.0
 40
0.0
 40
0.0
 40
0.25
 40
0.25
 40
0.25
 40
0.25
 40
0.5
 40
0.5
 40
0.5
 40
0.5
 40
0.75
 40
0.75
 40
0.75
 40
0.75
 40
1.0
 40
1.0
 40
1.0
 40
1.0
 10
1142.4196
 20
-27.9966
 30
0.0
 10
1143.8001
 20
-27.9966
 30
0.0
 10
1144.9196
 20
-29.1161
 30
0.0
 10
1144.9196
 20
-30.4966
 30
0.0
 10
1144.9196
 20
-30.4966
 30
0.0
 10
1144.9196
 20
-31.8771
 30
0.0
 10
1143.8001
 20
-32.9966
 30
0.0
 10
1142.4196
 20
-32.9966
 30
0.0
 10
1142.4196
 20
-32.9966
 30
0.0
 10
1141.0391
 20
-32.9966
 30
0.0
 10
1139.9196
 20
-31.8771
 30
0.0
 10
1139.9196
 20
-30.4966
 30
0.0
 10
1139.9196
 20
-30.4966
 30
0.0
 10
1139.9196
 20
-29.1161
 30
0.0
 10
1141.0391
 20
-27.9966
 30
0.0
 10
1142.4196
 20
-27.9966
 30
0.0
  0
SPLINE
  5
DF
330
1F
100
AcDbEntity
  8
layer 1
 62
   250
370
     0
100
AcDbSpline
210
0.0
220
0.0
230
1.0
 70
    11
 71
     3
 72
    20
 73
    16
 74
     0
 42
0.0000000001
 43
0.0000000001
 40
0.0
 40
0.0
 40
0.0
 40
0.0
 40
0.25
 40
0.25
 40
0.25
 40
0.25
 40
0.5
 40
0.5
 40
0.5
 40
0.5
 40
0.75
 40
0.75
 40
0.75
 40
0.75
 40
1.0
 40
1.0
 40
1.0
 40
1.0
 10
1167.4196
 20
-327.9966
 30
0.0
 10
1168.8001
 20
-327.9966
 30
0.0
 10
1169.9196
 20
-329.1161
 30
0.0
 10
1169.9196
 20
-330.4966
 30
0.0
 10
1169.9196
 20
-330.4966
 30
0.0
 10
1169.9196
 20
-331.8771
 30
0.0
 10
1168.8001
 20
-332.9966
 30
0.0
 10
1167.4196
 20
-332.9966
 30
0.0
 10
1167.4196
 20
-332.9966
 30
0.0
 10
1166.0391
 20
-332.9966
 30
0.0
 10
1164.9196
 20
-331.8771
 30
0.0
 10
1164.9196
 20
-330.4966
 30
0.0
 10
1164.9196
 20
-330.4966
 30
0.0
 10
1164.9196
 20
-329.1161
 30
0.0
 10
1166.0391
 20
-327.9966
 30
0.0
 10
1167.4196
 20
-327.9966
 30
0.0
  0
SPLINE
  5
E0
330
1F
100
AcDbEntity
  8
layer 1
 62
   250
370
     0
100
AcDbSpline
210
0.0
220
0.0
230
1.0
 70
    11
 71
     3
 72
    20
 73
    16
 74
     0
 42
0.0000000001
 43
0.0000000001
 40
0.0
 40
0.0
 40
0.0
 40
0.0
 40
0.25
 40
0.25
 40
0.25
 40
0.25
 40
0.5
 40
0.5
 40
0.5
 40
0.5
 40
0.75
 40
0.75
 40
0.75
 40
0.75
 40
1.0
 40
1.0
 40
1.0
 40
1.0
 10
1167.4196
 20
-302.9966
 30
0.0
 10
1168.8001
 20
-302.9966
 30
0.0
 10
1169.9196
 20
-304.1161
 30
0.0
 10
1169.9196
 20
-305.4966
 30
0.0
 10
1169.9196
 20
-305.4966
 30
0.0
 10
1169.9196
 20
-306.8771
 30
0.0
 10
1168.8001
 20
-307.9966
 30
0.0
 10
1167.4196
 20
-307.9966
 30
0.0
 10
1167.4196
 20
-307.9966
 30
0.0
 10
1166.0391
 20
-307.9966
 30
0.0
 10
1164.9196
 20
-306.8771
 30
0.0
 10
1164.9196
 20
-305.4966
 30
0.0
 10
1164.9196
 20
-305.4966
 30
0.0
 10
1164.9196
 20
-304.1161
 30
0.0
 10
1166.0391
 20
-302.9966
 30
0.0
 10
1167.4196
 20
-302.9966
 30
0.0
  0
SPLINE
  5
E1
330
1F
100
AcDbEntity
  8
layer 1
 62
   250
370
     0
100
AcDbSpline
210
0.0
220
0.0
230
1.0
 70
    11
 71
     3
 72
    20
 73
    16
 74
     0
 42
0.0000000001
 43
0.0000000001
 40
0.0
 40
0.0
 40
0.0
 40
0.0
 40
0.25
 40
0.25
 40
0.25
 40
0.25
 40
0.5
 40
0.5
 40
0.5
 40
0.5
 40
0.75
 40
0.75
 40
0.75
 40
0.75
 40
1.0
 40
1.0
 40
1.0
 40
1.0
 10
1167.4196
 20
-277.9966
 30
0.0
 10
1168.8001
 20
-277.9966
 30
0.0
 10
1169.9196
 20
-279.1161
 30
0.0
 10
1169.9196
 20
-280.4966
 30
0.0
 10
1169.9196
 20
-280.4966
 30
0.0
 10
1169.9196
 20
-281.8771
 30
0.0
 10
1168.8001
 20
-282.9966
 30
0.0
 10
1167.4196
 20
-282.9966
 30
0.0
 10
1167.4196
 20
-282.9966
 30
0.0
 10
1166.0391
 20
-282.9966
 30
0.0
 10
1164.9196
 20
-281.8771
 30
0.0
 10
1164.9196
 20
-280.4966
 30
0.0
 10
1164.9196
 20
-280.4966
 30
0.0
 10
1164.9196
 20
-279.1161
 30
0.0
 10
1166.0391
 20
-277.9966
 30
0.0
 10
1167.4196
 20
-277.9966
 30
0.0
  0
SPLINE
  5
E2
330
1F
100
AcDbEntity
  8
layer 1
 62
   250
370
     0
100
AcDbSpline
210
0.0
220
0.0
230
1.0
 70
    11
 71
     3
 72
    20
 73
    16
 74
     0
 42
0.0000000001
 43
0.0000000001
 40
0.0
 40
0.0
 40
0.0
 40
0.0
 40
0.25
 40
0.25
 40
0.25
 40
0.25
 40
0.5
 40
0.5
 40
0.5
 40
0.5
 40
0.75
 40
0.75
 40
0.75
 40
0.75
 40
1.0
 40
1.0
 40
1.0
 40
1.0
 10
1167.4196
 20
-252.9966
 30
0.0
 10
1168.8001
 20
-252.9966
 30
0.0
 10
1169.9196
 20
-254.1161
 30
0.0
 10
1169.9196
 20
-255.4966
 30
0.0
 10
1169.9196
 20
-255.4966
 30
0.0
 10
1169.9196
 20
-256.8771
 30
0.0
 10
1168.8001
 20
-257.9966
 30
0.0
 10
1167.4196
 20
-257.9966
 30
0.0
 10
1167.4196
 20
-257.9966
 30
0.0
 10
1166.0391
 20
-257.9966
 30
0.0
 10
1164.9196
 20
-256.8771
 30
0.0
 10
1164.9196
 20
-255.4966
 30
0.0
 10
1164.9196
 20
-255.4966
 30
0.0
 10
1164.9196
 20
-254.1161
 30
0.0
 10
1166.0391
 20
-252.9966
 30
0.0
 10
1167.4196
 20
-252.9966
 30
0.0
  0
SPLINE
  5
E3
330
1F
100
AcDbEntity
  8
layer 1
 62
   250
370
     0
100
AcDbSpline
210
0.0
220
0.0
230
1.0
 70
    11
 71
     3
 72
    20
 73
    16
 74
     0
 42
0.0000000001
 43
0.0000000001
 40
0.0
 40
0.0
 40
0.0
 40
0.0
 40
0.25
 40
0.25
 40
0.25
 40
0.25
 40
0.5
 40
0.5
 40
0.5
 40
0.5
 40
0.75
 40
0.75
 40
0.75
 40
0.75
 40
1.0
 40
1.0
 40
1.0
 40
1.0
 10
1167.4196
 20
-227.9966
 30
0.0
 10
1168.8001
 20
-227.9966
 30
0.0
 10
1169.9196
 20
-229.1161
 30
0.0
 10
1169.9196
 20
-230.4966
 30
0.0
 10
1169.9196
 20
-230.4966
 30
0.0
 10
1169.9196
 20
-231.8771
 30
0.0
 10
1168.8001
 20
-232.9966
 30
0.0
 10
1167.4196
 20
-232.9966
 30
0.0
 10
1167.4196
 20
-232.9966
 30
0.0
 10
1166.0391
 20
-232.9966
 30
0.0
 10
1164.9196
 20
-231.8771
 30
0.0
 10
1164.9196
 20
-230.4966
 30
0.0
 10
1164.9196
 20
-230.4966
 30
0.0
 10
1164.9196
 20
-229.1161
 30
0.0
 10
1166.0391
 20
-227.9966
 30
0.0
 10
1167.4196
 20
-227.9966
 30
0.0
  0
SPLINE
  5
E4
330
1F
100
AcDbEntity
  8
layer 1
 62
   250
370
     0
100
AcDbSpline
210
0.0
220
0.0
230
1.0
 70
    11
 71
     3
 72
    20
 73
    16
 74
     0
 42
0.0000000001
 43
0.0000000001
 40
0.0
 40
0.0
 40
0.0
 40
0.0
 40
0.25
 40
0.25
 40
0.25
 40
0.25
 40
0.5
 40
0.5
 40
0.5
 40
0.5
 40
0.75
 40
0.75
 40
0.75
 40
0.75
 40
1.0
 40
1.0
 40
1.0
 40
1.0
 10
1167.4196
 20
-202.9966
 30
0.0
 10
1168.8001
 20
-202.9966
 30
0.0
 10
1169.9196
 20
-204.1161
 30
0.0
 10
1169.9196
 20
-205.4966
 30
0.0
 10
1169.9196
 20
-205.4966
 30
0.0
 10
1169.9196
 20
-206.8771
 30
0.0
 10
1168.8001
 20
-207.9966
 30
0.0
 10
1167.4196
 20
-207.9966
 30
0.0
 10
1167.4196
 20
-207.9966
 30
0.0
 10
1166.0391
 20
-207.9966
 30
0.0
 10
1164.9196
 20
-206.8771
 30
0.0
 10
1164.9196
 20
-205.4966
 30
0.0
 10
1164.9196
 20
-205.4966
 30
0.0
 10
1164.9196
 20
-204.1161
 30
0.0
 10
1166.0391
 20
-202.9966
 30
0.0
 10
1167.4196
 20
-202.9966
 30
0.0
  0
SPLINE
  5
E5
330
1F
100
AcDbEntity
  8
layer 1
 62
   250
370
     0
100
AcDbSpline
210
0.0
220
0.0
230
1.0
 70
    11
 71
     3
 72
    20
 73
    16
 74
     0
 42
0.0000000001
 43
0.0000000001
 40
0.0
 40
0.0
 40
0.0
 40
0.0
 40
0.25
 40
0.25
 40
0.25
 40
0.25
 40
0.5
 40
0.5
 40
0.5
 40
0.5
 40
0.75
 40
0.75
 40
0.75
 40
0.75
 40
1.0
 40
1.0
 40
1.0
 40
1.0
 10
1167.4196
 20
-177.9966
 30
0.0
 10
1168.8001
 20
-177.9966
 30
0.0
 10
1169.9196
 20
-179.1161
 30
0.0
 10
1169.9196
 20
-180.4966
 30
0.0
 10
1169.9196
 20
-180.4966
 30
0.0
 10
1169.9196
 20
-181.8771
 30
0.0
 10
1168.8001
 20
-182.9966
 30
0.0
 10
1167.4196
 20
-182.9966
 30
0.0
 10
1167.4196
 20
-182.9966
 30
0.0
 10
1166.0391
 20
-182.9966
 30
0.0
 10
1164.9196
 20
-181.8771
 30
0.0
 10
1164.9196
 20
-180.4966
 30
0.0
 10
1164.9196
 20
-180.4966
 30
0.0
 10
1164.9196
 20
-179.1161
 30
0.0
 10
1166.0391
 20
-177.9966
 30
0.0
 10
1167.4196
 20
-177.9966
 30
0.0
  0
SPLINE
  5
E6
330
1F
100
AcDbEntity
  8
layer 1
 62
   250
370
     0
100
AcDbSpline
210
0.0
220
0.0
230
1.0
 70
    11
 71
     3
 72
    20
 73
    16
 74
     0
 42
0.0000000001
 43
0.0000000001
 40
0.0
 40
0.0
 40
0.0
 40
0.0
 40
0.25
 40
0.25
 40
0.25
 40
0.25
 40
0.5
 40
0.5
 40
0.5
 40
0.5
 40
0.75
 40
0.75
 40
0.75
 40
0.75
 40
1.0
 40
1.0
 40
1.0
 40
1.0
 10
1167.4196
 20
-152.9966
 30
0.0
 10
1168.8001
 20
-152.9966
 30
0.0
 10
1169.9196
 20
-154.1161
 30
0.0
 10
1169.9196
 20
-155.4966
 30
0.0
 10
1169.9196
 20
-155.4966
 30
0.0
 10
1169.9196
 20
-156.8771
 30
0.0
 10
1168.8001
 20
-157.9966
 30
0.0
 10
1167.4196
 20
-157.9966
 30
0.0
 10
1167.4196
 20
-157.9966
 30
0.0
 10
1166.0391
 20
-157.9966
 30
0.0
 10
1164.9196
 20
-156.8771
 30
0.0
 10
1164.9196
 20
-155.4966
 30
0.0
 10
1164.9196
 20
-155.4966
 30
0.0
 10
1164.9196
 20
-154.1161
 30
0.0
 10
1166.0391
 20
-152.9966
 30
0.0
 10
1167.4196
 20
-152.9966
 30
0.0
  0
SPLINE
  5
E7
330
1F
100
AcDbEntity
  8
layer 1
 62
   250
370
     0
100
AcDbSpline
210
0.0
220
0.0
230
1.0
 70
    11
 71
     3
 72
    20
 73
    16
 74
     0
 42
0.0000000001
 43
0.0000000001
 40
0.0
 40
0.0
 40
0.0
 40
0.0
 40
0.25
 40
0.25
 40
0.25
 40
0.25
 40
0.5
 40
0.5
 40
0.5
 40
0.5
 40
0.75
 40
0.75
 40
0.75
 40
0.75
 40
1.0
 40
1.0
 40
1.0
 40
1.0
 10
1167.4196
 20
-127.9966
 30
0.0
 10
1168.8001
 20
-127.9966
 30
0.0
 10
1169.9196
 20
-129.1161
 30
0.0
 10
1169.9196
 20
-130.4966
 30
0.0
 10
1169.9196
 20
-130.4966
 30
0.0
 10
1169.9196
 20
-131.8771
 30
0.0
 10
1168.8001
 20
-132.9966
 30
0.0
 10
1167.4196
 20
-132.9966
 30
0.0
 10
1167.4196
 20
-132.9966
 30
0.0
 10
1166.0391
 20
-132.9966
 30
0.0
 10
1164.9196
 20
-131.8771
 30
0.0
 10
1164.9196
 20
-130.4966
 30
0.0
 10
1164.9196
 20
-130.4966
 30
0.0
 10
1164.9196
 20
-129.1161
 30
0.0
 10
1166.0391
 20
-127.9966
 30
0.0
 10
1167.4196
 20
-127.9966
 30
0.0
  0
SPLINE
  5
E8
330
1F
100
AcDbEntity
  8
layer 1
 62
   250
370
     0
100
AcDbSpline
210
0.0
220
0.0
230
1.0
 70
    11
 71
     3
 72
    20
 73
    16
 74
     0
 42
0.0000000001
 43
0.0000000001
 40
0.0
 40
0.0
 40
0.0
 40
0.0
 40
0.25
 40
0.25
 40
0.25
 40
0.25
 40
0.5
 40
0.5
 40
0.5
 40
0.5
 40
0.75
 40
0.75
 40
0.75
 40
0.75
 40
1.0
 40
1.0
 40
1.0
 40
1.0
 10
1167.4196
 20
-102.9966
 30
0.0
 10
1168.8001
 20
-102.9966
 30
0.0
 10
1169.9196
 20
-104.1161
 30
0.0
 10
1169.9196
 20
-105.4966
 30
0.0
 10
1169.9196
 20
-105.4966
 30
0.0
 10
1169.9196
 20
-106.8771
 30
0.0
 10
1168.8001
 20
-107.9966
 30
0.0
 10
1167.4196
 20
-107.9966
 30
0.0
 10
1167.4196
 20
-107.9966
 30
0.0
 10
1166.0391
 20
-107.9966
 30
0.0
 10
1164.9196
 20
-106.8771
 30
0.0
 10
1164.9196
 20
-105.4966
 30
0.0
 10
1164.9196
 20
-105.4966
 30
0.0
 10
1164.9196
 20
-104.1161
 30
0.0
 10
1166.0391
 20
-102.9966
 30
0.0
 10
1167.4196
 20
-102.9966
 30
0.0
  0
SPLINE
  5
E9
330
1F
100
AcDbEntity
  8
layer 1
 62
   250
370
     0
100
AcDbSpline
210
0.0
220
0.0
230
1.0
 70
    11
 71
     3
 72
    20
 73
    16
 74
     0
 42
0.0000000001
 43
0.0000000001
 40
0.0
 40
0.0
 40
0.0
 40
0.0
 40
0.25
 40
0.25
 40
0.25
 40
0.25
 40
0.5
 40
0.5
 40
0.5
 40
0.5
 40
0.75
 40
0.75
 40
0.75
 40
0.75
 40
1.0
 40
1.0
 40
1.0
 40
1.0
 10
1167.4196
 20
-77.9966
 30
0.0
 10
1168.8001
 20
-77.9966
 30
0.0
 10
1169.9196
 20
-79.1161
 30
0.0
 10
1169.9196
 20
-80.4966
 30
0.0
 10
1169.9196
 20
-80.4966
 30
0.0
 10
1169.9196
 20
-81.8771
 30
0.0
 10
1168.8001
 20
-82.9966
 30
0.0
 10
1167.4196
 20
-82.9966
 30
0.0
 10
1167.4196
 20
-82.9966
 30
0.0
 10
1166.0391
 20
-82.9966
 30
0.0
 10
1164.9196
 20
-81.8771
 30
0.0
 10
1164.9196
 20
-80.4966
 30
0.0
 10
1164.9196
 20
-80.4966
 30
0.0
 10
1164.9196
 20
-79.1161
 30
0.0
 10
1166.0391
 20
-77.9966
 30
0.0
 10
1167.4196
 20
-77.9966
 30
0.0
  0
SPLINE
  5
EA
330
1F
100
AcDbEntity
  8
layer 1
 62
   250
370
     0
100
AcDbSpline
210
0.0
220
0.0
230
1.0
 70
    11
 71
     3
 72
    20
 73
    16
 74
     0
 42
0.0000000001
 43
0.0000000001
 40
0.0
 40
0.0
 40
0.0
 40
0.0
 40
0.25
 40
0.25
 40
0.25
 40
0.25
 40
0.5
 40
0.5
 40
0.5
 40
0.5
 40
0.75
 40
0.75
 40
0.75
 40
0.75
 40
1.0
 40
1.0
 40
1.0
 40
1.0
 10
1167.4196
 20
-52.9966
 30
0.0
 10
1168.8001
 20
-52.9966
 30
0.0
 10
1169.9196
 20
-54.1161
 30
0.0
 10
1169.9196
 20
-55.4966
 30
0.0
 10
1169.9196
 20
-55.4966
 30
0.0
 10
1169.9196
 20
-56.8771
 30
0.0
 10
1168.8001
 20
-57.9966
 30
0.0
 10
1167.4196
 20
-57.9966
 30
0.0
 10
1167.4196
 20
-57.9966
 30
0.0
 10
1166.0391
 20
-57.9966
 30
0.0
 10
1164.9196
 20
-56.8771
 30
0.0
 10
1164.9196
 20
-55.4966
 30
0.0
 10
1164.9196
 20
-55.4966
 30
0.0
 10
1164.9196
 20
-54.1161
 30
0.0
 10
1166.0391
 20
-52.9966
 30
0.0
 10
1167.4196
 20
-52.9966
 30
0.0
  0
SPLINE
  5
EB
330
1F
100
AcDbEntity
  8
layer 1
 62
   250
370
     0
100
AcDbSpline
210
0.0
220
0.0
230
1.0
 70
    11
 71
     3
 72
    20
 73
    16
 74
     0
 42
0.0000000001
 43
0.0000000001
 40
0.0
 40
0.0
 40
0.0
 40
0.0
 40
0.25
 40
0.25
 40
0.25
 40
0.25
 40
0.5
 40
0.5
 40
0.5
 40
0.5
 40
0.75
 40
0.75
 40
0.75
 40
0.75
 40
1.0
 40
1.0
 40
1.0
 40
1.0
 10
1167.4196
 20
-27.9966
 30
0.0
 10
1168.8001
 20
-27.9966
 30
0.0
 10
1169.9196
 20
-29.1161
 30
0.0
 10
1169.9196
 20
-30.4966
 30
0.0
 10
1169.9196
 20
-30.4966
 30
0.0
 10
1169.9196
 20
-31.8771
 30
0.0
 10
1168.8001
 20
-32.9966
 30
0.0
 10
1167.4196
 20
-32.9966
 30
0.0
 10
1167.4196
 20
-32.9966
 30
0.0
 10
1166.0391
 20
-32.9966
 30
0.0
 10
1164.9196
 20
-31.8771
 30
0.0
 10
1164.9196
 20
-30.4966
 30
0.0
 10
1164.9196
 20
-30.4966
 30
0.0
 10
1164.9196
 20
-29.1161
 30
0.0
 10
1166.0391
 20
-27.9966
 30
0.0
 10
1167.4196
 20
-27.9966
 30
0.0
  0
SPLINE
  5
EC
330
1F
100
AcDbEntity
  8
layer 1
 62
   250
370
     0
100
AcDbSpline
210
0.0
220
0.0
230
1.0
 70
    11
 71
     3
 72
    20
 73
    16
 74
     0
 42
0.0000000001
 43
0.0000000001
 40
0.0
 40
0.0
 40
0.0
 40
0.0
 40
0.25
 40
0.25
 40
0.25
 40
0.25
 40
0.5
 40
0.5
 40
0.5
 40
0.5
 40
0.75
 40
0.75
 40
0.75
 40
0.75
 40
1.0
 40
1.0
 40
1.0
 40
1.0
 10
1192.4196
 20
-327.9966
 30
0.0
 10
1193.8001
 20
-327.9966
 30
0.0
 10
1194.9196
 20
-329.1161
 30
0.0
 10
1194.9196
 20
-330.4966
 30
0.0
 10
1194.9196
 20
-330.4966
 30
0.0
 10
1194.9196
 20
-331.8771
 30
0.0
 10
1193.8001
 20
-332.9966
 30
0.0
 10
1192.4196
 20
-332.9966
 30
0.0
 10
1192.4196
 20
-332.9966
 30
0.0
 10
1191.0391
 20
-332.9966
 30
0.0
 10
1189.9196
 20
-331.8771
 30
0.0
 10
1189.9196
 20
-330.4966
 30
0.0
 10
1189.9196
 20
-330.4966
 30
0.0
 10
1189.9196
 20
-329.1161
 30
0.0
 10
1191.0391
 20
-327.9966
 30
0.0
 10
1192.4196
 20
-327.9966
 30
0.0
  0
SPLINE
  5
ED
330
1F
100
AcDbEntity
  8
layer 1
 62
   250
370
     0
100
AcDbSpline
210
0.0
220
0.0
230
1.0
 70
    11
 71
     3
 72
    20
 73
    16
 74
     0
 42
0.0000000001
 43
0.0000000001
 40
0.0
 40
0.0
 40
0.0
 40
0.0
 40
0.25
 40
0.25
 40
0.25
 40
0.25
 40
0.5
 40
0.5
 40
0.5
 40
0.5
 40
0.75
 40
0.75
 40
0.75
 40
0.75
 40
1.0
 40
1.0
 40
1.0
 40
1.0
 10
1192.4196
 20
-302.9966
 30
0.0
 10
1193.8001
 20
-302.9966
 30
0.0
 10
1194.9196
 20
-304.1161
 30
0.0
 10
1194.9196
 20
-305.4966
 30
0.0
 10
1194.9196
 20
-305.4966
 30
0.0
 10
1194.9196
 20
-306.8771
 30
0.0
 10
1193.8001
 20
-307.9966
 30
0.0
 10
1192.4196
 20
-307.9966
 30
0.0
 10
1192.4196
 20
-307.9966
 30
0.0
 10
1191.0391
 20
-307.9966
 30
0.0
 10
1189.9196
 20
-306.8771
 30
0.0
 10
1189.9196
 20
-305.4966
 30
0.0
 10
1189.9196
 20
-305.4966
 30
0.0
 10
1189.9196
 20
-304.1161
 30
0.0
 10
1191.0391
 20
-302.9966
 30
0.0
 10
1192.4196
 20
-302.9966
 30
0.0
  0
SPLINE
  5
EE
330
1F
100
AcDbEntity
  8
layer 1
 62
   250
370
     0
100
AcDbSpline
210
0.0
220
0.0
230
1.0
 70
    11
 71
     3
 72
    20
 73
    16
 74
     0
 42
0.0000000001
 43
0.0000000001
 40
0.0
 40
0.0
 40
0.0
 40
0.0
 40
0.25
 40
0.25
 40
0.25
 40
0.25
 40
0.5
 40
0.5
 40
0.5
 40
0.5
 40
0.75
 40
0.75
 40
0.75
 40
0.75
 40
1.0
 40
1.0
 40
1.0
 40
1.0
 10
1192.4196
 20
-277.9966
 30
0.0
 10
1193.8001
 20
-277.9966
 30
0.0
 10
1194.9196
 20
-279.1161
 30
0.0
 10
1194.9196
 20
-280.4966
 30
0.0
 10
1194.9196
 20
-280.4966
 30
0.0
 10
1194.9196
 20
-281.8771
 30
0.0
 10
1193.8001
 20
-282.9966
 30
0.0
 10
1192.4196
 20
-282.9966
 30
0.0
 10
1192.4196
 20
-282.9966
 30
0.0
 10
1191.0391
 20
-282.9966
 30
0.0
 10
1189.9196
 20
-281.8771
 30
0.0
 10
1189.9196
 20
-280.4966
 30
0.0
 10
1189.9196
 20
-280.4966
 30
0.0
 10
1189.9196
 20
-279.1161
 30
0.0
 10
1191.0391
 20
-277.9966
 30
0.0
 10
1192.4196
 20
-277.9966
 30
0.0
  0
SPLINE
  5
EF
330
1F
100
AcDbEntity
  8
layer 1
 62
   250
370
     0
100
AcDbSpline
210
0.0
220
0.0
230
1.0
 70
    11
 71
     3
 72
    20
 73
    16
 74
     0
 42
0.0000000001
 43
0.0000000001
 40
0.0
 40
0.0
 40
0.0
 40
0.0
 40
0.25
 40
0.25
 40
0.25
 40
0.25
 40
0.5
 40
0.5
 40
0.5
 40
0.5
 40
0.75
 40
0.75
 40
0.75
 40
0.75
 40
1.0
 40
1.0
 40
1.0
 40
1.0
 10
1192.4196
 20
-252.9966
 30
0.0
 10
1193.8001
 20
-252.9966
 30
0.0
 10
1194.9196
 20
-254.1161
 30
0.0
 10
1194.9196
 20
-255.4966
 30
0.0
 10
1194.9196
 20
-255.4966
 30
0.0
 10
1194.9196
 20
-256.8771
 30
0.0
 10
1193.8001
 20
-257.9966
 30
0.0
 10
1192.4196
 20
-257.9966
 30
0.0
 10
1192.4196
 20
-257.9966
 30
0.0
 10
1191.0391
 20
-257.9966
 30
0.0
 10
1189.9196
 20
-256.8771
 30
0.0
 10
1189.9196
 20
-255.4966
 30
0.0
 10
1189.9196
 20
-255.4966
 30
0.0
 10
1189.9196
 20
-254.1161
 30
0.0
 10
1191.0391
 20
-252.9966
 30
0.0
 10
1192.4196
 20
-252.9966
 30
0.0
  0
SPLINE
  5
F0
330
1F
100
AcDbEntity
  8
layer 1
 62
   250
370
     0
100
AcDbSpline
210
0.0
220
0.0
230
1.0
 70
    11
 71
     3
 72
    20
 73
    16
 74
     0
 42
0.0000000001
 43
0.0000000001
 40
0.0
 40
0.0
 40
0.0
 40
0.0
 40
0.25
 40
0.25
 40
0.25
 40
0.25
 40
0.5
 40
0.5
 40
0.5
 40
0.5
 40
0.75
 40
0.75
 40
0.75
 40
0.75
 40
1.0
 40
1.0
 40
1.0
 40
1.0
 10
1192.4196
 20
-227.9966
 30
0.0
 10
1193.8001
 20
-227.9966
 30
0.0
 10
1194.9196
 20
-229.1161
 30
0.0
 10
1194.9196
 20
-230.4966
 30
0.0
 10
1194.9196
 20
-230.4966
 30
0.0
 10
1194.9196
 20
-231.8771
 30
0.0
 10
1193.8001
 20
-232.9966
 30
0.0
 10
1192.4196
 20
-232.9966
 30
0.0
 10
1192.4196
 20
-232.9966
 30
0.0
 10
1191.0391
 20
-232.9966
 30
0.0
 10
1189.9196
 20
-231.8771
 30
0.0
 10
1189.9196
 20
-230.4966
 30
0.0
 10
1189.9196
 20
-230.4966
 30
0.0
 10
1189.9196
 20
-229.1161
 30
0.0
 10
1191.0391
 20
-227.9966
 30
0.0
 10
1192.4196
 20
-227.9966
 30
0.0
  0
SPLINE
  5
F1
330
1F
100
AcDbEntity
  8
layer 1
 62
   250
370
     0
100
AcDbSpline
210
0.0
220
0.0
230
1.0
 70
    11
 71
     3
 72
    20
 73
    16
 74
     0
 42
0.0000000001
 43
0.0000000001
 40
0.0
 40
0.0
 40
0.0
 40
0.0
 40
0.25
 40
0.25
 40
0.25
 40
0.25
 40
0.5
 40
0.5
 40
0.5
 40
0.5
 40
0.75
 40
0.75
 40
0.75
 40
0.75
 40
1.0
 40
1.0
 40
1.0
 40
1.0
 10
1192.4196
 20
-202.9966
 30
0.0
 10
1193.8001
 20
-202.9966
 30
0.0
 10
1194.9196
 20
-204.1161
 30
0.0
 10
1194.9196
 20
-205.4966
 30
0.0
 10
1194.9196
 20
-205.4966
 30
0.0
 10
1194.9196
 20
-206.8771
 30
0.0
 10
1193.8001
 20
-207.9966
 30
0.0
 10
1192.4196
 20
-207.9966
 30
0.0
 10
1192.4196
 20
-207.9966
 30
0.0
 10
1191.0391
 20
-207.9966
 30
0.0
 10
1189.9196
 20
-206.8771
 30
0.0
 10
1189.9196
 20
-205.4966
 30
0.0
 10
1189.9196
 20
-205.4966
 30
0.0
 10
1189.9196
 20
-204.1161
 30
0.0
 10
1191.0391
 20
-202.9966
 30
0.0
 10
1192.4196
 20
-202.9966
 30
0.0
  0
SPLINE
  5
F2
330
1F
100
AcDbEntity
  8
layer 1
 62
   250
370
     0
100
AcDbSpline
210
0.0
220
0.0
230
1.0
 70
    11
 71
     3
 72
    20
 73
    16
 74
     0
 42
0.0000000001
 43
0.0000000001
 40
0.0
 40
0.0
 40
0.0
 40
0.0
 40
0.25
 40
0.25
 40
0.25
 40
0.25
 40
0.5
 40
0.5
 40
0.5
 40
0.5
 40
0.75
 40
0.75
 40
0.75
 40
0.75
 40
1.0
 40
1.0
 40
1.0
 40
1.0
 10
1192.4196
 20
-177.9966
 30
0.0
 10
1193.8001
 20
-177.9966
 30
0.0
 10
1194.9196
 20
-179.1161
 30
0.0
 10
1194.9196
 20
-180.4966
 30
0.0
 10
1194.9196
 20
-180.4966
 30
0.0
 10
1194.9196
 20
-181.8771
 30
0.0
 10
1193.8001
 20
-182.9966
 30
0.0
 10
1192.4196
 20
-182.9966
 30
0.0
 10
1192.4196
 20
-182.9966
 30
0.0
 10
1191.0391
 20
-182.9966
 30
0.0
 10
1189.9196
 20
-181.8771
 30
0.0
 10
1189.9196
 20
-180.4966
 30
0.0
 10
1189.9196
 20
-180.4966
 30
0.0
 10
1189.9196
 20
-179.1161
 30
0.0
 10
1191.0391
 20
-177.9966
 30
0.0
 10
1192.4196
 20
-177.9966
 30
0.0
  0
SPLINE
  5
F3
330
1F
100
AcDbEntity
  8
layer 1
 62
   250
370
     0
100
AcDbSpline
210
0.0
220
0.0
230
1.0
 70
    11
 71
     3
 72
    20
 73
    16
 74
     0
 42
0.0000000001
 43
0.0000000001
 40
0.0
 40
0.0
 40
0.0
 40
0.0
 40
0.25
 40
0.25
 40
0.25
 40
0.25
 40
0.5
 40
0.5
 40
0.5
 40
0.5
 40
0.75
 40
0.75
 40
0.75
 40
0.75
 40
1.0
 40
1.0
 40
1.0
 40
1.0
 10
1192.4196
 20
-152.9966
 30
0.0
 10
1193.8001
 20
-152.9966
 30
0.0
 10
1194.9196
 20
-154.1161
 30
0.0
 10
1194.9196
 20
-155.4966
 30
0.0
 10
1194.9196
 20
-155.4966
 30
0.0
 10
1194.9196
 20
-156.8771
 30
0.0
 10
1193.8001
 20
-157.9966
 30
0.0
 10
1192.4196
 20
-157.9966
 30
0.0
 10
1192.4196
 20
-157.9966
 30
0.0
 10
1191.0391
 20
-157.9966
 30
0.0
 10
1189.9196
 20
-156.8771
 30
0.0
 10
1189.9196
 20
-155.4966
 30
0.0
 10
1189.9196
 20
-155.4966
 30
0.0
 10
1189.9196
 20
-154.1161
 30
0.0
 10
1191.0391
 20
-152.9966
 30
0.0
 10
1192.4196
 20
-152.9966
 30
0.0
  0
SPLINE
  5
F4
330
1F
100
AcDbEntity
  8
layer 1
 62
   250
370
     0
100
AcDbSpline
210
0.0
220
0.0
230
1.0
 70
    11
 71
     3
 72
    20
 73
    16
 74
     0
 42
0.0000000001
 43
0.0000000001
 40
0.0
 40
0.0
 40
0.0
 40
0.0
 40
0.25
 40
0.25
 40
0.25
 40
0.25
 40
0.5
 40
0.5
 40
0.5
 40
0.5
 40
0.75
 40
0.75
 40
0.75
 40
0.75
 40
1.0
 40
1.0
 40
1.0
 40
1.0
 10
1192.4196
 20
-127.9966
 30
0.0
 10
1193.8001
 20
-127.9966
 30
0.0
 10
1194.9196
 20
-129.1161
 30
0.0
 10
1194.9196
 20
-130.4966
 30
0.0
 10
1194.9196
 20
-130.4966
 30
0.0
 10
1194.9196
 20
-131.8771
 30
0.0
 10
1193.8001
 20
-132.9966
 30
0.0
 10
1192.4196
 20
-132.9966
 30
0.0
 10
1192.4196
 20
-132.9966
 30
0.0
 10
1191.0391
 20
-132.9966
 30
0.0
 10
1189.9196
 20
-131.8771
 30
0.0
 10
1189.9196
 20
-130.4966
 30
0.0
 10
1189.9196
 20
-130.4966
 30
0.0
 10
1189.9196
 20
-129.1161
 30
0.0
 10
1191.0391
 20
-127.9966
 30
0.0
 10
1192.4196
 20
-127.9966
 30
0.0
  0
SPLINE
  5
F5
330
1F
100
AcDbEntity
  8
layer 1
 62
   250
370
     0
100
AcDbSpline
210
0.0
220
0.0
230
1.0
 70
    11
 71
     3
 72
    20
 73
    16
 74
     0
 42
0.0000000001
 43
0.0000000001
 40
0.0
 40
0.0
 40
0.0
 40
0.0
 40
0.25
 40
0.25
 40
0.25
 40
0.25
 40
0.5
 40
0.5
 40
0.5
 40
0.5
 40
0.75
 40
0.75
 40
0.75
 40
0.75
 40
1.0
 40
1.0
 40
1.0
 40
1.0
 10
1192.4196
 20
-102.9966
 30
0.0
 10
1193.8001
 20
-102.9966
 30
0.0
 10
1194.9196
 20
-104.1161
 30
0.0
 10
1194.9196
 20
-105.4966
 30
0.0
 10
1194.9196
 20
-105.4966
 30
0.0
 10
1194.9196
 20
-106.8771
 30
0.0
 10
1193.8001
 20
-107.9966
 30
0.0
 10
1192.4196
 20
-107.9966
 30
0.0
 10
1192.4196
 20
-107.9966
 30
0.0
 10
1191.0391
 20
-107.9966
 30
0.0
 10
1189.9196
 20
-106.8771
 30
0.0
 10
1189.9196
 20
-105.4966
 30
0.0
 10
1189.9196
 20
-105.4966
 30
0.0
 10
1189.9196
 20
-104.1161
 30
0.0
 10
1191.0391
 20
-102.9966
 30
0.0
 10
1192.4196
 20
-102.9966
 30
0.0
  0
SPLINE
  5
F6
330
1F
100
AcDbEntity
  8
layer 1
 62
   250
370
     0
100
AcDbSpline
210
0.0
220
0.0
230
1.0
 70
    11
 71
     3
 72
    20
 73
    16
 74
     0
 42
0.0000000001
 43
0.0000000001
 40
0.0
 40
0.0
 40
0.0
 40
0.0
 40
0.25
 40
0.25
 40
0.25
 40
0.25
 40
0.5
 40
0.5
 40
0.5
 40
0.5
 40
0.75
 40
0.75
 40
0.75
 40
0.75
 40
1.0
 40
1.0
 40
1.0
 40
1.0
 10
1192.4196
 20
-77.9966
 30
0.0
 10
1193.8001
 20
-77.9966
 30
0.0
 10
1194.9196
 20
-79.1161
 30
0.0
 10
1194.9196
 20
-80.4966
 30
0.0
 10
1194.9196
 20
-80.4966
 30
0.0
 10
1194.9196
 20
-81.8771
 30
0.0
 10
1193.8001
 20
-82.9966
 30
0.0
 10
1192.4196
 20
-82.9966
 30
0.0
 10
1192.4196
 20
-82.9966
 30
0.0
 10
1191.0391
 20
-82.9966
 30
0.0
 10
1189.9196
 20
-81.8771
 30
0.0
 10
1189.9196
 20
-80.4966
 30
0.0
 10
1189.9196
 20
-80.4966
 30
0.0
 10
1189.9196
 20
-79.1161
 30
0.0
 10
1191.0391
 20
-77.9966
 30
0.0
 10
1192.4196
 20
-77.9966
 30
0.0
  0
SPLINE
  5
F7
330
1F
100
AcDbEntity
  8
layer 1
 62
   250
370
     0
100
AcDbSpline
210
0.0
220
0.0
230
1.0
 70
    11
 71
     3
 72
    20
 73
    16
 74
     0
 42
0.0000000001
 43
0.0000000001
 40
0.0
 40
0.0
 40
0.0
 40
0.0
 40
0.25
 40
0.25
 40
0.25
 40
0.25
 40
0.5
 40
0.5
 40
0.5
 40
0.5
 40
0.75
 40
0.75
 40
0.75
 40
0.75
 40
1.0
 40
1.0
 40
1.0
 40
1.0
 10
1192.4196
 20
-52.9966
 30
0.0
 10
1193.8001
 20
-52.9966
 30
0.0
 10
1194.9196
 20
-54.1161
 30
0.0
 10
1194.9196
 20
-55.4966
 30
0.0
 10
1194.9196
 20
-55.4966
 30
0.0
 10
1194.9196
 20
-56.8771
 30
0.0
 10
1193.8001
 20
-57.9966
 30
0.0
 10
1192.4196
 20
-57.9966
 30
0.0
 10
1192.4196
 20
-57.9966
 30
0.0
 10
1191.0391
 20
-57.9966
 30
0.0
 10
1189.9196
 20
-56.8771
 30
0.0
 10
1189.9196
 20
-55.4966
 30
0.0
 10
1189.9196
 20
-55.4966
 30
0.0
 10
1189.9196
 20
-54.1161
 30
0.0
 10
1191.0391
 20
-52.9966
 30
0.0
 10
1192.4196
 20
-52.9966
 30
0.0
  0
SPLINE
  5
F8
330
1F
100
AcDbEntity
  8
layer 1
 62
   250
370
     0
100
AcDbSpline
210
0.0
220
0.0
230
1.0
 70
    11
 71
     3
 72
    20
 73
    16
 74
     0
 42
0.0000000001
 43
0.0000000001
 40
0.0
 40
0.0
 40
0.0
 40
0.0
 40
0.25
 40
0.25
 40
0.25
 40
0.25
 40
0.5
 40
0.5
 40
0.5
 40
0.5
 40
0.75
 40
0.75
 40
0.75
 40
0.75
 40
1.0
 40
1.0
 40
1.0
 40
1.0
 10
1192.4196
 20
-27.9966
 30
0.0
 10
1193.8001
 20
-27.9966
 30
0.0
 10
1194.9196
 20
-29.1161
 30
0.0
 10
1194.9196
 20
-30.4966
 30
0.0
 10
1194.9196
 20
-30.4966
 30
0.0
 10
1194.9196
 20
-31.8771
 30
0.0
 10
1193.8001
 20
-32.9966
 30
0.0
 10
1192.4196
 20
-32.9966
 30
0.0
 10
1192.4196
 20
-32.9966
 30
0.0
 10
1191.0391
 20
-32.9966
 30
0.0
 10
1189.9196
 20
-31.8771
 30
0.0
 10
1189.9196
 20
-30.4966
 30
0.0
 10
1189.9196
 20
-30.4966
 30
0.0
 10
1189.9196
 20
-29.1161
 30
0.0
 10
1191.0391
 20
-27.9966
 30
0.0
 10
1192.4196
 20
-27.9966
 30
0.0
  0
ENDSEC
  0
SECTION
  2
OBJECTS
  0
DICTIONARY
  5
C
330
0
100
AcDbDictionary
281
     1
  3
ACAD_GROUP
350
D
  3
ACAD_LAYOUT
350
1A
  3
ACAD_MLEADERSTYLE
350
FA
  3
ACAD_MLINESTYLE
350
17
  3
ACAD_PLOTSETTINGS
350
19
  3
ACAD_PLOTSTYLENAME
350
E
  3
ACAD_SCALELIST
350
3B
  3
ACAD_TABLESTYLE
350
F9
  3
ACAD_VISUALSTYLE
350
2A
  0
DICTIONARY
  5
D
102
{ACAD_REACTORS
330
C
102
}
330
C
100
AcDbDictionary
281
     1
  0
DICTIONARY
  5
1A
102
{ACAD_REACTORS
330
C
102
}
330
C
100
AcDbDictionary
281
     1
  3
Layout1
350
1E
  3
Layout2
350
26
  3
Model
350
22
  0
DICTIONARY
  5
FA
102
{ACAD_REACTORS
330
C
102
}
330
C
100
AcDbDictionary
281
     1
  0
DICTIONARY
  5
17
102
{ACAD_REACTORS
330
C
102
}
330
C
100
AcDbDictionary
281
     1
  3
Standard
350
18
  0
DICTIONARY
  5
19
102
{ACAD_REACTORS
330
C
102
}
330
C
100
AcDbDictionary
281
     1
  0
ACDBDICTIONARYWDFLT
  5
E
102
{ACAD_REACTORS
330
C
102
}
330
C
100
AcDbDictionary
281
     1
  3
Normal
350
F
100
AcDbDictionaryWithDefault
340
F
  0
DICTIONARY
  5
3B
102
{ACAD_REACTORS
330
C
102
}
330
C
100
AcDbDictionary
281
     1
  3
A0
350
3C
  3
A1
350
3D
  3
A2
350
3E
  3
A3
350
3F
  3
A4
350
40
  3
A5
350
41
  3
A6
350
42
  3
A7
350
43
  3
A8
350
44
  3
A9
350
45
  3
B0
350
46
  3
B1
350
47
  3
B2
350
48
  3
B3
350
49
  3
B4
350
4A
  3
B5
350
4B
  3
B6
350
4C
  3
B7
350
4D
  3
B8
350
4E
  3
B9
350
4F
  3
C0
350
50
  3
C1
350
51
  3
C2
350
52
  3
C3
350
53
  3
C4
350
54
  3
C5
350
55
  3
C6
350
56
  3
C7
350
57
  3
C8
350
58
  3
C9
350
59
  3
D0
350
5A
  3
D1
350
5B
  3
D2
350
5C
  0
DICTIONARY
  5
F9
102
{ACAD_REACTORS
330
C
102
}
330
C
100
AcDbDictionary
281
     1
  0
DICTIONARY
  5
2A
102
{ACAD_REACTORS
330
C
102
}
330
C
100
AcDbDictionary
281
     1
  3
2dWireframe
350
2F
  3
3D Hidden
350
31
  3
3dWireframe
350
30
  3
Basic
350
32
  3
Brighten
350
36
  3
ColorChange
350
3A
  3
Conceptual
350
34
  3
Dim
350
35
  3
Facepattern
350
39
  3
Flat
350
2B
  3
FlatWithEdges
350
2C
  3
Gouraud
350
2D
  3
GouraudWithEdges
350
2E
  3
Linepattern
350
38
  3
Realistic
350
33
  3
Thicken
350
37
  0
LAYOUT
  5
1E
102
{ACAD_REACTORS
330
1A
102
}
330
1A
100
AcDbPlotSettings
  1

  2
none_device
  4

  6

 40
0.0
 41
0.0
 42
0.0
 43
0.0
 44
0.0
 45
0.0
 46
0.0
 47
0.0
 48
0.0
 49
0.0
140
0.0
141
0.0
142
1.0
143
1.0
 70
   688
 72
     0
 73
     0
 74
     5
  7

 75
    16
 76
     0
 77
     2
 78
   300
147
1.0
148
0.0
149
0.0
100
AcDbLayout
  1
Layout1
 70
     1
 71
     1
 10
0.0
 20
0.0
 11
12.0
 21
9.0
 12
0.0
 22
0.0
 32
0.0
 14
1.000000000000000E+20
 24
1.000000000000000E+20
 34
1.000000000000000E+20
 15
-1.000000000000000E+20
 25
-1.000000000000000E+20
 35
-1.000000000000000E+20
146
0.0
 13
0.0
 23
0.0
 33
0.0
 16
1.0
 26
0.0
 36
0.0
 17
0.0
 27
1.0
 37
0.0
 76
     0
330
1B
  0
LAYOUT
  5
26
102
{ACAD_REACTORS
330
1A
102
}
330
1A
100
AcDbPlotSettings
  1

  2
none_device
  4

  6

 40
0.0
 41
0.0
 42
0.0
 43
0.0
 44
0.0
 45
0.0
 46
0.0
 47
0.0
 48
0.0
 49
0.0
140
0.0
141
0.0
142
1.0
143
1.0
 70
   688
 72
     0
 73
     0
 74
     5
  7

 75
    16
 76
     0
 77
     2
 78
   300
147
1.0
148
0.0
149
0.0
100
AcDbLayout
  1
Layout2
 70
     1
 71
     2
 10
0.0
 20
0.0
 11
0.0
 21
0.0
 12
0.0
 22
0.0
 32
0.0
 14
0.0
 24
0.0
 34
0.0
 15
0.0
 25
0.0
 35
0.0
146
0.0
 13
0.0
 23
0.0
 33
0.0
 16
1.0
 26
0.0
 36
0.0
 17
0.0
 27
1.0
 37
0.0
 76
     0
330
23
  0
LAYOUT
  5
22
102
{ACAD_REACTORS
330
1A
102
}
330
1A
100
AcDbPlotSettings
  1

  2
none_device
  4

  6

 40
0.0
 41
0.0
 42
0.0
 43
0.0
 44
0.0
 45
0.0
 46
0.0
 47
0.0
 48
0.0
 49
0.0
140
0.0
141
0.0
142
1.0
143
1.0
 70
  1712
 72
     0
 73
     0
 74
     0
  7

 75
     0
 76
     0
 77
     2
 78
   300
147
1.0
148
0.0
149
0.0
100
AcDbLayout
  1
Model
 70
     1
 71
     0
 10
0.0
 20
0.0
 11
12.0
 21
9.0
 12
0.0
 22
0.0
 32
0.0
 14
617.423
 24
-355.4374
 34
0.0
 15
1217.425
 25
-6.4354
 35
0.0
146
0.0
 13
0.0
 23
0.0
 33
0.0
 16
1.0
 26
0.0
 36
0.0
 17
0.0
 27
1.0
 37
0.0
 76
     0
330
1F
331
29
  0
MLINESTYLE
  5
18
102
{ACAD_REACTORS
330
17
102
}
330
17
100
AcDbMlineStyle
  2
Standard
 70
     0
  3

 62
   256
 51
90.0
 52
90.0
 71
     2
 49
0.5
 62
   256
  6
BYLAYER
 49
-0.5
 62
   256
  6
BYLAYER
  0
ACDBPLACEHOLDER
  5
F
102
{ACAD_REACTORS
330
E
102
}
330
E
  0
SCALE
  5
3C
102
{ACAD_REACTORS
330
3B
102
}
330
3B
100
AcDbScale
 70
     0
300
1:1
140
1.0
141
1.0
290
     1
  0
SCALE
  5
3D
102
{ACAD_REACTORS
330
3B
102
}
330
3B
100
AcDbScale
 70
     0
300
1:2
140
1.0
141
2.0
290
     0
  0
SCALE
  5
3E
102
{ACAD_REACTORS
330
3B
102
}
330
3B
100
AcDbScale
 70
     0
300
1:4
140
1.0
141
4.0
290
     0
  0
SCALE
  5
3F
102
{ACAD_REACTORS
330
3B
102
}
330
3B
100
AcDbScale
 70
     0
300
1:5
140
1.0
141
5.0
290
     0
  0
SCALE
  5
40
102
{ACAD_REACTORS
330
3B
102
}
330
3B
100
AcDbScale
 70
     0
300
1:8
140
1.0
141
8.0
290
     0
  0
SCALE
  5
41
102
{ACAD_REACTORS
330
3B
102
}
330
3B
100
AcDbScale
 70
     0
300
1:10
140
1.0
141
10.0
290
     0
  0
SCALE
  5
42
102
{ACAD_REACTORS
330
3B
102
}
330
3B
100
AcDbScale
 70
     0
300
1:16
140
1.0
141
16.0
290
     0
  0
SCALE
  5
43
102
{ACAD_REACTORS
330
3B
102
}
330
3B
100
AcDbScale
 70
     0
300
1:20
140
1.0
141
20.0
290
     0
  0
SCALE
  5
44
102
{ACAD_REACTORS
330
3B
102
}
330
3B
100
AcDbScale
 70
     0
300
1:30
140
1.0
141
30.0
290
     0
  0
SCALE
  5
45
102
{ACAD_REACTORS
330
3B
102
}
330
3B
100
AcDbScale
 70
     0
300
1:40
140
1.0
141
40.0
290
     0
  0
SCALE
  5
46
102
{ACAD_REACTORS
330
3B
102
}
330
3B
100
AcDbScale
 70
     0
300
1:50
140
1.0
141
50.0
290
     0
  0
SCALE
  5
47
102
{ACAD_REACTORS
330
3B
102
}
330
3B
100
AcDbScale
 70
     0
300
1:100
140
1.0
141
100.0
290
     0
  0
SCALE
  5
48
102
{ACAD_REACTORS
330
3B
102
}
330
3B
100
AcDbScale
 70
     0
300
2:1
140
2.0
141
1.0
290
     0
  0
SCALE
  5
49
102
{ACAD_REACTORS
330
3B
102
}
330
3B
100
AcDbScale
 70
     0
300
4:1
140
4.0
141
1.0
290
     0
  0
SCALE
  5
4A
102
{ACAD_REACTORS
330
3B
102
}
330
3B
100
AcDbScale
 70
     0
300
8:1
140
8.0
141
1.0
290
     0
  0
SCALE
  5
4B
102
{ACAD_REACTORS
330
3B
102
}
330
3B
100
AcDbScale
 70
     0
300
10:1
140
10.0
141
1.0
290
     0
  0
SCALE
  5
4C
102
{ACAD_REACTORS
330
3B
102
}
330
3B
100
AcDbScale
 70
     0
300
100:1
140
100.0
141
1.0
290
     0
  0
SCALE
  5
4D
102
{ACAD_REACTORS
330
3B
102
}
330
3B
100
AcDbScale
 70
     0
300
1/128" = 1'-0"
140
0.0078125
141
12.0
290
     0
  0
SCALE
  5
4E
102
{ACAD_REACTORS
330
3B
102
}
330
3B
100
AcDbScale
 70
     0
300
1/64" = 1'-0"
140
0.015625
141
12.0
290
     0
  0
SCALE
  5
4F
102
{ACAD_REACTORS
330
3B
102
}
330
3B
100
AcDbScale
 70
     0
300
1/32" = 1'-0"
140
0.03125
141
12.0
290
     0
  0
SCALE
  5
50
102
{ACAD_REACTORS
330
3B
102
}
330
3B
100
AcDbScale
 70
     0
300
1/16" = 1'-0"
140
0.0625
141
12.0
290
     0
  0
SCALE
  5
51
102
{ACAD_REACTORS
330
3B
102
}
330
3B
100
AcDbScale
 70
     0
300
3/32" = 1'-0"
140
0.09375
141
12.0
290
     0
  0
SCALE
  5
52
102
{ACAD_REACTORS
330
3B
102
}
330
3B
100
AcDbScale
 70
     0
300
1/8" = 1'-0"
140
0.125
141
12.0
290
     0
  0
SCALE
  5
53
102
{ACAD_REACTORS
330
3B
102
}
330
3B
100
AcDbScale
 70
     0
300
3/16" = 1'-0"
140
0.1875
141
12.0
290
     0
  0
SCALE
  5
54
102
{ACAD_REACTORS
330
3B
102
}
330
3B
100
AcDbScale
 70
     0
300
1/4" = 1'-0"
140
0.25
141
12.0
290
     0
  0
SCALE
  5
55
102
{ACAD_REACTORS
330
3B
102
}
330
3B
100
AcDbScale
 70
     0
300
3/8" = 1'-0"
140
0.375
141
12.0
290
     0
  0
SCALE
  5
56
102
{ACAD_REACTORS
330
3B
102
}
330
3B
100
AcDbScale
 70
     0
300
1/2" = 1'-0"
140
0.5
141
12.0
290
     0
  0
SCALE
  5
57
102
{ACAD_REACTORS
330
3B
102
}
330
3B
100
AcDbScale
 70
     0
300
3/4" = 1'-0"
140
0.75
141
12.0
290
     0
  0
SCALE
  5
58
102
{ACAD_REACTORS
330
3B
102
}
330
3B
100
AcDbScale
 70
     0
300
1" = 1'-0"
140
1.0
141
12.0
290
     0
  0
SCALE
  5
59
102
{ACAD_REACTORS
330
3B
102
}
330
3B
100
AcDbScale
 70
     0
300
1-1/2" = 1'-0"
140
1.5
141
12.0
290
     0
  0
SCALE
  5
5A
102
{ACAD_REACTORS
330
3B
102
}
330
3B
100
AcDbScale
 70
     0
300
3" = 1'-0"
140
3.0
141
12.0
290
     0
  0
SCALE
  5
5B
102
{ACAD_REACTORS
330
3B
102
}
330
3B
100
AcDbScale
 70
     0
300
6" = 1'-0"
140
6.0
141
12.0
290
     0
  0
SCALE
  5
5C
102
{ACAD_REACTORS
330
3B
102
}
330
3B
100
AcDbScale
 70
     0
300
1'-0" = 1'-0"
140
12.0
141
12.0
290
     0
  0
VISUALSTYLE
  5
2F
102
{ACAD_REACTORS
330
2A
102
}
330
2A
100
AcDbVisualStyle
  2
2dWireframe
 70
     4
 71
     0
 72
     2
 73
     0
 90
        0
 40
-0.6
 41
-30.0
 62
     5
 63
     7
421
 16777215
 74
     1
 91
        4
 64
     7
 65
   257
 75
     1
175
     1
 42
1.0
 92
        0
 66
   257
 43
1.0
 76
     1
 77
     6
 78
     2
 67
     7
 79
     5
170
     0
171
     0
290
     0
174
     0
 93
        1
 44
0.0
173
     0
291
     0
 45
0.0
  0
VISUALSTYLE
  5
31
102
{ACAD_REACTORS
330
2A
102
}
330
2A
100
AcDbVisualStyle
  2
3D Hidden
 70
     6
 71
     1
 72
     2
 73
     2
 90
        0
 40
-0.6
 41
-30.0
 62
     5
 63
     7
421
 16777215
 74
     2
 91
        2
 64
     7
 65
   257
 75
     2
175
     1
 42
40.0
 92
        0
 66
   257
 43
1.0
 76
     1
 77
     6
 78
     2
 67
     7
 79
     3
170
     0
171
     0
290
     0
174
     0
 93
        1
 44
0.0
173
     0
291
     0
 45
0.0
  0
VISUALSTYLE
  5
30
102
{ACAD_REACTORS
330
2A
102
}
330
2A
100
AcDbVisualStyle
  2
3dWireframe
 70
     5
 71
     0
 72
     2
 73
     0
 90
        0
 40
-0.6
 41
-30.0
 62
     5
 63
     7
421
 16777215
 74
     1
 91
        4
 64
     7
 65
   257
 75
     1
175
     1
 42
1.0
 92
        0
 66
   257
 43
1.0
 76
     1
 77
     6
 78
     2
 67
     7
 79
     5
170
     0
171
     0
290
     0
174
     0
 93
        1
 44
0.0
173
     0
291
     0
 45
0.0
  0
VISUALSTYLE
  5
32
102
{ACAD_REACTORS
330
2A
102
}
330
2A
100
AcDbVisualStyle
  2
Basic
 70
     7
 71
     1
 72
     0
 73
     1
 90
        0
 40
-0.6
 41
-30.0
 62
     5
 63
     7
421
 16777215
 74
     0
 91
        4
 64
     7
 65
   257
 75
     1
175
     1
 42
1.0
 92
        8
 66
     7
 43
1.0
 76
     1
 77
     6
 78
     2
 67
     7
 79
     5
170
     0
171
     0
290
     0
174
     0
 93
        1
 44
0.0
173
     0
291
     1
 45
0.0
  0
VISUALSTYLE
  5
36
102
{ACAD_REACTORS
330
2A
102
}
330
2A
100
AcDbVisualStyle
  2
Brighten
 70
    12
 71
     2
 72
     2
 73
     0
 90
        0
 40
-0.6
 41
-30.0
 62
     5
 63
     7
421
 16777215
 74
     1
 91
        4
 64
     7
 65
   257
 75
     1
175
     1
 42
1.0
 92
        8
 66
     7
 43
1.0
 76
     1
 77
     6
 78
     2
 67
     7
 79
     5
170
     0
171
     0
290
     0
174
     0
 93
        1
 44
50.0
173
     0
291
     1
 45
0.0
  0
VISUALSTYLE
  5
3A
102
{ACAD_REACTORS
330
2A
102
}
330
2A
100
AcDbVisualStyle
  2
ColorChange
 70
    16
 71
     2
 72
     2
 73
     3
 90
        0
 40
-0.6
 41
-30.0
 62
     5
 63
     8
421
  8421504
 74
     1
 91
        4
 64
     7
 65
   257
 75
     1
175
     1
 42
1.0
 92
        8
 66
     8
424
  8421504
 43
1.0
 76
     1
 77
     6
 78
     2
 67
     7
 79
     5
170
     0
171
     0
290
     0
174
     0
 93
        1
 44
0.0
173
     0
291
     1
 45
0.0
  0
VISUALSTYLE
  5
34
102
{ACAD_REACTORS
330
2A
102
}
330
2A
100
AcDbVisualStyle
  2
Conceptual
 70
     9
 71
     3
 72
     2
 73
     0
 90
        0
 40
-0.6
 41
-30.0
 62
     5
 63
     7
421
 16777215
 74
     2
 91
        2
 64
     7
 65
   257
 75
     1
175
     1
 42
40.0
 92
        8
 66
     7
 43
1.0
 76
     1
 77
     6
 78
     2
 67
     7
 79
     3
170
     0
171
     0
290
     0
174
     0
 93
        1
 44
0.0
173
     0
291
     0
 45
0.0
  0
VISUALSTYLE
  5
35
102
{ACAD_REACTORS
330
2A
102
}
330
2A
100
AcDbVisualStyle
  2
Dim
 70
    11
 71
     2
 72
     2
 73
     0
 90
        0
 40
-0.6
 41
-30.0
 62
     5
 63
     7
421
 16777215
 74
     1
 91
        4
 64
     7
 65
   257
 75
     1
175
     1
 42
1.0
 92
        8
 66
     7
 43
1.0
 76
     1
 77
     6
 78
     2
 67
     7
 79
     5
170
     0
171
     0
290
     0
174
     0
 93
        1
 44
-50.0
173
     0
291
     1
 45
0.0
  0
VISUALSTYLE
  5
39
102
{ACAD_REACTORS
330
2A
102
}
330
2A
100
AcDbVisualStyle
  2
Facepattern
 70
    15
 71
     2
 72
     2
 73
     0
 90
        0
 40
-0.6
 41
-30.0
 62
     5
 63
     7
421
 16777215
 74
     1
 91
        4
 64
     7
 65
   257
 75
     1
175
     1
 42
1.0
 92
        8
 66
     7
 43
1.0
 76
     1
 77
     6
 78
     2
 67
     7
 79
     5
170
     0
171
     0
290
     0
174
     0
 93
        1
 44
0.0
173
     0
291
     1
 45
0.0
  0
VISUALSTYLE
  5
2B
102
{ACAD_REACTORS
330
2A
102
}
330
2A
100
AcDbVisualStyle
  2
Flat
 70
     0
 71
     2
 72
     1
 73
     1
 90
        2
 40
-0.6
 41
30.0
 62
     5
 63
     7
421
 16777215
 74
     0
 91
        4
 64
     7
 65
   257
 75
     1
175
     1
 42
1.0
 92
        8
 66
     7
 43
1.0
 76
     1
 77
     6
 78
     2
 67
     7
 79
     5
170
     0
171
     0
290
     0
174
     0
 93
       13
 44
0.0
173
     0
291
     1
 45
0.0
  0
VISUALSTYLE
  5
2C
102
{ACAD_REACTORS
330
2A
102
}
330
2A
100
AcDbVisualStyle
  2
FlatWithEdges
 70
     1
 71
     2
 72
     1
 73
     1
 90
        2
 40
-0.6
 41
30.0
 62
     5
 63
     7
421
 16777215
 74
     1
 91
        4
 64
     7
 65
   257
 75
     1
175
     1
 42
1.0
 92
        0
 66
   257
 43
1.0
 76
     1
 77
     6
 78
     2
 67
     7
 79
     5
170
     0
171
     0
290
     0
174
     0
 93
       13
 44
0.0
173
     0
291
     1
 45
0.0
  0
VISUALSTYLE
  5
2D
102
{ACAD_REACTORS
330
2A
102
}
330
2A
100
AcDbVisualStyle
  2
Gouraud
 70
     2
 71
     2
 72
     2
 73
     1
 90
        2
 40
-0.6
 41
30.0
 62
     5
 63
     7
421
 16777215
 74
     0
 91
        4
 64
     7
 65
   257
 75
     1
175
     1
 42
1.0
 92
        0
 66
     7
 43
1.0
 76
     1
 77
     6
 78
     2
 67
     7
 79
     5
170
     0
171
     0
290
     0
174
     0
 93
       13
 44
0.0
173
     0
291
     1
 45
0.0
  0
VISUALSTYLE
  5
2E
102
{ACAD_REACTORS
330
2A
102
}
330
2A
100
AcDbVisualStyle
  2
GouraudWithEdges
 70
     3
 71
     2
 72
     2
 73
     1
 90
        2
 40
-0.6
 41
30.0
 62
     5
 63
     7
421
 16777215
 74
     1
 91
        4
 64
     7
 65
   257
 75
     1
175
     1
 42
1.0
 92
        0
 66
   257
 43
1.0
 76
     1
 77
     6
 78
     2
 67
     7
 79
     5
170
     0
171
     0
290
     0
174
     0
 93
       13
 44
0.0
173
     0
291
     1
 45
0.0
  0
VISUALSTYLE
  5
38
102
{ACAD_REACTORS
330
2A
102
}
330
2A
100
AcDbVisualStyle
  2
Linepattern
 70
    14
 71
     2
 72
     2
 73
     0
 90
        0
 40
-0.6
 41
-30.0
 62
     5
 63
     7
421
 16777215
 74
     1
 91
        4
 64
     7
 65
   257
 75
     7
175
     7
 42
1.0
 92
        8
 66
     7
 43
1.0
 76
     1
 77
     6
 78
     2
 67
     7
 79
     5
170
     0
171
     0
290
     0
174
     0
 93
        1
 44
0.0
173
     0
291
     1
 45
0.0
  0
VISUALSTYLE
  5
33
102
{ACAD_REACTORS
330
2A
102
}
330
2A
100
AcDbVisualStyle
  2
Realistic
 70
     8
 71
     2
 72
     2
 73
     0
 90
        0
 40
-0.6
 41
-30.0
 62
     5
 63
     7
421
 16777215
 74
     1
 91
        0
 64
     7
 65
   257
 75
     1
175
     1
 42
1.0
 92
        8
 66
     8
424
  7895160
 43
1.0
 76
     1
 77
     6
 78
     2
 67
     7
 79
     5
170
     0
171
     0
290
     0
174
     0
 93
       13
 44
0.0
173
     0
291
     0
 45
0.0
  0
VISUALSTYLE
  5
37
102
{ACAD_REACTORS
330
2A
102
}
330
2A
100
AcDbVisualStyle
  2
Thicken
 70
    13
 71
     2
 72
     2
 73
     0
 90
        0
 40
-0.6
 41
-30.0
 62
     5
 63
     7
421
 16777215
 74
     1
 91
        4
 64
     7
 65
   257
 75
     1
175
     1
 42
1.0
 92
       12
 66
     7
 43
1.0
 76
     1
 77
     6
 78
     2
 67
     7
 79
     5
170
     0
171
     0
290
     0
174
     0
 93
        1
 44
0.0
173
     0
291
     1
 45
0.0
  0
ENDSEC
  0
EOF
