0
SECTION
2
ENTITIES
0
POLYLINE
70
1
62
7
8
0
66
1
0
VERTEX
8
0
10
471.613
20
141.706
0
VERTEX
8
0
10
471.613
20
57.914
0
VERTEX
8
0
10
630.441
20
57.914
0
VERTEX
8
0
10
630.441
20
141.706
0
VERTEX
8
0
10
471.613
20
141.706
0
SEQEND
0
POLYLINE
70
1
62
7
8
0
66
1
0
VERTEX
8
0
10
474.543
20
216.885
0
VERTEX
8
0
10
474.543
20
173.416
0
VERTEX
8
0
10
518.011
20
173.416
0
VERTEX
8
0
10
518.011
20
216.885
0
VERTEX
8
0
10
474.543
20
216.885
0
SEQEND
0
POLYLINE
70
1
62
7
8
0
66
1
0
VERTEX
8
0
10
564.543
20
216.885
0
VERTEX
8
0
10
564.543
20
173.416
0
VERTEX
8
0
10
608.011
20
173.416
0
VERTEX
8
0
10
608.011
20
216.885
0
VERTEX
8
0
10
564.543
20
216.885
0
SEQEND
0
POLYLINE
70
1
62
7
8
0
66
1
0
VERTEX
8
0
10
654.543
20
216.885
0
VERTEX
8
0
10
654.543
20
173.416
0
VERTEX
8
0
10
698.011
20
173.416
0
VERTEX
8
0
10
698.011
20
216.885
0
VERTEX
8
0
10
654.543
20
216.885
0
SEQEND
0
POLYLINE
70
1
62
7
8
0
66
1
0
VERTEX
8
0
10
744.543
20
216.885
0
VERTEX
8
0
10
744.543
20
173.416
0
VERTEX
8
0
10
788.011
20
173.416
0
VERTEX
8
0
10
788.011
20
216.885
0
VERTEX
8
0
10
744.543
20
216.885
0
SEQEND
0
POLYLINE
70
0
62
7
8
0
66
1
0
VERTEX
8
0
10
485.718
20
192.649
0
VERTEX
8
0
10
485.718
20
197.649
0
VERTEX
8
0
10
487.263
20
197.649
42
-0.029532
0
VERTEX
8
0
10
487.791671
20
197.617865
42
-0.055357
0
VERTEX
8
0
10
488.067605
20
197.553638
42
-0.086159
0
VERTEX
8
0
10
488.377117
20
197.371352
42
-0.078500
0
VERTEX
8
0
10
488.633771
20
197.072737
42
-0.074091
0
VERTEX
8
0
10
488.785977
20
196.700590
42
-0.060153
0
VERTEX
8
0
10
488.845231
20
196.209845
42
-0.075911
0
VERTEX
8
0
10
488.747447
20
195.569487
42
-0.094296
0
VERTEX
8
0
10
488.500756
20
195.108208
42
-0.137442
0
VERTEX
8
0
10
488.090959
20
194.817439
42
-0.086195
0
VERTEX
8
0
10
487.310442
20
194.681878
0
VERTEX
8
0
10
486.260
20
194.682
0
VERTEX
8
0
10
486.260
20
192.649
0
VERTEX
8
0
10
485.718
20
192.649
0
SEQEND
0
POLYLINE
70
0
62
7
8
0
66
1
0
VERTEX
8
0
10
486.260
20
195.272
0
VERTEX
8
0
10
487.321
20
195.272
42
0.074599
0
VERTEX
8
0
10
487.790352
20
195.342386
42
0.116861
0
VERTEX
8
0
10
488.053962
20
195.497021
42
0.118148
0
VERTEX
8
0
10
488.215275
20
195.753504
42
0.081737
0
VERTEX
8
0
10
488.285886
20
196.182560
42
0.056146
0
VERTEX
8
0
10
488.254449
20
196.461629
42
0.064631
0
VERTEX
8
0
10
488.169924
20
196.690745
42
0.067307
0
VERTEX
8
0
10
488.036309
20
196.875202
42
0.086677
0
VERTEX
8
0
10
487.893662
20
196.980650
42
0.076307
0
VERTEX
8
0
10
487.720202
20
197.031661
42
0.033438
0
VERTEX
8
0
10
487.310442
20
197.059095
0
VERTEX
8
0
10
486.260
20
197.059
0
VERTEX
8
0
10
486.260
20
195.272
0
SEQEND
0
POLYLINE
70
0
62
7
8
0
66
1
0
VERTEX
8
0
10
489.388
20
195.084
42
-0.069860
0
VERTEX
8
0
10
489.558508
20
196.302132
42
-0.102448
0
VERTEX
8
0
10
489.950278
20
197.048863
42
-0.107064
0
VERTEX
8
0
10
490.598654
20
197.562675
42
-0.114702
0
VERTEX
8
0
10
491.352052
20
197.737812
42
-0.075372
0
VERTEX
8
0
10
491.866858
20
197.659765
42
-0.074512
0
VERTEX
8
0
10
492.341138
20
197.430854
42
-0.074735
0
VERTEX
8
0
10
492.722066
20
197.073883
42
-0.062079
0
VERTEX
8
0
10
493.047141
20
196.537266
42
-0.058600
0
VERTEX
8
0
10
493.235982
20
195.934484
42
-0.046667
0
VERTEX
8
0
10
493.309760
20
195.145725
42
-0.068060
0
VERTEX
8
0
10
493.164309
20
194.082124
42
-0.088376
0
VERTEX
8
0
10
492.804985
20
193.334674
42
-0.053170
0
VERTEX
8
0
10
492.490512
20
192.984323
42
-0.062717
0
VERTEX
8
0
10
492.162506
20
192.756144
42
-0.062717
0
VERTEX
8
0
10
491.783000
20
192.614481
42
-0.058064
0
VERTEX
8
0
10
491.348641
20
192.563869
42
-0.059167
0
VERTEX
8
0
10
490.910525
20
192.615895
42
-0.064009
0
VERTEX
8
0
10
490.529235
20
192.761260
42
-0.064009
0
VERTEX
8
0
10
490.202591
20
192.994415
42
-0.053670
0
VERTEX
8
0
10
489.888887
20
193.355138
42
-0.082316
0
VERTEX
8
0
10
489.525242
20
194.114785
42
-0.070668
0
VERTEX
8
0
10
489.387523
20
195.084333
0
SEQEND
0
POLYLINE
70
0
62
7
8
0
66
1
0
VERTEX
8
0
10
489.947
20
195.074
42
0.030475
0
VERTEX
8
0
10
489.976267
20
194.592200
42
0.042436
0
VERTEX
8
0
10
490.047482
20
194.252563
42
0.042436
0
VERTEX
8
0
10
490.188588
20
193.895475
42
0.053449
0
VERTEX
8
0
10
490.352734
20
193.638221
42
0.106104
0
VERTEX
8
0
10
490.820137
20
193.256651
42
0.118861
0
VERTEX
8
0
10
491.345231
20
193.130036
42
0.119529
0
VERTEX
8
0
10
491.878667
20
193.259407
42
0.108209
0
VERTEX
8
0
10
492.344549
20
193.645043
42
0.102039
0
VERTEX
8
0
10
492.624418
20
194.202562
42
0.065560
0
VERTEX
8
0
10
492.750415
20
195.159367
42
0.044668
0
VERTEX
8
0
10
492.694293
20
195.786333
42
0.051404
0
VERTEX
8
0
10
492.542366
20
196.312164
42
0.065439
0
VERTEX
8
0
10
492.334153
20
196.668167
42
0.070167
0
VERTEX
8
0
10
492.058055
20
196.936311
42
0.077021
0
VERTEX
8
0
10
491.716546
20
197.112780
42
0.080978
0
VERTEX
8
0
10
491.355463
20
197.171646
42
0.118135
0
VERTEX
8
0
10
490.808226
20
197.040521
42
0.109943
0
VERTEX
8
0
10
490.342502
20
196.656639
42
0.104742
0
VERTEX
8
0
10
490.073869
20
196.105742
42
0.061321
0
VERTEX
8
0
10
489.946868
20
195.074101
0
SEQEND
0
POLYLINE
70
0
62
7
8
0
66
1
0
VERTEX
8
0
10
494.725
20
192.649
0
VERTEX
8
0
10
493.634
20
197.649
0
VERTEX
8
0
10
494.190
20
197.649
0
VERTEX
8
0
10
494.814
20
194.372
42
-0.005306
0
VERTEX
8
0
10
494.905661
20
193.864111
42
-0.005238
0
VERTEX
8
0
10
494.987796
20
193.348317
0
VERTEX
8
0
10
495.172
20
194.273
0
VERTEX
8
0
10
495.953
20
197.649
0
VERTEX
8
0
10
496.611
20
197.649
0
VERTEX
8
0
10
497.194
20
195.118
42
-0.012209
0
VERTEX
8
0
10
497.383123
20
194.204704
42
-0.013147
0
VERTEX
8
0
10
497.515081
20
193.348317
42
-0.006571
0
VERTEX
8
0
10
497.590471
20
193.788184
42
-0.004442
0
VERTEX
8
0
10
497.716308
20
194.436311
0
VERTEX
8
0
10
498.361
20
197.649
0
VERTEX
8
0
10
498.907
20
197.649
0
VERTEX
8
0
10
497.781
20
192.649
0
VERTEX
8
0
10
497.259
20
192.649
0
VERTEX
8
0
10
496.393
20
196.459
0
VERTEX
8
0
10
496.263
20
197.045
42
-0.007634
0
VERTEX
8
0
10
496.204566
20
196.732029
42
-0.008700
0
VERTEX
8
0
10
496.144003
20
196.458822
0
VERTEX
8
0
10
495.274
20
192.649
0
VERTEX
8
0
10
494.725
20
192.649
0
SEQEND
0
POLYLINE
70
0
62
7
8
0
66
1
0
VERTEX
8
0
10
499.415
20
192.649
0
VERTEX
8
0
10
499.415
20
197.649
0
VERTEX
8
0
10
502.379
20
197.649
0
VERTEX
8
0
10
502.379
20
197.059
0
VERTEX
8
0
10
499.957
20
197.059
0
VERTEX
8
0
10
499.957
20
195.531
0
VERTEX
8
0
10
502.225
20
195.531
0
VERTEX
8
0
10
502.225
20
194.941
0
VERTEX
8
0
10
499.957
20
194.941
0
VERTEX
8
0
10
499.957
20
193.239
0
VERTEX
8
0
10
502.474
20
193.239
0
VERTEX
8
0
10
502.474
20
192.649
0
VERTEX
8
0
10
499.415
20
192.649
0
SEQEND
0
POLYLINE
70
0
62
7
8
0
66
1
0
VERTEX
8
0
10
503.221
20
192.649
0
VERTEX
8
0
10
503.221
20
197.649
0
VERTEX
8
0
10
505.039
20
197.649
42
-0.041311
0
VERTEX
8
0
10
505.592483
20
197.603324
42
-0.076654
0
VERTEX
8
0
10
505.877973
20
197.509299
42
-0.080612
0
VERTEX
8
0
10
506.118353
20
197.327732
42
-0.068778
0
VERTEX
8
0
10
506.324767
20
197.042041
42
-0.065477
0
VERTEX
8
0
10
506.451495
20
196.702857
42
-0.056761
0
VERTEX
8
0
10
506.498710
20
196.288290
42
-0.078360
0
VERTEX
8
0
10
506.414538
20
195.754506
42
-0.096850
0
VERTEX
8
0
10
506.201984
20
195.370827
42
-0.098005
0
VERTEX
8
0
10
505.863318
20
195.098966
42
-0.077651
0
VERTEX
8
0
10
505.345913
20
194.924033
42
-0.030199
0
VERTEX
8
0
10
505.560743
20
194.773639
42
-0.043280
0
VERTEX
8
0
10
505.693798
20
194.647771
42
-0.027258
0
VERTEX
8
0
10
505.917072
20
194.350220
42
-0.025590
0
VERTEX
8
0
10
506.120128
20
194.009981
0
VERTEX
8
0
10
506.836
20
192.649
0
VERTEX
8
0
10
506.154
20
192.649
0
VERTEX
8
0
10
505.605
20
193.686
42
0.012344
0
VERTEX
8
0
10
505.280230
20
194.278455
42
0.030291
0
VERTEX
8
0
10
505.127632
20
194.507935
42
0.044966
0
VERTEX
8
0
10
504.949510
20
194.702639
42
0.072681
0
VERTEX
8
0
10
504.813853
20
194.794429
42
0.065697
0
VERTEX
8
0
10
504.648019
20
194.846714
42
0.043582
0
VERTEX
8
0
10
504.387523
20
194.869463
0
VERTEX
8
0
10
503.763
20
194.869
0
VERTEX
8
0
10
503.763
20
192.649
0
VERTEX
8
0
10
503.221
20
192.649
0
SEQEND
0
POLYLINE
70
0
62
7
8
0
66
1
0
VERTEX
8
0
10
503.763
20
195.442
0
VERTEX
8
0
10
504.930
20
195.442
42
0.039397
0
VERTEX
8
0
10
505.303622
20
195.471950
42
0.068833
0
VERTEX
8
0
10
505.509624
20
195.534538
42
0.076020
0
VERTEX
8
0
10
505.685197
20
195.653145
42
0.073150
0
VERTEX
8
0
10
505.823403
20
195.824442
42
0.069631
0
VERTEX
8
0
10
505.908149
20
196.033124
42
0.061759
0
VERTEX
8
0
10
505.939364
20
196.284879
42
0.089616
0
VERTEX
8
0
10
505.876077
20
196.635143
42
0.110358
0
VERTEX
8
0
10
505.717673
20
196.878331
42
0.110940
0
VERTEX
8
0
10
505.462893
20
197.031459
42
0.080220
0
VERTEX
8
0
10
505.059419
20
197.096612
0
VERTEX
8
0
10
503.763
20
197.097
0
VERTEX
8
0
10
503.763
20
195.442
0
SEQEND
0
POLYLINE
70
0
62
7
8
0
66
1
0
VERTEX
8
0
10
577.333
20
194.259
0
VERTEX
8
0
10
577.844
20
194.314
42
0.044994
0
VERTEX
8
0
10
577.920889
20
193.911283
42
0.069687
0
VERTEX
8
0
10
578.028382
20
193.668917
42
0.072525
0
VERTEX
8
0
10
578.197362
20
193.468864
42
0.063444
0
VERTEX
8
0
10
578.444480
20
193.300568
42
0.066988
0
VERTEX
8
0
10
578.713856
20
193.199124
42
0.056658
0
VERTEX
8
0
10
579.051574
20
193.160732
42
0.076126
0
VERTEX
8
0
10
579.509329
20
193.230832
42
0.105471
0
VERTEX
8
0
10
579.801916
20
193.396066
42
0.108667
0
VERTEX
8
0
10
579.999371
20
193.666847
42
0.103764
0
VERTEX
8
0
10
580.071356
20
194.009981
42
0.062887
0
VERTEX
8
0
10
580.044651
20
194.221470
42
0.071269
0
VERTEX
8
0
10
579.972448
20
194.395384
42
0.071551
0
VERTEX
8
0
10
579.855428
20
194.540486
42
0.061178
0
VERTEX
8
0
10
579.679132
20
194.668235
42
0.036788
0
VERTEX
8
0
10
579.480940
20
194.754596
42
0.011665
0
VERTEX
8
0
10
578.833293
20
194.964961
42
-0.027268
0
VERTEX
8
0
10
578.270422
20
195.166841
42
-0.054405
0
VERTEX
8
0
10
578.007918
20
195.312846
42
-0.059953
0
VERTEX
8
0
10
577.785167
20
195.514634
42
-0.062915
0
VERTEX
8
0
10
577.625926
20
195.752819
42
-0.064556
0
VERTEX
8
0
10
577.526707
20
196.024648
42
-0.055318
0
VERTEX
8
0
10
577.489501
20
196.359913
42
-0.094367
0
VERTEX
8
0
10
577.596280
20
196.920641
42
-0.104271
0
VERTEX
8
0
10
577.881725
20
197.352410
42
-0.107721
0
VERTEX
8
0
10
578.317312
20
197.628033
42
-0.087610
0
VERTEX
8
0
10
578.939023
20
197.737812
42
-0.055742
0
VERTEX
8
0
10
579.379002
20
197.688609
42
-0.064755
0
VERTEX
8
0
10
579.737113
20
197.557048
42
-0.069954
0
VERTEX
8
0
10
580.043954
20
197.332040
42
-0.071983
0
VERTEX
8
0
10
580.269173
20
197.038631
42
-0.064819
0
VERTEX
8
0
10
580.410000
20
196.687569
42
-0.054639
0
VERTEX
8
0
10
580.473812
20
196.243951
0
VERTEX
8
0
10
579.952
20
196.196
42
0.075484
0
VERTEX
8
0
10
579.843555
20
196.649689
42
0.108318
0
VERTEX
8
0
10
579.658669
20
196.919258
42
0.108074
0
VERTEX
8
0
10
579.380592
20
197.085386
42
0.080978
0
VERTEX
8
0
10
578.956077
20
197.154593
42
0.072097
0
VERTEX
8
0
10
578.521138
20
197.091549
42
0.104685
0
VERTEX
8
0
10
578.253484
20
196.946543
42
0.112711
0
VERTEX
8
0
10
578.076347
20
196.714295
42
0.107185
0
VERTEX
8
0
10
578.011329
20
196.414483
42
0.040160
0
VERTEX
8
0
10
578.023975
20
196.257289
42
0.053667
0
VERTEX
8
0
10
578.055241
20
196.143337
42
0.053667
0
VERTEX
8
0
10
578.114474
20
196.030184
42
0.060239
0
VERTEX
8
0
10
578.188682
20
195.943815
42
0.091520
0
VERTEX
8
0
10
578.381051
20
195.815586
42
0.032882
0
VERTEX
8
0
10
578.983362
20
195.602751
42
-0.016263
0
VERTEX
8
0
10
579.566635
20
195.425376
42
-0.033990
0
VERTEX
8
0
10
579.836022
20
195.312846
42
-0.063519
0
VERTEX
8
0
10
580.176610
20
195.079203
42
-0.074496
0
VERTEX
8
0
10
580.402188
20
194.808071
42
-0.075488
0
VERTEX
8
0
10
580.543090
20
194.480695
42
-0.064023
0
VERTEX
8
0
10
580.596595
20
194.064552
42
-0.063123
0
VERTEX
8
0
10
580.544462
20
193.653247
42
-0.065667
0
VERTEX
8
0
10
580.395367
20
193.283515
42
-0.067461
0
VERTEX
8
0
10
580.148842
20
192.965926
42
-0.072400
0
VERTEX
8
0
10
579.846254
20
192.744633
42
-0.065456
0
VERTEX
8
0
10
579.482863
20
192.614198
42
-0.053524
0
VERTEX
8
0
10
579.014057
20
192.563869
42
-0.090244
0
VERTEX
8
0
10
578.301317
20
192.693567
42
-0.109594
0
VERTEX
8
0
10
577.799869
20
193.020895
42
-0.105101
0
VERTEX
8
0
10
577.472846
20
193.530744
42
-0.085527
0
VERTEX
8
0
10
577.332611
20
194.258958
0
SEQEND
0
POLYLINE
70
0
62
7
8
0
66
1
0
VERTEX
8
0
10
582.387
20
192.649
0
VERTEX
8
0
10
582.387
20
197.059
0
VERTEX
8
0
10
581.037
20
197.059
0
VERTEX
8
0
10
581.037
20
197.649
0
VERTEX
8
0
10
584.287
20
197.649
0
VERTEX
8
0
10
584.287
20
197.059
0
VERTEX
8
0
10
582.929
20
197.059
0
VERTEX
8
0
10
582.929
20
192.649
0
VERTEX
8
0
10
582.387
20
192.649
0
SEQEND
0
POLYLINE
70
0
62
7
8
0
66
1
0
VERTEX
8
0
10
583.966
20
192.649
0
VERTEX
8
0
10
585.545
20
197.649
0
VERTEX
8
0
10
586.125
20
197.649
0
VERTEX
8
0
10
587.807
20
192.649
0
VERTEX
8
0
10
587.183
20
192.649
0
VERTEX
8
0
10
586.708
20
194.163
0
VERTEX
8
0
10
584.983
20
194.163
0
VERTEX
8
0
10
584.536
20
192.649
0
VERTEX
8
0
10
583.966
20
192.649
0
SEQEND
0
POLYLINE
70
0
62
7
8
0
66
1
0
VERTEX
8
0
10
585.140
20
194.702
0
VERTEX
8
0
10
586.538
20
194.702
0
VERTEX
8
0
10
586.112
20
196.087
42
-0.008020
0
VERTEX
8
0
10
585.931251
20
196.694351
42
-0.011461
0
VERTEX
8
0
10
585.821697
20
197.123897
42
-0.015724
0
VERTEX
8
0
10
585.716331
20
196.604224
42
-0.018470
0
VERTEX
8
0
10
585.596595
20
196.168917
0
VERTEX
8
0
10
585.140
20
194.702
0
SEQEND
0
POLYLINE
70
0
62
7
8
0
66
1
0
VERTEX
8
0
10
588.233
20
192.649
0
VERTEX
8
0
10
588.233
20
197.649
0
VERTEX
8
0
10
590.051
20
197.649
42
-0.041311
0
VERTEX
8
0
10
590.604420
20
197.603324
42
-0.076654
0
VERTEX
8
0
10
590.889910
20
197.509299
42
-0.080612
0
VERTEX
8
0
10
591.130290
20
197.327732
42
-0.068778
0
VERTEX
8
0
10
591.336704
20
197.042041
42
-0.065477
0
VERTEX
8
0
10
591.463433
20
196.702857
42
-0.056761
0
VERTEX
8
0
10
591.510647
20
196.288290
42
-0.078360
0
VERTEX
8
0
10
591.426475
20
195.754506
42
-0.096850
0
VERTEX
8
0
10
591.213921
20
195.370827
42
-0.098005
0
VERTEX
8
0
10
590.875255
20
195.098966
42
-0.077651
0
VERTEX
8
0
10
590.357850
20
194.924033
42
-0.030199
0
VERTEX
8
0
10
590.572681
20
194.773639
42
-0.043280
0
VERTEX
8
0
10
590.705735
20
194.647771
42
-0.027258
0
VERTEX
8
0
10
590.929010
20
194.350220
42
-0.025590
0
VERTEX
8
0
10
591.132066
20
194.009981
0
VERTEX
8
0
10
591.848
20
192.649
0
VERTEX
8
0
10
591.166
20
192.649
0
VERTEX
8
0
10
590.617
20
193.686
42
0.012344
0
VERTEX
8
0
10
590.292167
20
194.278455
42
0.030291
0
VERTEX
8
0
10
590.139569
20
194.507935
42
0.044966
0
VERTEX
8
0
10
589.961447
20
194.702639
42
0.072681
0
VERTEX
8
0
10
589.825790
20
194.794429
42
0.065697
0
VERTEX
8
0
10
589.659956
20
194.846714
42
0.043582
0
VERTEX
8
0
10
589.399460
20
194.869463
0
VERTEX
8
0
10
588.775
20
194.869
0
VERTEX
8
0
10
588.775
20
192.649
0
VERTEX
8
0
10
588.233
20
192.649
0
SEQEND
0
POLYLINE
70
0
62
7
8
0
66
1
0
VERTEX
8
0
10
588.775
20
195.442
0
VERTEX
8
0
10
589.942
20
195.442
42
0.039397
0
VERTEX
8
0
10
590.315559
20
195.471950
42
0.068833
0
VERTEX
8
0
10
590.521561
20
195.534538
42
0.076020
0
VERTEX
8
0
10
590.697134
20
195.653145
42
0.073150
0
VERTEX
8
0
10
590.835340
20
195.824442
42
0.069631
0
VERTEX
8
0
10
590.920087
20
196.033124
42
0.061759
0
VERTEX
8
0
10
590.951302
20
196.284879
42
0.089616
0
VERTEX
8
0
10
590.888015
20
196.635143
42
0.110358
0
VERTEX
8
0
10
590.729610
20
196.878331
42
0.110940
0
VERTEX
8
0
10
590.474831
20
197.031459
42
0.080220
0
VERTEX
8
0
10
590.071356
20
197.096612
0
VERTEX
8
0
10
588.775
20
197.097
0
VERTEX
8
0
10
588.775
20
195.442
0
SEQEND
0
POLYLINE
70
0
62
7
8
0
66
1
0
VERTEX
8
0
10
593.322
20
192.649
0
VERTEX
8
0
10
593.322
20
197.059
0
VERTEX
8
0
10
591.971
20
197.059
0
VERTEX
8
0
10
591.971
20
197.649
0
VERTEX
8
0
10
595.221
20
197.649
0
VERTEX
8
0
10
595.221
20
197.059
0
VERTEX
8
0
10
593.864
20
197.059
0
VERTEX
8
0
10
593.864
20
192.649
0
VERTEX
8
0
10
593.322
20
192.649
0
SEQEND
0
POLYLINE
70
0
62
7
8
0
66
1
0
VERTEX
8
0
10
664.341
20
192.649
0
VERTEX
8
0
10
664.341
20
197.649
0
VERTEX
8
0
10
665.157
20
197.649
0
VERTEX
8
0
10
666.129
20
194.109
0
VERTEX
8
0
10
666.323
20
193.369
0
VERTEX
8
0
10
666.541
20
194.170
0
VERTEX
8
0
10
667.524
20
197.649
0
VERTEX
8
0
10
668.257
20
197.649
0
VERTEX
8
0
10
668.257
20
192.649
0
VERTEX
8
0
10
667.735
20
192.649
0
VERTEX
8
0
10
667.735
20
196.831
0
VERTEX
8
0
10
666.538
20
192.649
0
VERTEX
8
0
10
666.050
20
192.649
0
VERTEX
8
0
10
664.863
20
196.902
0
VERTEX
8
0
10
664.863
20
192.649
0
VERTEX
8
0
10
664.341
20
192.649
0
SEQEND
0
POLYLINE
70
0
62
7
8
0
66
1
0
VERTEX
8
0
10
670.992
20
193.096
42
-0.039878
0
VERTEX
8
0
10
670.724030
20
192.858179
42
-0.047411
0
VERTEX
8
0
10
670.466991
20
192.700295
42
-0.050750
0
VERTEX
8
0
10
670.172737
20
192.598793
42
-0.057753
0
VERTEX
8
0
10
669.900824
20
192.567280
42
-0.090570
0
VERTEX
8
0
10
669.468438
20
192.646250
42
-0.108745
0
VERTEX
8
0
10
669.160715
20
192.846953
42
-0.108950
0
VERTEX
8
0
10
668.963397
20
193.155914
42
-0.088054
0
VERTEX
8
0
10
668.884453
20
193.600704
42
-0.057322
0
VERTEX
8
0
10
668.919845
20
193.908400
42
-0.066946
0
VERTEX
8
0
10
669.014057
20
194.156639
42
-0.066096
0
VERTEX
8
0
10
669.167310
20
194.370919
42
-0.066990
0
VERTEX
8
0
10
669.368764
20
194.535220
42
-0.061790
0
VERTEX
8
0
10
669.609743
20
194.640039
42
-0.035868
0
VERTEX
8
0
10
670.050892
20
194.736448
42
0.023386
0
VERTEX
8
0
10
670.656755
20
194.851393
42
0.046440
0
VERTEX
8
0
10
670.951302
20
194.951318
0
VERTEX
8
0
10
670.955
20
195.108
42
0.062478
0
VERTEX
8
0
10
670.910570
20
195.460091
42
0.116651
0
VERTEX
8
0
10
670.821697
20
195.630036
42
0.122253
0
VERTEX
8
0
10
670.600072
20
195.783391
42
0.090750
0
VERTEX
8
0
10
670.245299
20
195.848317
42
0.068177
0
VERTEX
8
0
10
669.914407
20
195.802988
42
0.104538
0
VERTEX
8
0
10
669.720060
20
195.701659
42
0.106970
0
VERTEX
8
0
10
669.587726
20
195.528111
42
0.059072
0
VERTEX
8
0
10
669.464262
20
195.155957
0
VERTEX
8
0
10
668.970
20
195.238
42
-0.073025
0
VERTEX
8
0
10
669.147509
20
195.775280
42
-0.104252
0
VERTEX
8
0
10
669.396049
20
196.087062
42
-0.102807
0
VERTEX
8
0
10
669.747398
20
196.272280
42
-0.070177
0
VERTEX
8
0
10
670.320333
20
196.353092
42
-0.059396
0
VERTEX
8
0
10
670.766528
20
196.299900
42
-0.085651
0
VERTEX
8
0
10
671.053621
20
196.175739
42
-0.083822
0
VERTEX
8
0
10
671.271699
20
195.974069
42
-0.096348
0
VERTEX
8
0
10
671.387864
20
195.742587
42
-0.043426
0
VERTEX
8
0
10
671.436216
20
195.478537
42
-0.023583
0
VERTEX
8
0
10
671.459487
20
194.985425
0
VERTEX
8
0
10
671.459
20
194.167
42
0.002737
0
VERTEX
8
0
10
671.462139
20
193.682484
42
0.006123
0
VERTEX
8
0
10
671.467161
20
193.465984
42
0.006123
0
VERTEX
8
0
10
671.481002
20
193.175927
42
0.018902
0
VERTEX
8
0
10
671.490183
20
193.082287
42
0.038821
0
VERTEX
8
0
10
671.536211
20
192.869607
42
0.035820
0
VERTEX
8
0
10
671.619787
20
192.649136
0
VERTEX
8
0
10
671.095
20
192.649
42
-0.048312
0
VERTEX
8
0
10
671.031702
20
192.837722
42
-0.036730
0
VERTEX
8
0
10
670.992229
20
193.095930
0
SEQEND
0
POLYLINE
70
0
62
7
8
0
66
1
0
VERTEX
8
0
10
670.951
20
194.467
42
-0.047195
0
VERTEX
8
0
10
670.662466
20
194.355202
42
-0.026707
0
VERTEX
8
0
10
670.129337
20
194.235084
42
0.025428
0
VERTEX
8
0
10
669.808895
20
194.161257
42
0.062780
0
VERTEX
8
0
10
669.685954
20
194.108890
42
0.138327
0
VERTEX
8
0
10
669.488137
20
193.911073
42
0.070615
0
VERTEX
8
0
10
669.439032
20
193.784278
42
0.057186
0
VERTEX
8
0
10
669.419924
20
193.617758
42
0.092191
0
VERTEX
8
0
10
669.465670
20
193.371759
42
0.112957
0
VERTEX
8
0
10
669.580224
20
193.201659
42
0.109373
0
VERTEX
8
0
10
669.756965
20
193.093025
42
0.083504
0
VERTEX
8
0
10
670.023607
20
193.048181
42
0.069919
0
VERTEX
8
0
10
670.285648
20
193.085004
42
0.074630
0
VERTEX
8
0
10
670.511329
20
193.188017
42
0.070843
0
VERTEX
8
0
10
670.702597
20
193.349819
42
0.070392
0
VERTEX
8
0
10
670.842161
20
193.559777
42
0.067504
0
VERTEX
8
0
10
670.916679
20
193.806376
42
0.039685
0
VERTEX
8
0
10
670.951302
20
194.241905
0
VERTEX
8
0
10
670.951
20
194.467
0
SEQEND
0
POLYLINE
70
0
62
7
8
0
66
1
0
VERTEX
8
0
10
672.244
20
192.649
0
VERTEX
8
0
10
672.244
20
196.271
0
VERTEX
8
0
10
672.698
20
196.271
0
VERTEX
8
0
10
672.698
20
195.756
42
-0.061384
0
VERTEX
8
0
10
672.880841
20
196.020505
42
-0.069937
0
VERTEX
8
0
10
673.096595
20
196.203024
42
-0.073262
0
VERTEX
8
0
10
673.346121
20
196.313331
42
-0.067596
0
VERTEX
8
0
10
673.638887
20
196.353092
42
-0.053486
0
VERTEX
8
0
10
673.866582
20
196.328665
42
-0.054722
0
VERTEX
8
0
10
674.078860
20
196.257594
42
-0.055218
0
VERTEX
8
0
10
674.268239
20
196.145823
42
-0.063223
0
VERTEX
8
0
10
674.406281
20
196.012028
42
-0.057221
0
VERTEX
8
0
10
674.513623
20
195.840976
42
-0.049071
0
VERTEX
8
0
10
674.593866
20
195.619804
42
-0.040672
0
VERTEX
8
0
10
674.634839
20
195.371724
42
-0.020598
0
VERTEX
8
0
10
674.655258
20
194.876284
0
VERTEX
8
0
10
674.655
20
192.649
0
VERTEX
8
0
10
674.154
20
192.649
0
VERTEX
8
0
10
674.154
20
194.852
42
0.029116
0
VERTEX
8
0
10
674.131144
20
195.242751
42
0.057591
0
VERTEX
8
0
10
674.085681
20
195.435629
42
0.068258
0
VERTEX
8
0
10
673.992604
20
195.603129
42
0.076913
0
VERTEX
8
0
10
673.870811
20
195.722123
42
0.080973
0
VERTEX
8
0
10
673.718824
20
195.797171
42
0.074403
0
VERTEX
8
0
10
673.536568
20
195.824442
42
0.110982
0
VERTEX
8
0
10
673.211690
20
195.751432
42
0.115143
0
VERTEX
8
0
10
672.960169
20
195.551591
42
0.113230
0
VERTEX
8
0
10
672.817863
20
195.259916
42
0.057166
0
VERTEX
8
0
10
672.745299
20
194.627307
0
VERTEX
8
0
10
672.745
20
192.649
0
VERTEX
8
0
10
672.244
20
192.649
0
SEQEND
0
POLYLINE
70
0
62
7
8
0
66
1
0
VERTEX
8
0
10
675.058
20
192.567
0
VERTEX
8
0
10
676.241
20
197.734
0
VERTEX
8
0
10
676.650
20
197.734
0
VERTEX
8
0
10
675.460
20
192.567
0
VERTEX
8
0
10
675.058
20
192.567
0
SEQEND
0
POLYLINE
70
0
62
7
8
0
66
1
0
VERTEX
8
0
10
676.644
20
192.649
0
VERTEX
8
0
10
678.223
20
197.649
0
VERTEX
8
0
10
678.803
20
197.649
0
VERTEX
8
0
10
680.484
20
192.649
0
VERTEX
8
0
10
679.860
20
192.649
0
VERTEX
8
0
10
679.386
20
194.163
0
VERTEX
8
0
10
677.660
20
194.163
0
VERTEX
8
0
10
677.213
20
192.649
0
VERTEX
8
0
10
676.644
20
192.649
0
SEQEND
0
POLYLINE
70
0
62
7
8
0
66
1
0
VERTEX
8
0
10
677.817
20
194.702
0
VERTEX
8
0
10
679.215
20
194.702
0
VERTEX
8
0
10
678.789
20
196.087
42
-0.008020
0
VERTEX
8
0
10
678.608604
20
196.694351
42
-0.011461
0
VERTEX
8
0
10
678.499051
20
197.123897
42
-0.015724
0
VERTEX
8
0
10
678.393685
20
196.604224
42
-0.018470
0
VERTEX
8
0
10
678.273948
20
196.168917
0
VERTEX
8
0
10
677.817
20
194.702
0
SEQEND
0
POLYLINE
70
0
62
7
8
0
66
1
0
VERTEX
8
0
10
682.786
20
192.649
0
VERTEX
8
0
10
682.786
20
193.181
42
-0.052822
0
VERTEX
8
0
10
682.584953
20
192.899916
42
-0.066661
0
VERTEX
8
0
10
682.376950
20
192.720759
42
-0.074403
0
VERTEX
8
0
10
682.129650
20
192.607531
42
-0.070325
0
VERTEX
8
0
10
681.844890
20
192.567280
42
-0.075866
0
VERTEX
8
0
10
681.511681
20
192.618131
42
-0.085360
0
VERTEX
8
0
10
681.244617
20
192.754865
42
-0.079329
0
VERTEX
8
0
10
681.033613
20
192.974345
42
-0.083626
0
VERTEX
8
0
10
680.910374
20
193.235766
42
-0.043833
0
VERTEX
8
0
10
680.854371
20
193.525880
42
-0.025776
0
VERTEX
8
0
10
680.828519
20
194.027035
0
VERTEX
8
0
10
680.829
20
196.271
0
VERTEX
8
0
10
681.330
20
196.271
0
VERTEX
8
0
10
681.330
20
194.262
42
0.007050
0
VERTEX
8
0
10
681.334349
20
193.945635
42
0.014689
0
VERTEX
8
0
10
681.343099
20
193.793832
42
0.014689
0
VERTEX
8
0
10
681.366563
20
193.593040
42
0.035832
0
VERTEX
8
0
10
681.384453
20
193.512028
42
0.078128
0
VERTEX
8
0
10
681.467798
20
193.337227
42
0.084498
0
VERTEX
8
0
10
681.592502
20
193.208481
42
0.080133
0
VERTEX
8
0
10
681.755527
20
193.125089
42
0.078385
0
VERTEX
8
0
10
681.940388
20
193.095930
42
0.116434
0
VERTEX
8
0
10
682.261836
20
193.171813
42
0.109592
0
VERTEX
8
0
10
682.533839
20
193.392655
42
0.110954
0
VERTEX
8
0
10
682.663373
20
193.675944
42
0.052013
0
VERTEX
8
0
10
682.731656
20
194.330582
0
VERTEX
8
0
10
682.732
20
196.271
0
VERTEX
8
0
10
683.236
20
196.271
0
VERTEX
8
0
10
683.236
20
192.649
0
VERTEX
8
0
10
682.786
20
192.649
0
SEQEND
0
POLYLINE
70
0
62
7
8
0
66
1
0
VERTEX
8
0
10
685.146
20
193.198
0
VERTEX
8
0
10
685.215
20
192.656
42
-0.023702
0
VERTEX
8
0
10
684.989560
20
192.612248
42
-0.036126
0
VERTEX
8
0
10
684.839433
20
192.601387
42
-0.059413
0
VERTEX
8
0
10
684.591785
20
192.630918
42
-0.078279
0
VERTEX
8
0
10
684.416513
20
192.703706
42
-0.088639
0
VERTEX
8
0
10
684.283462
20
192.824080
42
-0.084403
0
VERTEX
8
0
10
684.194821
20
192.990200
42
-0.062557
0
VERTEX
8
0
10
684.158835
20
193.162976
42
-0.020101
0
VERTEX
8
0
10
684.136841
20
193.709845
0
VERTEX
8
0
10
684.137
20
195.794
0
VERTEX
8
0
10
683.768
20
195.794
0
VERTEX
8
0
10
683.768
20
196.271
0
VERTEX
8
0
10
684.137
20
196.271
0
VERTEX
8
0
10
684.137
20
197.168
0
VERTEX
8
0
10
684.638
20
197.537
0
VERTEX
8
0
10
684.638
20
196.271
0
VERTEX
8
0
10
685.146
20
196.271
0
VERTEX
8
0
10
685.146
20
195.794
0
VERTEX
8
0
10
684.638
20
195.794
0
VERTEX
8
0
10
684.638
20
193.676
42
0.010958
0
VERTEX
8
0
10
684.641911
20
193.506674
42
0.024964
0
VERTEX
8
0
10
684.648863
20
193.432730
42
0.024964
0
VERTEX
8
0
10
684.668513
20
193.332496
42
0.067324
0
VERTEX
8
0
10
684.682543
20
193.297157
42
0.160837
0
VERTEX
8
0
10
684.767202
20
193.212022
42
0.117858
0
VERTEX
8
0
10
684.924699
20
193.174374
42
0.026826
0
VERTEX
8
0
10
685.017013
20
193.179331
42
0.018960
0
VERTEX
8
0
10
685.146390
20
193.198249
0
SEQEND
0
POLYLINE
70
0
62
7
8
0
66
1
0
VERTEX
8
0
10
685.429
20
194.460
42
-0.067684
0
VERTEX
8
0
10
685.550941
20
195.353384
42
-0.104372
0
VERTEX
8
0
10
685.821697
20
195.875602
42
-0.108800
0
VERTEX
8
0
10
686.275215
20
196.229394
42
-0.111899
0
VERTEX
8
0
10
686.821015
20
196.353092
42
-0.112575
0
VERTEX
8
0
10
687.356118
20
196.231067
42
-0.106520
0
VERTEX
8
0
10
687.813512
20
195.875602
42
-0.103050
0
VERTEX
8
0
10
688.091484
20
195.351011
42
-0.070590
0
VERTEX
8
0
10
688.212557
20
194.497703
42
-0.066013
0
VERTEX
8
0
10
688.089363
20
193.568663
42
-0.105761
0
VERTEX
8
0
10
687.820333
20
193.044770
42
-0.110128
0
VERTEX
8
0
10
687.370255
20
192.691758
42
-0.111899
0
VERTEX
8
0
10
686.821015
20
192.567280
42
-0.112236
0
VERTEX
8
0
10
686.279175
20
192.690460
42
-0.108189
0
VERTEX
8
0
10
685.825108
20
193.044770
42
-0.105408
0
VERTEX
8
0
10
685.552119
20
193.565818
42
-0.068246
0
VERTEX
8
0
10
685.429474
20
194.460186
0
SEQEND
0
POLYLINE
70
0
62
7
8
0
66
1
0
VERTEX
8
0
10
685.944
20
194.460
42
0.025990
0
VERTEX
8
0
10
685.963738
20
194.089960
42
0.039055
0
VERTEX
8
0
10
686.008430
20
193.847123
42
0.039055
0
VERTEX
8
0
10
686.101707
20
193.581871
42
0.056282
0
VERTEX
8
0
10
686.200278
20
193.413119
42
0.109532
0
VERTEX
8
0
10
686.497389
20
193.156971
42
0.123954
0
VERTEX
8
0
10
686.834658
20
193.072055
42
0.129750
0
VERTEX
8
0
10
687.146781
20
193.154438
42
0.105554
0
VERTEX
8
0
10
687.441752
20
193.416530
42
0.098735
0
VERTEX
8
0
10
687.616729
20
193.790930
42
0.060162
0
VERTEX
8
0
10
687.697550
20
194.460186
42
0.060162
0
VERTEX
8
0
10
687.616172
20
195.134055
42
0.100524
0
VERTEX
8
0
10
687.441752
20
195.503842
42
0.108479
0
VERTEX
8
0
10
687.142051
20
195.763312
42
0.125011
0
VERTEX
8
0
10
686.807373
20
195.848317
42
0.130214
0
VERTEX
8
0
10
686.490526
20
195.764378
42
0.107522
0
VERTEX
8
0
10
686.196868
20
195.500432
42
0.101114
0
VERTEX
8
0
10
686.025223
20
195.135425
42
0.059576
0
VERTEX
8
0
10
685.944480
20
194.460186
0
SEQEND
0
POLYLINE
70
0
62
7
8
0
66
1
0
VERTEX
8
0
10
757.003
20
192.649
0
VERTEX
8
0
10
757.003
20
197.649
0
VERTEX
8
0
10
758.821
20
197.649
42
-0.041311
0
VERTEX
8
0
10
759.374884
20
197.603324
42
-0.076654
0
VERTEX
8
0
10
759.660374
20
197.509299
42
-0.080612
0
VERTEX
8
0
10
759.900754
20
197.327732
42
-0.068778
0
VERTEX
8
0
10
760.107168
20
197.042041
42
-0.065477
0
VERTEX
8
0
10
760.233896
20
196.702857
42
-0.056761
0
VERTEX
8
0
10
760.281111
20
196.288290
42
-0.078360
0
VERTEX
8
0
10
760.196939
20
195.754506
42
-0.096850
0
VERTEX
8
0
10
759.984385
20
195.370827
42
-0.098005
0
VERTEX
8
0
10
759.645719
20
195.098966
42
-0.077651
0
VERTEX
8
0
10
759.128314
20
194.924033
42
-0.030199
0
VERTEX
8
0
10
759.343144
20
194.773639
42
-0.043280
0
VERTEX
8
0
10
759.476199
20
194.647771
42
-0.027258
0
VERTEX
8
0
10
759.699473
20
194.350220
42
-0.025590
0
VERTEX
8
0
10
759.902529
20
194.009981
0
VERTEX
8
0
10
760.619
20
192.649
0
VERTEX
8
0
10
759.937
20
192.649
0
VERTEX
8
0
10
759.388
20
193.686
42
0.012344
0
VERTEX
8
0
10
759.062631
20
194.278455
42
0.030291
0
VERTEX
8
0
10
758.910033
20
194.507935
42
0.044966
0
VERTEX
8
0
10
758.731911
20
194.702639
42
0.072681
0
VERTEX
8
0
10
758.596254
20
194.794429
42
0.065697
0
VERTEX
8
0
10
758.430420
20
194.846714
42
0.043582
0
VERTEX
8
0
10
758.169924
20
194.869463
0
VERTEX
8
0
10
757.546
20
194.869
0
VERTEX
8
0
10
757.546
20
192.649
0
VERTEX
8
0
10
757.003
20
192.649
0
SEQEND
0
POLYLINE
70
0
62
7
8
0
66
1
0
VERTEX
8
0
10
757.546
20
195.442
0
VERTEX
8
0
10
758.712
20
195.442
42
0.039397
0
VERTEX
8
0
10
759.086023
20
195.471950
42
0.068833
0
VERTEX
8
0
10
759.292025
20
195.534538
42
0.076020
0
VERTEX
8
0
10
759.467598
20
195.653145
42
0.073150
0
VERTEX
8
0
10
759.605804
20
195.824442
42
0.069631
0
VERTEX
8
0
10
759.690550
20
196.033124
42
0.061759
0
VERTEX
8
0
10
759.721765
20
196.284879
42
0.089616
0
VERTEX
8
0
10
759.658478
20
196.635143
42
0.110358
0
VERTEX
8
0
10
759.500074
20
196.878331
42
0.110940
0
VERTEX
8
0
10
759.245294
20
197.031459
42
0.080220
0
VERTEX
8
0
10
758.841820
20
197.096612
0
VERTEX
8
0
10
757.546
20
197.097
0
VERTEX
8
0
10
757.546
20
195.442
0
SEQEND
0
POLYLINE
70
0
62
7
8
0
66
1
0
VERTEX
8
0
10
761.151
20
192.649
0
VERTEX
8
0
10
761.151
20
197.649
0
VERTEX
8
0
10
764.115
20
197.649
0
VERTEX
8
0
10
764.115
20
197.059
0
VERTEX
8
0
10
761.693
20
197.059
0
VERTEX
8
0
10
761.693
20
195.531
0
VERTEX
8
0
10
763.961
20
195.531
0
VERTEX
8
0
10
763.961
20
194.941
0
VERTEX
8
0
10
761.693
20
194.941
0
VERTEX
8
0
10
761.693
20
193.239
0
VERTEX
8
0
10
764.210
20
193.239
0
VERTEX
8
0
10
764.210
20
192.649
0
VERTEX
8
0
10
761.151
20
192.649
0
SEQEND
0
POLYLINE
70
0
62
7
8
0
66
1
0
VERTEX
8
0
10
764.776
20
194.259
0
VERTEX
8
0
10
765.288
20
194.314
42
0.044994
0
VERTEX
8
0
10
765.364613
20
193.911283
42
0.069687
0
VERTEX
8
0
10
765.472107
20
193.668917
42
0.072525
0
VERTEX
8
0
10
765.641087
20
193.468864
42
0.063444
0
VERTEX
8
0
10
765.888205
20
193.300568
42
0.066988
0
VERTEX
8
0
10
766.157580
20
193.199124
42
0.056658
0
VERTEX
8
0
10
766.495299
20
193.160732
42
0.076126
0
VERTEX
8
0
10
766.953054
20
193.230832
42
0.105471
0
VERTEX
8
0
10
767.245640
20
193.396066
42
0.108667
0
VERTEX
8
0
10
767.443096
20
193.666847
42
0.103764
0
VERTEX
8
0
10
767.515081
20
194.009981
42
0.062887
0
VERTEX
8
0
10
767.488375
20
194.221470
42
0.071269
0
VERTEX
8
0
10
767.416172
20
194.395384
42
0.071551
0
VERTEX
8
0
10
767.299152
20
194.540486
42
0.061178
0
VERTEX
8
0
10
767.122857
20
194.668235
42
0.036788
0
VERTEX
8
0
10
766.924665
20
194.754596
42
0.011665
0
VERTEX
8
0
10
766.277018
20
194.964961
42
-0.027268
0
VERTEX
8
0
10
765.714146
20
195.166841
42
-0.054405
0
VERTEX
8
0
10
765.451643
20
195.312846
42
-0.059953
0
VERTEX
8
0
10
765.228892
20
195.514634
42
-0.062915
0
VERTEX
8
0
10
765.069651
20
195.752819
42
-0.064556
0
VERTEX
8
0
10
764.970432
20
196.024648
42
-0.055318
0
VERTEX
8
0
10
764.933225
20
196.359913
42
-0.094367
0
VERTEX
8
0
10
765.040004
20
196.920641
42
-0.104271
0
VERTEX
8
0
10
765.325449
20
197.352410
42
-0.107721
0
VERTEX
8
0
10
765.761037
20
197.628033
42
-0.087610
0
VERTEX
8
0
10
766.382748
20
197.737812
42
-0.055742
0
VERTEX
8
0
10
766.822727
20
197.688609
42
-0.064755
0
VERTEX
8
0
10
767.180838
20
197.557048
42
-0.069954
0
VERTEX
8
0
10
767.487678
20
197.332040
42
-0.071983
0
VERTEX
8
0
10
767.712898
20
197.038631
42
-0.064819
0
VERTEX
8
0
10
767.853724
20
196.687569
42
-0.054639
0
VERTEX
8
0
10
767.917536
20
196.243951
0
VERTEX
8
0
10
767.396
20
196.196
42
0.075484
0
VERTEX
8
0
10
767.287279
20
196.649689
42
0.108318
0
VERTEX
8
0
10
767.102393
20
196.919258
42
0.108074
0
VERTEX
8
0
10
766.824316
20
197.085386
42
0.080978
0
VERTEX
8
0
10
766.399801
20
197.154593
42
0.072097
0
VERTEX
8
0
10
765.964862
20
197.091549
42
0.104685
0
VERTEX
8
0
10
765.697209
20
196.946543
42
0.112711
0
VERTEX
8
0
10
765.520071
20
196.714295
42
0.107185
0
VERTEX
8
0
10
765.455053
20
196.414483
42
0.040160
0
VERTEX
8
0
10
765.467700
20
196.257289
42
0.053667
0
VERTEX
8
0
10
765.498965
20
196.143337
42
0.053667
0
VERTEX
8
0
10
765.558198
20
196.030184
42
0.060239
0
VERTEX
8
0
10
765.632407
20
195.943815
42
0.091520
0
VERTEX
8
0
10
765.824776
20
195.815586
42
0.032882
0
VERTEX
8
0
10
766.427086
20
195.602751
42
-0.016263
0
VERTEX
8
0
10
767.010359
20
195.425376
42
-0.033990
0
VERTEX
8
0
10
767.279746
20
195.312846
42
-0.063519
0
VERTEX
8
0
10
767.620335
20
195.079203
42
-0.074496
0
VERTEX
8
0
10
767.845913
20
194.808071
42
-0.075488
0
VERTEX
8
0
10
767.986815
20
194.480695
42
-0.064023
0
VERTEX
8
0
10
768.040319
20
194.064552
42
-0.063123
0
VERTEX
8
0
10
767.988186
20
193.653247
42
-0.065667
0
VERTEX
8
0
10
767.839092
20
193.283515
42
-0.067461
0
VERTEX
8
0
10
767.592566
20
192.965926
42
-0.072400
0
VERTEX
8
0
10
767.289978
20
192.744633
42
-0.065456
0
VERTEX
8
0
10
766.926588
20
192.614198
42
-0.053524
0
VERTEX
8
0
10
766.457782
20
192.563869
42
-0.090244
0
VERTEX
8
0
10
765.745041
20
192.693567
42
-0.109594
0
VERTEX
8
0
10
765.243594
20
193.020895
42
-0.105101
0
VERTEX
8
0
10
764.916570
20
193.530744
42
-0.085527
0
VERTEX
8
0
10
764.776336
20
194.258958
0
SEQEND
0
POLYLINE
70
0
62
7
8
0
66
1
0
VERTEX
8
0
10
768.791
20
192.649
0
VERTEX
8
0
10
768.791
20
197.649
0
VERTEX
8
0
10
771.755
20
197.649
0
VERTEX
8
0
10
771.755
20
197.059
0
VERTEX
8
0
10
769.333
20
197.059
0
VERTEX
8
0
10
769.333
20
195.531
0
VERTEX
8
0
10
771.601
20
195.531
0
VERTEX
8
0
10
771.601
20
194.941
0
VERTEX
8
0
10
769.333
20
194.941
0
VERTEX
8
0
10
769.333
20
193.239
0
VERTEX
8
0
10
771.850
20
193.239
0
VERTEX
8
0
10
771.850
20
192.649
0
VERTEX
8
0
10
768.791
20
192.649
0
SEQEND
0
POLYLINE
70
0
62
7
8
0
66
1
0
VERTEX
8
0
10
773.651
20
192.649
0
VERTEX
8
0
10
773.651
20
197.059
0
VERTEX
8
0
10
772.300
20
197.059
0
VERTEX
8
0
10
772.300
20
197.649
0
VERTEX
8
0
10
775.551
20
197.649
0
VERTEX
8
0
10
775.551
20
197.059
0
VERTEX
8
0
10
774.193
20
197.059
0
VERTEX
8
0
10
774.193
20
192.649
0
VERTEX
8
0
10
773.651
20
192.649
0
SEQEND
0
POLYLINE
70
0
62
7
8
0
66
1
0
VERTEX
8
0
10
534.828
20
97.308
0
VERTEX
8
0
10
534.828
20
101.718
0
VERTEX
8
0
10
533.478
20
101.718
0
VERTEX
8
0
10
533.478
20
102.308
0
VERTEX
8
0
10
536.728
20
102.308
0
VERTEX
8
0
10
536.728
20
101.718
0
VERTEX
8
0
10
535.371
20
101.718
0
VERTEX
8
0
10
535.371
20
97.308
0
VERTEX
8
0
10
534.828
20
97.308
0
SEQEND
0
POLYLINE
70
0
62
7
8
0
66
1
0
VERTEX
8
0
10
537.287
20
97.308
0
VERTEX
8
0
10
537.287
20
102.308
0
VERTEX
8
0
10
540.251
20
102.308
0
VERTEX
8
0
10
540.251
20
101.718
0
VERTEX
8
0
10
537.830
20
101.718
0
VERTEX
8
0
10
537.830
20
100.190
0
VERTEX
8
0
10
540.098
20
100.190
0
VERTEX
8
0
10
540.098
20
99.600
0
VERTEX
8
0
10
537.830
20
99.600
0
VERTEX
8
0
10
537.830
20
97.898
0
VERTEX
8
0
10
540.347
20
97.898
0
VERTEX
8
0
10
540.347
20
97.308
0
VERTEX
8
0
10
537.287
20
97.308
0
SEQEND
0
POLYLINE
70
0
62
7
8
0
66
1
0
VERTEX
8
0
10
541.080
20
97.308
0
VERTEX
8
0
10
541.080
20
102.308
0
VERTEX
8
0
10
541.895
20
102.308
0
VERTEX
8
0
10
542.867
20
98.768
0
VERTEX
8
0
10
543.062
20
98.028
0
VERTEX
8
0
10
543.280
20
98.829
0
VERTEX
8
0
10
544.262
20
102.308
0
VERTEX
8
0
10
544.995
20
102.308
0
VERTEX
8
0
10
544.995
20
97.308
0
VERTEX
8
0
10
544.474
20
97.308
0
VERTEX
8
0
10
544.474
20
101.490
0
VERTEX
8
0
10
543.276
20
97.308
0
VERTEX
8
0
10
542.789
20
97.308
0
VERTEX
8
0
10
541.602
20
101.561
0
VERTEX
8
0
10
541.602
20
97.308
0
VERTEX
8
0
10
541.080
20
97.308
0
SEQEND
0
POLYLINE
70
0
62
7
8
0
66
1
0
VERTEX
8
0
10
545.865
20
97.308
0
VERTEX
8
0
10
545.865
20
102.308
0
VERTEX
8
0
10
547.410
20
102.308
42
-0.029532
0
VERTEX
8
0
10
547.939066
20
102.276960
42
-0.055357
0
VERTEX
8
0
10
548.215000
20
102.212732
42
-0.086159
0
VERTEX
8
0
10
548.524513
20
102.030447
42
-0.078500
0
VERTEX
8
0
10
548.781167
20
101.731832
42
-0.074091
0
VERTEX
8
0
10
548.933372
20
101.359685
42
-0.060153
0
VERTEX
8
0
10
548.992626
20
100.868940
42
-0.075911
0
VERTEX
8
0
10
548.894843
20
100.228582
42
-0.094296
0
VERTEX
8
0
10
548.648152
20
99.767303
42
-0.137442
0
VERTEX
8
0
10
548.238355
20
99.476534
42
-0.086195
0
VERTEX
8
0
10
547.457838
20
99.340973
0
VERTEX
8
0
10
546.407
20
99.341
0
VERTEX
8
0
10
546.407
20
97.308
0
VERTEX
8
0
10
545.865
20
97.308
0
SEQEND
0
POLYLINE
70
0
62
7
8
0
66
1
0
VERTEX
8
0
10
546.407
20
99.931
0
VERTEX
8
0
10
547.468
20
99.931
42
0.074599
0
VERTEX
8
0
10
547.937748
20
100.001481
42
0.116861
0
VERTEX
8
0
10
548.201358
20
100.156116
42
0.118148
0
VERTEX
8
0
10
548.362670
20
100.412599
42
0.081737
0
VERTEX
8
0
10
548.433281
20
100.841655
42
0.056146
0
VERTEX
8
0
10
548.401845
20
101.120724
42
0.064631
0
VERTEX
8
0
10
548.317320
20
101.349840
42
0.067307
0
VERTEX
8
0
10
548.183705
20
101.534297
42
0.086677
0
VERTEX
8
0
10
548.041058
20
101.639745
42
0.076307
0
VERTEX
8
0
10
547.867598
20
101.690756
42
0.033438
0
VERTEX
8
0
10
547.457838
20
101.718189
0
VERTEX
8
0
10
546.407
20
101.718
0
VERTEX
8
0
10
546.407
20
99.931
0
SEQEND
0
POLYLINE
70
0
62
7
8
0
66
1
0
VERTEX
8
0
10
549.245
20
97.226
0
VERTEX
8
0
10
550.429
20
102.393
0
VERTEX
8
0
10
550.838
20
102.393
0
VERTEX
8
0
10
549.647
20
97.226
0
VERTEX
8
0
10
549.245
20
97.226
0
SEQEND
0
POLYLINE
70
0
62
7
8
0
66
1
0
VERTEX
8
0
10
552.332
20
97.308
0
VERTEX
8
0
10
552.332
20
101.718
0
VERTEX
8
0
10
550.981
20
101.718
0
VERTEX
8
0
10
550.981
20
102.308
0
VERTEX
8
0
10
554.231
20
102.308
0
VERTEX
8
0
10
554.231
20
101.718
0
VERTEX
8
0
10
552.874
20
101.718
0
VERTEX
8
0
10
552.874
20
97.308
0
VERTEX
8
0
10
552.332
20
97.308
0
SEQEND
0
POLYLINE
70
0
62
7
8
0
66
1
0
VERTEX
8
0
10
554.883
20
97.308
0
VERTEX
8
0
10
554.883
20
102.308
0
VERTEX
8
0
10
555.425
20
102.308
0
VERTEX
8
0
10
555.425
20
97.308
0
VERTEX
8
0
10
554.883
20
97.308
0
SEQEND
0
POLYLINE
70
0
62
7
8
0
66
1
0
VERTEX
8
0
10
556.356
20
97.308
0
VERTEX
8
0
10
556.356
20
102.308
0
VERTEX
8
0
10
557.171
20
102.308
0
VERTEX
8
0
10
558.143
20
98.768
0
VERTEX
8
0
10
558.338
20
98.028
0
VERTEX
8
0
10
558.556
20
98.829
0
VERTEX
8
0
10
559.538
20
102.308
0
VERTEX
8
0
10
560.272
20
102.308
0
VERTEX
8
0
10
560.272
20
97.308
0
VERTEX
8
0
10
559.750
20
97.308
0
VERTEX
8
0
10
559.750
20
101.490
0
VERTEX
8
0
10
558.553
20
97.308
0
VERTEX
8
0
10
558.065
20
97.308
0
VERTEX
8
0
10
556.878
20
101.561
0
VERTEX
8
0
10
556.878
20
97.308
0
VERTEX
8
0
10
556.356
20
97.308
0
SEQEND
0
POLYLINE
70
0
62
7
8
0
66
1
0
VERTEX
8
0
10
561.155
20
97.308
0
VERTEX
8
0
10
561.155
20
102.308
0
VERTEX
8
0
10
564.119
20
102.308
0
VERTEX
8
0
10
564.119
20
101.718
0
VERTEX
8
0
10
561.697
20
101.718
0
VERTEX
8
0
10
561.697
20
100.190
0
VERTEX
8
0
10
563.965
20
100.190
0
VERTEX
8
0
10
563.965
20
99.600
0
VERTEX
8
0
10
561.697
20
99.600
0
VERTEX
8
0
10
561.697
20
97.898
0
VERTEX
8
0
10
564.214
20
97.898
0
VERTEX
8
0
10
564.214
20
97.308
0
VERTEX
8
0
10
561.155
20
97.308
0
SEQEND
0
POLYLINE
70
0
62
7
8
0
66
1
0
VERTEX
8
0
10
564.961
20
97.308
0
VERTEX
8
0
10
564.961
20
102.308
0
VERTEX
8
0
10
566.779
20
102.308
42
-0.041311
0
VERTEX
8
0
10
567.332648
20
102.262419
42
-0.076654
0
VERTEX
8
0
10
567.618138
20
102.168394
42
-0.080612
0
VERTEX
8
0
10
567.858518
20
101.986826
42
-0.068778
0
VERTEX
8
0
10
568.064932
20
101.701136
42
-0.065477
0
VERTEX
8
0
10
568.191661
20
101.361952
42
-0.056761
0
VERTEX
8
0
10
568.238875
20
100.947385
42
-0.078360
0
VERTEX
8
0
10
568.154703
20
100.413601
42
-0.096850
0
VERTEX
8
0
10
567.942149
20
100.029922
42
-0.098005
0
VERTEX
8
0
10
567.603483
20
99.758061
42
-0.077651
0
VERTEX
8
0
10
567.086078
20
99.583128
42
-0.030199
0
VERTEX
8
0
10
567.300909
20
99.432734
42
-0.043280
0
VERTEX
8
0
10
567.433963
20
99.306866
42
-0.027258
0
VERTEX
8
0
10
567.657237
20
99.009314
42
-0.025590
0
VERTEX
8
0
10
567.860294
20
98.669076
0
VERTEX
8
0
10
568.577
20
97.308
0
VERTEX
8
0
10
567.894
20
97.308
0
VERTEX
8
0
10
567.345
20
98.345
42
0.012344
0
VERTEX
8
0
10
567.020395
20
98.937550
42
0.030291
0
VERTEX
8
0
10
566.867797
20
99.167030
42
0.044966
0
VERTEX
8
0
10
566.689675
20
99.361734
42
0.072681
0
VERTEX
8
0
10
566.554018
20
99.453524
42
0.065697
0
VERTEX
8
0
10
566.388184
20
99.505809
42
0.043582
0
VERTEX
8
0
10
566.127688
20
99.528558
0
VERTEX
8
0
10
565.504
20
99.529
0
VERTEX
8
0
10
565.504
20
97.308
0
VERTEX
8
0
10
564.961
20
97.308
0
SEQEND
0
POLYLINE
70
0
62
7
8
0
66
1
0
VERTEX
8
0
10
565.504
20
100.102
0
VERTEX
8
0
10
566.670
20
100.102
42
0.039397
0
VERTEX
8
0
10
567.043787
20
100.131045
42
0.068833
0
VERTEX
8
0
10
567.249789
20
100.193633
42
0.076020
0
VERTEX
8
0
10
567.425362
20
100.312240
42
0.073150
0
VERTEX
8
0
10
567.563568
20
100.483537
42
0.069631
0
VERTEX
8
0
10
567.648315
20
100.692219
42
0.061759
0
VERTEX
8
0
10
567.679530
20
100.943974
42
0.089616
0
VERTEX
8
0
10
567.616243
20
101.294238
42
0.110358
0
VERTEX
8
0
10
567.457838
20
101.537425
42
0.110940
0
VERTEX
8
0
10
567.203059
20
101.690554
42
0.080220
0
VERTEX
8
0
10
566.799584
20
101.755707
0
VERTEX
8
0
10
565.504
20
101.756
0
VERTEX
8
0
10
565.504
20
100.102
0
SEQEND
0
POLYLINE
70
1
62
7
8
0
66
1
0
VERTEX
8
0
10
487.027
20
128.522
42
-0.414214
0
VERTEX
8
0
10
481.027074
20
122.522234
42
-0.414214
0
VERTEX
8
0
10
475.027074
20
128.522234
42
-0.414214
0
VERTEX
8
0
10
481.027074
20
134.522234
42
-0.414214
0
VERTEX
8
0
10
487.027074
20
128.522234
0
SEQEND
0
POLYLINE
70
1
62
7
8
0
66
1
0
VERTEX
8
0
10
507.027
20
128.522
42
-0.414214
0
VERTEX
8
0
10
501.027074
20
122.522234
42
-0.414214
0
VERTEX
8
0
10
495.027074
20
128.522234
42
-0.414214
0
VERTEX
8
0
10
501.027074
20
134.522234
42
-0.414214
0
VERTEX
8
0
10
507.027074
20
128.522234
0
SEQEND
0
POLYLINE
70
1
62
7
8
0
66
1
0
VERTEX
8
0
10
607.027
20
128.522
42
-0.414214
0
VERTEX
8
0
10
601.027074
20
122.522234
42
-0.414214
0
VERTEX
8
0
10
595.027074
20
128.522234
42
-0.414214
0
VERTEX
8
0
10
601.027074
20
134.522234
42
-0.414214
0
VERTEX
8
0
10
607.027074
20
128.522234
0
SEQEND
0
POLYLINE
70
1
62
7
8
0
66
1
0
VERTEX
8
0
10
627.027
20
128.522
42
-0.414214
0
VERTEX
8
0
10
621.027074
20
122.522234
42
-0.414214
0
VERTEX
8
0
10
615.027074
20
128.522234
42
-0.414214
0
VERTEX
8
0
10
621.027074
20
134.522234
42
-0.414214
0
VERTEX
8
0
10
627.027074
20
128.522234
0
SEQEND
0
POLYLINE
70
1
62
7
8
0
66
1
0
VERTEX
8
0
10
595.027
20
71.098
42
-0.414214
0
VERTEX
8
0
10
601.027074
20
77.097637
42
-0.414214
0
VERTEX
8
0
10
607.027074
20
71.097637
42
-0.414214
0
VERTEX
8
0
10
601.027074
20
65.097637
42
-0.414214
0
VERTEX
8
0
10
595.027074
20
71.097637
0
SEQEND
0
POLYLINE
70
1
62
7
8
0
66
1
0
VERTEX
8
0
10
575.027
20
71.098
42
-0.414214
0
VERTEX
8
0
10
581.027074
20
77.097637
42
-0.414214
0
VERTEX
8
0
10
587.027074
20
71.097637
42
-0.414214
0
VERTEX
8
0
10
581.027074
20
65.097637
42
-0.414214
0
VERTEX
8
0
10
575.027074
20
71.097637
0
SEQEND
0
POLYLINE
70
1
62
7
8
0
66
1
0
VERTEX
8
0
10
555.027
20
71.098
42
-0.414214
0
VERTEX
8
0
10
561.027074
20
77.097637
42
-0.414214
0
VERTEX
8
0
10
567.027074
20
71.097637
42
-0.414214
0
VERTEX
8
0
10
561.027074
20
65.097637
42
-0.414214
0
VERTEX
8
0
10
555.027074
20
71.097637
0
SEQEND
0
POLYLINE
70
1
62
7
8
0
66
1
0
VERTEX
8
0
10
535.027
20
71.098
42
-0.414214
0
VERTEX
8
0
10
541.027074
20
77.097637
42
-0.414214
0
VERTEX
8
0
10
547.027074
20
71.097637
42
-0.414214
0
VERTEX
8
0
10
541.027074
20
65.097637
42
-0.414214
0
VERTEX
8
0
10
535.027074
20
71.097637
0
SEQEND
0
POLYLINE
70
1
62
7
8
0
66
1
0
VERTEX
8
0
10
515.027
20
71.098
42
-0.414214
0
VERTEX
8
0
10
521.027074
20
77.097637
42
-0.414214
0
VERTEX
8
0
10
527.027074
20
71.097637
42
-0.414214
0
VERTEX
8
0
10
521.027074
20
65.097637
42
-0.414214
0
VERTEX
8
0
10
515.027074
20
71.097637
0
SEQEND
0
POLYLINE
70
1
62
7
8
0
66
1
0
VERTEX
8
0
10
495.027
20
71.098
42
-0.414214
0
VERTEX
8
0
10
501.027074
20
77.097637
42
-0.414214
0
VERTEX
8
0
10
507.027074
20
71.097637
42
-0.414214
0
VERTEX
8
0
10
501.027074
20
65.097637
42
-0.414214
0
VERTEX
8
0
10
495.027074
20
71.097637
0
SEQEND
0
POLYLINE
70
1
62
7
8
0
66
1
0
VERTEX
8
0
10
475.027
20
71.098
42
-0.414214
0
VERTEX
8
0
10
481.027074
20
77.097637
42
-0.414214
0
VERTEX
8
0
10
487.027074
20
71.097637
42
-0.414214
0
VERTEX
8
0
10
481.027074
20
65.097637
42
-0.414214
0
VERTEX
8
0
10
475.027074
20
71.097637
0
SEQEND
0
POLYLINE
70
1
62
7
8
0
66
1
0
VERTEX
8
0
10
481.783
20
126.012
0
VERTEX
8
0
10
481.278
20
126.012
0
VERTEX
8
0
10
481.278
20
129.924
42
-0.033687
0
VERTEX
8
0
10
481.094531
20
129.735747
42
-0.024149
0
VERTEX
8
0
10
480.810498
20
129.504499
42
-0.022517
0
VERTEX
8
0
10
480.506333
20
129.304473
42
-0.031079
0
VERTEX
8
0
10
480.271617
20
129.183899
0
VERTEX
8
0
10
480.272
20
129.777
42
0.038873
0
VERTEX
8
0
10
480.666186
20
130.043938
42
0.039926
0
VERTEX
8
0
10
481.004905
20
130.360570
42
0.039099
0
VERTEX
8
0
10
481.290046
20
130.721593
42
0.051159
0
VERTEX
8
0
10
481.455109
20
131.032466
0
VERTEX
8
0
10
481.783
20
131.032
0
VERTEX
8
0
10
481.783
20
126.012
0
SEQEND
0
POLYLINE
70
1
62
7
8
0
66
1
0
VERTEX
8
0
10
502.383
20
126.602
0
VERTEX
8
0
10
502.383
20
126.012
0
VERTEX
8
0
10
499.672
20
126.012
42
-0.072750
0
VERTEX
8
0
10
499.712027
20
126.357189
42
-0.051623
0
VERTEX
8
0
10
499.886437
20
126.813503
42
-0.049703
0
VERTEX
8
0
10
500.151227
20
127.224591
42
-0.028468
0
VERTEX
8
0
10
500.718633
20
127.860570
42
0.021207
0
VERTEX
8
0
10
501.382950
20
128.578504
42
0.045942
0
VERTEX
8
0
10
501.642917
20
128.948564
42
0.053384
0
VERTEX
8
0
10
501.814664
20
129.350495
42
0.074425
0
VERTEX
8
0
10
501.861198
20
129.661389
42
0.086751
0
VERTEX
8
0
10
501.798454
20
130.020299
42
0.101928
0
VERTEX
8
0
10
501.636096
20
130.285536
42
0.101096
0
VERTEX
8
0
10
501.382403
20
130.465444
42
0.104210
0
VERTEX
8
0
10
501.086983
20
130.527691
42
0.107289
0
VERTEX
8
0
10
500.768792
20
130.458620
42
0.108278
0
VERTEX
8
0
10
500.510584
20
130.265072
42
0.104848
0
VERTEX
8
0
10
500.353208
20
129.978980
42
0.073628
0
VERTEX
8
0
10
500.285482
20
129.521552
0
VERTEX
8
0
10
499.767
20
129.586
42
-0.072077
0
VERTEX
8
0
10
499.914218
20
130.259526
42
-0.103365
0
VERTEX
8
0
10
500.172931
20
130.667528
42
-0.106941
0
VERTEX
8
0
10
500.570220
20
130.931590
42
-0.093657
0
VERTEX
8
0
10
501.104036
20
131.032466
42
-0.105276
0
VERTEX
8
0
10
501.668090
20
130.912373
42
-0.124673
0
VERTEX
8
0
10
502.052194
20
130.609547
42
-0.081258
0
VERTEX
8
0
10
502.293106
20
130.154710
42
-0.081414
0
VERTEX
8
0
10
502.376205
20
129.647746
42
-0.067214
0
VERTEX
8
0
10
502.314343
20
129.189636
42
-0.062441
0
VERTEX
8
0
10
502.123818
20
128.730283
42
-0.039038
0
VERTEX
8
0
10
501.830700
20
128.310681
42
-0.019955
0
VERTEX
8
0
10
501.165427
20
127.563844
42
0.006342
0
VERTEX
8
0
10
500.737494
20
127.114933
42
0.016621
0
VERTEX
8
0
10
500.582208
20
126.936286
42
0.025811
0
VERTEX
8
0
10
500.469412
20
126.776842
42
0.025114
0
VERTEX
8
0
10
500.370748
20
126.602043
0
VERTEX
8
0
10
502.383
20
126.602
0
SEQEND
0
POLYLINE
70
1
62
7
8
0
66
1
0
VERTEX
8
0
10
599.702
20
130.400
0
VERTEX
8
0
10
599.702
20
130.990
0
VERTEX
8
0
10
602.352
20
130.990
0
VERTEX
8
0
10
602.352
20
130.512
42
0.044006
0
VERTEX
8
0
10
601.832804
20
129.696963
42
0.032605
0
VERTEX
8
0
10
601.308452
20
128.503476
42
0.035052
0
VERTEX
8
0
10
600.947193
20
127.240959
42
0.038474
0
VERTEX
8
0
10
600.790034
20
126.054635
0
VERTEX
8
0
10
600.275
20
126.055
42
-0.029506
0
VERTEX
8
0
10
600.322450
20
126.682498
42
-0.021881
0
VERTEX
8
0
10
600.472845
20
127.517801
42
-0.022868
0
VERTEX
8
0
10
600.704627
20
128.358761
42
-0.024795
0
VERTEX
8
0
10
600.991262
20
129.110570
42
-0.022816
0
VERTEX
8
0
10
601.362439
20
129.860777
42
-0.029936
0
VERTEX
8
0
10
601.704086
20
130.399792
0
VERTEX
8
0
10
599.702
20
130.400
0
SEQEND
0
POLYLINE
70
0
62
7
8
0
66
1
0
VERTEX
8
0
10
620.452
20
128.766
42
-0.069976
0
VERTEX
8
0
10
620.183711
20
128.937889
42
-0.078359
0
VERTEX
8
0
10
619.998766
20
129.154908
42
-0.075907
0
VERTEX
8
0
10
619.888988
20
129.422811
42
-0.059413
0
VERTEX
8
0
10
619.845287
20
129.789288
42
-0.086670
0
VERTEX
8
0
10
619.938904
20
130.325307
42
-0.102906
0
VERTEX
8
0
10
620.179530
20
130.716982
42
-0.105504
0
VERTEX
8
0
10
620.553670
20
130.979696
42
-0.100829
0
VERTEX
8
0
10
621.021958
20
131.075099
42
-0.102184
0
VERTEX
8
0
10
621.486732
20
130.979112
42
-0.104012
0
VERTEX
8
0
10
621.867797
20
130.710161
42
-0.098906
0
VERTEX
8
0
10
622.115302
20
130.301698
42
-0.087121
0
VERTEX
8
0
10
622.208861
20
129.768824
42
-0.060008
0
VERTEX
8
0
10
622.166843
20
129.419974
42
-0.073797
0
VERTEX
8
0
10
622.058793
20
129.154908
42
-0.078359
0
VERTEX
8
0
10
621.873848
20
128.937889
42
-0.069976
0
VERTEX
8
0
10
621.605178
20
128.766095
42
-0.077970
0
VERTEX
8
0
10
621.936417
20
128.568204
42
-0.082527
0
VERTEX
8
0
10
622.174755
20
128.292016
42
-0.076218
0
VERTEX
8
0
10
622.319137
20
127.945841
42
-0.060825
0
VERTEX
8
0
10
622.375983
20
127.480283
42
-0.085767
0
VERTEX
8
0
10
622.267244
20
126.851029
42
-0.101650
0
VERTEX
8
0
10
621.987169
20
126.388878
42
-0.104720
0
VERTEX
8
0
10
621.554959
20
126.079486
42
-0.103517
0
VERTEX
8
0
10
621.028779
20
125.969369
42
-0.102860
0
VERTEX
8
0
10
620.496063
20
126.080132
42
-0.105377
0
VERTEX
8
0
10
620.063568
20
126.388878
42
-0.103574
0
VERTEX
8
0
10
619.787876
20
126.847730
42
-0.083850
0
VERTEX
8
0
10
619.678165
20
127.497337
42
-0.060833
0
VERTEX
8
0
10
619.737494
20
127.983163
42
-0.080843
0
VERTEX
8
0
10
619.882804
20
128.322712
42
-0.087910
0
VERTEX
8
0
10
620.127394
20
128.593849
42
-0.087266
0
VERTEX
8
0
10
620.452381
20
128.766095
0
SEQEND
0
POLYLINE
70
0
62
7
8
0
66
1
0
VERTEX
8
0
10
620.360
20
129.806
42
0.035263
0
VERTEX
8
0
10
620.373694
20
129.616567
42
0.046448
0
VERTEX
8
0
10
620.407190
20
129.475935
42
0.046448
0
VERTEX
8
0
10
620.471242
20
129.332305
42
0.052909
0
VERTEX
8
0
10
620.551289
20
129.219710
42
0.103493
0
VERTEX
8
0
10
620.770315
20
129.060315
42
0.106109
0
VERTEX
8
0
10
621.028779
20
129.004840
42
0.105957
0
VERTEX
8
0
10
621.283865
20
129.059510
42
0.103645
0
VERTEX
8
0
10
621.499448
20
129.216300
42
0.100092
0
VERTEX
8
0
10
621.639496
20
129.452111
42
0.084299
0
VERTEX
8
0
10
621.693854
20
129.772234
42
0.084635
0
VERTEX
8
0
10
621.637687
20
130.101678
42
0.100062
0
VERTEX
8
0
10
621.492626
20
130.345222
42
0.100199
0
VERTEX
8
0
10
621.267995
20
130.514516
42
0.111991
0
VERTEX
8
0
10
621.021958
20
130.570324
42
0.109693
0
VERTEX
8
0
10
620.776392
20
130.515794
42
0.099913
0
VERTEX
8
0
10
620.554700
20
130.352043
42
0.095669
0
VERTEX
8
0
10
620.413123
20
130.112059
42
0.085767
0
VERTEX
8
0
10
620.360294
20
129.806341
0
SEQEND
0
POLYLINE
70
0
62
7
8
0
66
1
0
VERTEX
8
0
10
620.193
20
127.497
42
0.036600
0
VERTEX
8
0
10
620.210341
20
127.263110
42
0.045858
0
VERTEX
8
0
10
620.254564
20
127.080812
42
0.045858
0
VERTEX
8
0
10
620.335880
20
126.899353
42
0.051193
0
VERTEX
8
0
10
620.438738
20
126.753817
42
0.103020
0
VERTEX
8
0
10
620.714915
20
126.544763
42
0.111110
0
VERTEX
8
0
10
621.028779
20
126.474144
42
0.108710
0
VERTEX
8
0
10
621.345038
20
126.543728
42
0.103117
0
VERTEX
8
0
10
621.618820
20
126.746996
42
0.101628
0
VERTEX
8
0
10
621.791438
20
127.046456
42
0.080259
0
VERTEX
8
0
10
621.860976
20
127.476873
42
0.081307
0
VERTEX
8
0
10
621.790829
20
127.905391
42
0.098575
0
VERTEX
8
0
10
621.611999
20
128.216982
42
0.100375
0
VERTEX
8
0
10
621.328196
20
128.429588
42
0.111171
0
VERTEX
8
0
10
621.015137
20
128.500065
42
0.112253
0
VERTEX
8
0
10
620.707216
20
128.430053
42
0.102217
0
VERTEX
8
0
10
620.431917
20
128.220393
42
0.097358
0
VERTEX
8
0
10
620.260528
20
127.916151
42
0.079899
0
VERTEX
8
0
10
620.193172
20
127.497337
0
SEQEND
0
POLYLINE
70
0
62
7
8
0
66
1
0
VERTEX
8
0
10
479.753
20
69.786
0
VERTEX
8
0
10
480.238
20
69.841
42
0.056171
0
VERTEX
8
0
10
480.340346
20
69.443418
42
0.099823
0
VERTEX
8
0
10
480.464744
20
69.246938
42
0.099823
0
VERTEX
8
0
10
480.675310
20
69.100273
42
0.102711
0
VERTEX
8
0
10
480.919639
20
69.049547
42
0.089522
0
VERTEX
8
0
10
481.160086
20
69.092945
42
0.087059
0
VERTEX
8
0
10
481.376665
20
69.220079
42
0.086857
0
VERTEX
8
0
10
481.546461
20
69.424547
42
0.051292
0
VERTEX
8
0
10
481.727961
20
69.833994
42
0.044058
0
VERTEX
8
0
10
481.830921
20
70.280360
42
0.034674
0
VERTEX
8
0
10
481.871208
20
70.860597
0
VERTEX
8
0
10
481.871
20
70.983
42
-0.061187
0
VERTEX
8
0
10
481.680014
20
70.703381
42
-0.067700
0
VERTEX
8
0
10
481.448288
20
70.502480
42
-0.069197
0
VERTEX
8
0
10
481.171861
20
70.367497
42
-0.079185
0
VERTEX
8
0
10
480.905996
20
70.325127
42
-0.117231
0
VERTEX
8
0
10
480.451068
20
70.433276
42
-0.103835
0
VERTEX
8
0
10
480.039693
20
70.761689
42
-0.099741
0
VERTEX
8
0
10
479.784854
20
71.237946
42
-0.073255
0
VERTEX
8
0
10
479.678165
20
71.962235
42
-0.073884
0
VERTEX
8
0
10
479.789301
20
72.710221
42
-0.101393
0
VERTEX
8
0
10
480.053336
20
73.196887
42
-0.103474
0
VERTEX
8
0
10
480.487394
20
73.537526
42
-0.115301
0
VERTEX
8
0
10
480.970798
20
73.650502
42
-0.085279
0
VERTEX
8
0
10
481.328267
20
73.589086
42
-0.076565
0
VERTEX
8
0
10
481.683622
20
73.398115
42
-0.076377
0
VERTEX
8
0
10
481.961320
20
73.103078
42
-0.061052
0
VERTEX
8
0
10
482.195219
20
72.654595
42
-0.055703
0
VERTEX
8
0
10
482.318148
20
72.148571
42
-0.031766
0
VERTEX
8
0
10
482.375983
20
71.239179
42
-0.030245
0
VERTEX
8
0
10
482.314140
20
70.217752
42
-0.052271
0
VERTEX
8
0
10
482.181576
20
69.639588
42
-0.059780
0
VERTEX
8
0
10
481.929328
20
69.112716
42
-0.085098
0
VERTEX
8
0
10
481.652927
20
68.807391
42
-0.083999
0
VERTEX
8
0
10
481.301100
20
68.611915
42
-0.085088
0
VERTEX
8
0
10
480.909407
20
68.544772
42
-0.096741
0
VERTEX
8
0
10
480.475917
20
68.629437
42
-0.102295
0
VERTEX
8
0
10
480.128370
20
68.861962
42
-0.100287
0
VERTEX
8
0
10
479.895575
20
69.213061
42
-0.071180
0
VERTEX
8
0
10
479.753199
20
69.786246
0
SEQEND
0
POLYLINE
70
0
62
7
8
0
66
1
0
VERTEX
8
0
10
481.817
20
71.993
42
0.070090
0
VERTEX
8
0
10
481.744993
20
72.501504
42
0.096445
0
VERTEX
8
0
10
481.574482
20
72.835359
42
0.100906
0
VERTEX
8
0
10
481.300786
20
73.073278
42
0.129327
0
VERTEX
8
0
10
481.025369
20
73.145727
42
0.130359
0
VERTEX
8
0
10
480.740831
20
73.070260
42
0.097578
0
VERTEX
8
0
10
480.445560
20
72.814895
42
0.095744
0
VERTEX
8
0
10
480.267457
20
72.466262
42
0.070464
0
VERTEX
8
0
10
480.193172
20
71.941771
42
0.033561
0
VERTEX
8
0
10
480.210262
20
71.687442
42
0.044467
0
VERTEX
8
0
10
480.252858
20
71.499666
42
0.044467
0
VERTEX
8
0
10
480.335233
20
71.305277
42
0.052597
0
VERTEX
8
0
10
480.435328
20
71.157323
42
0.104783
0
VERTEX
8
0
10
480.708505
20
70.939805
42
0.116434
0
VERTEX
8
0
10
481.015137
20
70.867419
42
0.120072
0
VERTEX
8
0
10
481.317629
20
70.941123
42
0.108661
0
VERTEX
8
0
10
481.581303
20
71.160734
42
0.101197
0
VERTEX
8
0
10
481.745172
20
71.477584
42
0.069007
0
VERTEX
8
0
10
481.816637
20
71.992930
0
SEQEND
0
POLYLINE
70
0
62
7
8
0
66
1
0
VERTEX
8
0
10
499.801
20
68.630
0
VERTEX
8
0
10
499.296
20
68.630
0
VERTEX
8
0
10
499.296
20
72.542
42
-0.033687
0
VERTEX
8
0
10
499.112948
20
72.353783
42
-0.024149
0
VERTEX
8
0
10
498.828916
20
72.122535
42
-0.022517
0
VERTEX
8
0
10
498.524751
20
71.922509
42
-0.031079
0
VERTEX
8
0
10
498.290034
20
71.801934
0
VERTEX
8
0
10
498.290
20
72.395
42
0.038873
0
VERTEX
8
0
10
498.684603
20
72.661973
42
0.039926
0
VERTEX
8
0
10
499.023322
20
72.978606
42
0.039099
0
VERTEX
8
0
10
499.308464
20
73.339629
42
0.051159
0
VERTEX
8
0
10
499.473527
20
73.650502
0
VERTEX
8
0
10
499.801
20
73.651
0
VERTEX
8
0
10
499.801
20
68.630
0
SEQEND
0
POLYLINE
70
0
62
7
8
0
66
1
0
VERTEX
8
0
10
501.090
20
71.096
42
-0.043849
0
VERTEX
8
0
10
501.198283
20
72.326338
42
-0.076143
0
VERTEX
8
0
10
501.427824
20
73.002480
42
-0.057674
0
VERTEX
8
0
10
501.631394
20
73.301489
42
-0.073324
0
VERTEX
8
0
10
501.847333
20
73.487644
42
-0.073324
0
VERTEX
8
0
10
502.116674
20
73.607501
42
-0.068181
0
VERTEX
8
0
10
502.430553
20
73.650502
42
-0.129913
0
VERTEX
8
0
10
502.941511
20
73.515462
42
-0.120512
0
VERTEX
8
0
10
503.354837
20
73.125263
42
-0.093762
0
VERTEX
8
0
10
503.628827
20
72.451030
42
-0.049794
0
VERTEX
8
0
10
503.764113
20
71.095932
42
-0.043926
0
VERTEX
8
0
10
503.656108
20
69.868910
42
-0.076066
0
VERTEX
8
0
10
503.426460
20
69.192794
42
-0.058160
0
VERTEX
8
0
10
503.223482
20
68.893192
42
-0.073743
0
VERTEX
8
0
10
503.006951
20
68.706351
42
-0.073743
0
VERTEX
8
0
10
502.739451
20
68.587698
42
-0.067670
0
VERTEX
8
0
10
502.423732
20
68.544772
42
-0.135135
0
VERTEX
8
0
10
501.911769
20
68.685714
42
-0.114467
0
VERTEX
8
0
10
501.461931
20
69.117760
42
-0.098281
0
VERTEX
8
0
10
501.217776
20
69.726046
42
-0.046474
0
VERTEX
8
0
10
501.090171
20
71.095932
0
SEQEND
0
POLYLINE
70
0
62
7
8
0
66
1
0
VERTEX
8
0
10
501.605
20
71.096
42
0.014021
0
VERTEX
8
0
10
501.621208
20
70.524354
42
0.017899
0
VERTEX
8
0
10
501.662306
20
70.078282
42
0.017899
0
VERTEX
8
0
10
501.695397
20
69.877647
42
0.022393
0
VERTEX
8
0
10
501.734675
20
69.719898
42
0.022393
0
VERTEX
8
0
10
501.789828
20
69.560745
42
0.034543
0
VERTEX
8
0
10
501.837101
20
69.462235
42
0.113490
0
VERTEX
8
0
10
502.127492
20
69.145793
42
0.151720
0
VERTEX
8
0
10
502.437374
20
69.049547
42
0.158597
0
VERTEX
8
0
10
502.727649
20
69.143996
42
0.110381
0
VERTEX
8
0
10
503.013772
20
69.469056
42
0.092153
0
VERTEX
8
0
10
503.163837
20
69.910848
42
0.035930
0
VERTEX
8
0
10
503.249107
20
71.095932
42
0.035782
0
VERTEX
8
0
10
503.163018
20
72.297366
42
0.094976
0
VERTEX
8
0
10
503.013772
20
72.729629
42
0.113853
0
VERTEX
8
0
10
502.720818
20
73.048405
42
0.151354
0
VERTEX
8
0
10
502.406678
20
73.145727
42
0.160312
0
VERTEX
8
0
10
502.121357
20
73.051833
42
0.108688
0
VERTEX
8
0
10
501.833691
20
72.722808
42
0.090838
0
VERTEX
8
0
10
501.688286
20
72.285101
42
0.034901
0
VERTEX
8
0
10
501.605178
20
71.095932
0
SEQEND
0
POLYLINE
70
0
62
7
8
0
66
1
0
VERTEX
8
0
10
520.400
20
68.587
0
VERTEX
8
0
10
519.895
20
68.587
0
VERTEX
8
0
10
519.895
20
72.499
42
-0.033687
0
VERTEX
8
0
10
519.711516
20
72.311150
42
-0.024149
0
VERTEX
8
0
10
519.427483
20
72.079902
42
-0.022517
0
VERTEX
8
0
10
519.123318
20
71.879876
42
-0.031079
0
VERTEX
8
0
10
518.888602
20
71.759301
0
VERTEX
8
0
10
518.889
20
72.353
42
0.038873
0
VERTEX
8
0
10
519.283171
20
72.619340
42
0.039926
0
VERTEX
8
0
10
519.621890
20
72.935973
42
0.039099
0
VERTEX
8
0
10
519.907031
20
73.296996
42
0.051159
0
VERTEX
8
0
10
520.072094
20
73.607869
0
VERTEX
8
0
10
520.400
20
73.608
0
VERTEX
8
0
10
520.400
20
68.587
0
SEQEND
0
POLYLINE
70
0
62
7
8
0
66
1
0
VERTEX
8
0
10
523.166
20
68.587
0
VERTEX
8
0
10
522.661
20
68.587
0
VERTEX
8
0
10
522.661
20
72.499
42
-0.033687
0
VERTEX
8
0
10
522.477546
20
72.311150
42
-0.024149
0
VERTEX
8
0
10
522.193513
20
72.079902
42
-0.022517
0
VERTEX
8
0
10
521.889348
20
71.879876
42
-0.031079
0
VERTEX
8
0
10
521.654632
20
71.759301
0
VERTEX
8
0
10
521.655
20
72.353
42
0.038873
0
VERTEX
8
0
10
522.049201
20
72.619340
42
0.039926
0
VERTEX
8
0
10
522.387920
20
72.935973
42
0.039099
0
VERTEX
8
0
10
522.673061
20
73.296996
42
0.051159
0
VERTEX
8
0
10
522.838124
20
73.607869
0
VERTEX
8
0
10
523.166
20
73.608
0
VERTEX
8
0
10
523.166
20
68.587
0
SEQEND
0
POLYLINE
70
0
62
7
8
0
66
1
0
VERTEX
8
0
10
539.811
20
68.587
0
VERTEX
8
0
10
539.306
20
68.587
0
VERTEX
8
0
10
539.306
20
72.499
42
-0.033687
0
VERTEX
8
0
10
539.123180
20
72.311150
42
-0.024149
0
VERTEX
8
0
10
538.839148
20
72.079902
42
-0.022517
0
VERTEX
8
0
10
538.534983
20
71.879876
42
-0.031079
0
VERTEX
8
0
10
538.300266
20
71.759301
0
VERTEX
8
0
10
538.300
20
72.353
42
0.038873
0
VERTEX
8
0
10
538.694835
20
72.619340
42
0.039926
0
VERTEX
8
0
10
539.033554
20
72.935973
42
0.039099
0
VERTEX
8
0
10
539.318696
20
73.296996
42
0.051159
0
VERTEX
8
0
10
539.483759
20
73.607869
0
VERTEX
8
0
10
539.811
20
73.608
0
VERTEX
8
0
10
539.811
20
68.587
0
SEQEND
0
POLYLINE
70
0
62
7
8
0
66
1
0
VERTEX
8
0
10
543.754
20
69.177
0
VERTEX
8
0
10
543.754
20
68.587
0
VERTEX
8
0
10
541.042
20
68.587
42
-0.072750
0
VERTEX
8
0
10
541.082882
20
68.932592
42
-0.051623
0
VERTEX
8
0
10
541.257292
20
69.388906
42
-0.049703
0
VERTEX
8
0
10
541.522082
20
69.799993
42
-0.028468
0
VERTEX
8
0
10
542.089489
20
70.435973
42
0.021207
0
VERTEX
8
0
10
542.753805
20
71.153907
42
0.045942
0
VERTEX
8
0
10
543.013772
20
71.523967
42
0.053384
0
VERTEX
8
0
10
543.185519
20
71.925897
42
0.074425
0
VERTEX
8
0
10
543.232053
20
72.236791
42
0.086751
0
VERTEX
8
0
10
543.169310
20
72.595702
42
0.101928
0
VERTEX
8
0
10
543.006951
20
72.860939
42
0.101096
0
VERTEX
8
0
10
542.753259
20
73.040847
42
0.104210
0
VERTEX
8
0
10
542.457838
20
73.103094
42
0.107289
0
VERTEX
8
0
10
542.139647
20
73.034023
42
0.108278
0
VERTEX
8
0
10
541.881440
20
72.840475
42
0.104848
0
VERTEX
8
0
10
541.724063
20
72.554383
42
0.073628
0
VERTEX
8
0
10
541.656337
20
72.096955
0
VERTEX
8
0
10
541.138
20
72.162
42
-0.072077
0
VERTEX
8
0
10
541.285073
20
72.834929
42
-0.103365
0
VERTEX
8
0
10
541.543786
20
73.242930
42
-0.106941
0
VERTEX
8
0
10
541.941076
20
73.506993
42
-0.093657
0
VERTEX
8
0
10
542.474891
20
73.607869
42
-0.105276
0
VERTEX
8
0
10
543.038945
20
73.487775
42
-0.124673
0
VERTEX
8
0
10
543.423049
20
73.184949
42
-0.081258
0
VERTEX
8
0
10
543.663962
20
72.730112
42
-0.081414
0
VERTEX
8
0
10
543.747060
20
72.223149
42
-0.067214
0
VERTEX
8
0
10
543.685198
20
71.765039
42
-0.062441
0
VERTEX
8
0
10
543.494673
20
71.305686
42
-0.039038
0
VERTEX
8
0
10
543.201555
20
70.886084
42
-0.019955
0
VERTEX
8
0
10
542.536283
20
70.139247
42
0.006342
0
VERTEX
8
0
10
542.108349
20
69.690336
42
0.016621
0
VERTEX
8
0
10
541.953063
20
69.511689
42
0.025811
0
VERTEX
8
0
10
541.840267
20
69.352245
42
0.025114
0
VERTEX
8
0
10
541.741603
20
69.177446
0
VERTEX
8
0
10
543.754
20
69.177
0
SEQEND
0
POLYLINE
70
0
62
7
8
0
66
1
0
VERTEX
8
0
10
559.796
20
68.630
0
VERTEX
8
0
10
559.291
20
68.630
0
VERTEX
8
0
10
559.291
20
72.542
42
-0.033687
0
VERTEX
8
0
10
559.107832
20
72.353783
42
-0.024149
0
VERTEX
8
0
10
558.823800
20
72.122535
42
-0.022517
0
VERTEX
8
0
10
558.519635
20
71.922509
42
-0.031079
0
VERTEX
8
0
10
558.284918
20
71.801934
0
VERTEX
8
0
10
558.285
20
72.395
42
0.038873
0
VERTEX
8
0
10
558.679487
20
72.661973
42
0.039926
0
VERTEX
8
0
10
559.018206
20
72.978606
42
0.039099
0
VERTEX
8
0
10
559.303348
20
73.339629
42
0.051159
0
VERTEX
8
0
10
559.468411
20
73.650502
0
VERTEX
8
0
10
559.796
20
73.651
0
VERTEX
8
0
10
559.796
20
68.630
0
SEQEND
0
POLYLINE
70
0
62
7
8
0
66
1
0
VERTEX
8
0
10
561.085
20
69.953
0
VERTEX
8
0
10
561.586
20
70.035
42
0.050726
0
VERTEX
8
0
10
561.718301
20
69.530482
42
0.096691
0
VERTEX
8
0
10
561.862255
20
69.295540
42
0.096691
0
VERTEX
8
0
10
562.114385
20
69.109571
42
0.111136
0
VERTEX
8
0
10
562.381098
20
69.049547
42
0.113522
0
VERTEX
8
0
10
562.695543
20
69.121872
42
0.102500
0
VERTEX
8
0
10
562.977961
20
69.339452
42
0.098888
0
VERTEX
8
0
10
563.161701
20
69.658187
42
0.081630
0
VERTEX
8
0
10
563.233759
20
70.096614
42
0.079878
0
VERTEX
8
0
10
563.167834
20
70.506641
42
0.098952
0
VERTEX
8
0
10
563.001835
20
70.799206
42
0.101518
0
VERTEX
8
0
10
562.733049
20
71.001090
42
0.110916
0
VERTEX
8
0
10
562.432258
20
71.068647
42
0.047533
0
VERTEX
8
0
10
562.294712
20
71.055541
42
0.029273
0
VERTEX
8
0
10
562.077551
20
71.000434
0
VERTEX
8
0
10
562.136
20
71.539
0
VERTEX
8
0
10
562.214
20
71.532
42
0.089466
0
VERTEX
8
0
10
562.561863
20
71.595244
42
0.104693
0
VERTEX
8
0
10
562.817661
20
71.757596
42
0.107528
0
VERTEX
8
0
10
562.987373
20
72.015419
42
0.092241
0
VERTEX
8
0
10
563.052995
20
72.368101
42
0.084708
0
VERTEX
8
0
10
562.997125
20
72.695513
42
0.102713
0
VERTEX
8
0
10
562.855178
20
72.930857
42
0.102813
0
VERTEX
8
0
10
562.636303
20
73.090592
42
0.106789
0
VERTEX
8
0
10
562.381098
20
73.145727
42
0.107856
0
VERTEX
8
0
10
562.115563
20
73.087774
42
0.104327
0
VERTEX
8
0
10
561.889966
20
72.920625
42
0.092151
0
VERTEX
8
0
10
561.739573
20
72.670552
42
0.061204
0
VERTEX
8
0
10
561.637579
20
72.245318
0
VERTEX
8
0
10
561.136
20
72.354
42
-0.068746
0
VERTEX
8
0
10
561.309056
20
72.954868
42
-0.096097
0
VERTEX
8
0
10
561.565955
20
73.323080
42
-0.098513
0
VERTEX
8
0
10
561.933664
20
73.564652
42
-0.096514
0
VERTEX
8
0
10
562.374277
20
73.650502
42
-0.103042
0
VERTEX
8
0
10
562.831206
20
73.555326
42
-0.101154
0
VERTEX
8
0
10
563.220116
20
73.282153
42
-0.099846
0
VERTEX
8
0
10
563.473394
20
72.876189
42
-0.089934
0
VERTEX
8
0
10
563.568002
20
72.354458
42
-0.060988
0
VERTEX
8
0
10
563.527708
20
72.025343
42
-0.068452
0
VERTEX
8
0
10
563.417933
20
71.750775
42
-0.067192
0
VERTEX
8
0
10
563.236692
20
71.512964
42
-0.069278
0
VERTEX
8
0
10
563.005246
20
71.338087
42
-0.060548
0
VERTEX
8
0
10
563.237468
20
71.243868
42
-0.069867
0
VERTEX
8
0
10
563.411112
20
71.112985
42
-0.058048
0
VERTEX
8
0
10
563.545486
20
70.943178
42
-0.044965
0
VERTEX
8
0
10
563.670321
20
70.693476
42
-0.047432
0
VERTEX
8
0
10
563.742746
20
70.423212
42
-0.041783
0
VERTEX
8
0
10
563.769229
20
70.106846
42
-0.086740
0
VERTEX
8
0
10
563.657345
20
69.466752
42
-0.099554
0
VERTEX
8
0
10
563.363363
20
68.981334
42
-0.100184
0
VERTEX
8
0
10
562.908956
20
68.655675
42
-0.105925
0
VERTEX
8
0
10
562.391330
20
68.544772
42
-0.101687
0
VERTEX
8
0
10
561.905718
20
68.644565
42
-0.102212
0
VERTEX
8
0
10
561.501153
20
68.926764
42
-0.096957
0
VERTEX
8
0
10
561.229313
20
69.343140
42
-0.076620
0
VERTEX
8
0
10
561.085055
20
69.953367
0
SEQEND
0
POLYLINE
70
0
62
7
8
0
66
1
0
VERTEX
8
0
10
579.801
20
68.510
0
VERTEX
8
0
10
579.296
20
68.510
0
VERTEX
8
0
10
579.296
20
72.422
42
-0.033687
0
VERTEX
8
0
10
579.112948
20
72.233681
42
-0.024149
0
VERTEX
8
0
10
578.828916
20
72.002433
42
-0.022517
0
VERTEX
8
0
10
578.524751
20
71.802407
42
-0.031079
0
VERTEX
8
0
10
578.290034
20
71.681833
0
VERTEX
8
0
10
578.290
20
72.275
42
0.038873
0
VERTEX
8
0
10
578.684603
20
72.541872
42
0.039926
0
VERTEX
8
0
10
579.023322
20
72.858504
42
0.039099
0
VERTEX
8
0
10
579.308464
20
73.219527
42
0.051159
0
VERTEX
8
0
10
579.473527
20
73.530400
0
VERTEX
8
0
10
579.801
20
73.530
0
VERTEX
8
0
10
579.801
20
68.510
0
SEQEND
0
POLYLINE
70
0
62
7
8
0
66
1
0
VERTEX
8
0
10
582.703
20
68.510
0
VERTEX
8
0
10
582.703
20
69.707
0
VERTEX
8
0
10
580.926
20
69.707
0
VERTEX
8
0
10
580.926
20
70.270
0
VERTEX
8
0
10
582.792
20
73.510
0
VERTEX
8
0
10
583.208
20
73.510
0
VERTEX
8
0
10
583.208
20
70.270
0
VERTEX
8
0
10
583.764
20
70.270
0
VERTEX
8
0
10
583.764
20
69.707
0
VERTEX
8
0
10
583.208
20
69.707
0
VERTEX
8
0
10
583.208
20
68.510
0
VERTEX
8
0
10
582.703
20
68.510
0
SEQEND
0
POLYLINE
70
0
62
7
8
0
66
1
0
VERTEX
8
0
10
582.703
20
70.270
0
VERTEX
8
0
10
582.703
20
72.524
0
VERTEX
8
0
10
581.421
20
70.270
0
VERTEX
8
0
10
582.703
20
70.270
0
SEQEND
0
POLYLINE
70
0
62
7
8
0
66
1
0
VERTEX
8
0
10
599.779
20
68.630
0
VERTEX
8
0
10
599.274
20
68.630
0
VERTEX
8
0
10
599.274
20
72.542
42
-0.033687
0
VERTEX
8
0
10
599.090779
20
72.353783
42
-0.024149
0
VERTEX
8
0
10
598.806747
20
72.122535
42
-0.022517
0
VERTEX
8
0
10
598.502581
20
71.922509
42
-0.031079
0
VERTEX
8
0
10
598.267865
20
71.801934
0
VERTEX
8
0
10
598.268
20
72.395
42
0.038873
0
VERTEX
8
0
10
598.662434
20
72.661973
42
0.039926
0
VERTEX
8
0
10
599.001153
20
72.978606
42
0.039099
0
VERTEX
8
0
10
599.286295
20
73.339629
42
0.051159
0
VERTEX
8
0
10
599.451358
20
73.650502
0
VERTEX
8
0
10
599.779
20
73.651
0
VERTEX
8
0
10
599.779
20
68.630
0
SEQEND
0
POLYLINE
70
0
62
7
8
0
66
1
0
VERTEX
8
0
10
601.068
20
69.940
0
VERTEX
8
0
10
601.597
20
69.994
42
0.060766
0
VERTEX
8
0
10
601.711288
20
69.542237
42
0.092825
0
VERTEX
8
0
10
601.872913
20
69.281471
42
0.100367
0
VERTEX
8
0
10
602.110452
20
69.108002
42
0.108091
0
VERTEX
8
0
10
602.377688
20
69.049547
42
0.122523
0
VERTEX
8
0
10
602.695952
20
69.128725
42
0.102937
0
VERTEX
8
0
10
602.995014
20
69.376969
42
0.094125
0
VERTEX
8
0
10
603.178375
20
69.739737
42
0.070190
0
VERTEX
8
0
10
603.254223
20
70.277378
42
0.073749
0
VERTEX
8
0
10
603.179181
20
70.783375
42
0.102108
0
VERTEX
8
0
10
603.001835
20
71.109574
42
0.107319
0
VERTEX
8
0
10
602.715580
20
71.329678
42
0.110869
0
VERTEX
8
0
10
602.374277
20
71.406300
42
0.073359
0
VERTEX
8
0
10
602.156147
20
71.374123
42
0.069393
0
VERTEX
8
0
10
601.944536
20
71.276696
42
0.070429
0
VERTEX
8
0
10
601.767864
20
71.124636
42
0.066293
0
VERTEX
8
0
10
601.630757
20
70.918578
0
VERTEX
8
0
10
601.157
20
70.994
0
VERTEX
8
0
10
601.556
20
73.565
0
VERTEX
8
0
10
603.592
20
73.565
0
VERTEX
8
0
10
603.592
20
72.979
0
VERTEX
8
0
10
601.955
20
72.979
0
VERTEX
8
0
10
601.733
20
71.631
42
-0.080694
0
VERTEX
8
0
10
602.129072
20
71.874119
42
-0.097516
0
VERTEX
8
0
10
602.507292
20
71.948592
42
-0.114500
0
VERTEX
8
0
10
602.975831
20
71.839871
42
-0.101406
0
VERTEX
8
0
10
603.404291
20
71.508619
42
-0.099912
0
VERTEX
8
0
10
603.676309
20
71.023881
42
-0.078212
0
VERTEX
8
0
10
603.786283
20
70.325127
42
-0.073805
0
VERTEX
8
0
10
603.683327
20
69.631441
42
-0.082263
0
VERTEX
8
0
10
603.404291
20
69.066600
42
-0.118094
0
VERTEX
8
0
10
602.955533
20
68.682385
42
-0.118796
0
VERTEX
8
0
10
602.384509
20
68.544772
42
-0.097386
0
VERTEX
8
0
10
601.892521
20
68.641515
42
-0.099597
0
VERTEX
8
0
10
601.484100
20
68.913121
42
-0.100415
0
VERTEX
8
0
10
601.213900
20
69.320858
42
-0.076930
0
VERTEX
8
0
10
601.068002
20
69.939724
0
SEQEND
0
POLYLINE
70
1
62
7
8
0
66
1
0
VERTEX
8
0
10
757.360
20
209.510
42
-0.414214
0
VERTEX
8
0
10
751.360382
20
203.509864
42
-0.414214
0
VERTEX
8
0
10
745.360382
20
209.509864
42
-0.414214
0
VERTEX
8
0
10
751.360382
20
215.509864
42
-0.414214
0
VERTEX
8
0
10
757.360382
20
209.509864
0
SEQEND
0
POLYLINE
70
1
62
7
8
0
66
1
0
VERTEX
8
0
10
787.360
20
209.510
42
-0.414214
0
VERTEX
8
0
10
781.360382
20
203.509864
42
-0.414214
0
VERTEX
8
0
10
775.360382
20
209.509864
42
-0.414214
0
VERTEX
8
0
10
781.360382
20
215.509864
42
-0.414214
0
VERTEX
8
0
10
787.360382
20
209.509864
0
SEQEND
0
POLYLINE
70
1
62
7
8
0
66
1
0
VERTEX
8
0
10
757.360
20
180.792
42
0.414214
0
VERTEX
8
0
10
751.360382
20
186.791817
42
0.414214
0
VERTEX
8
0
10
745.360382
20
180.791817
42
0.414214
0
VERTEX
8
0
10
751.360382
20
174.791817
42
0.414214
0
VERTEX
8
0
10
757.360382
20
180.791817
0
SEQEND
0
POLYLINE
70
1
62
7
8
0
66
1
0
VERTEX
8
0
10
787.360
20
180.792
42
0.414214
0
VERTEX
8
0
10
781.360382
20
186.791817
42
0.414214
0
VERTEX
8
0
10
775.360382
20
180.791817
42
0.414214
0
VERTEX
8
0
10
781.360382
20
174.791817
42
0.414214
0
VERTEX
8
0
10
787.360382
20
180.791817
0
SEQEND
0
POLYLINE
70
1
62
7
8
0
66
1
0
VERTEX
8
0
10
667.277
20
209.080
42
-0.414214
0
VERTEX
8
0
10
661.277018
20
203.080462
42
-0.414214
0
VERTEX
8
0
10
655.277018
20
209.080462
42
-0.414214
0
VERTEX
8
0
10
661.277018
20
215.080462
42
-0.414214
0
VERTEX
8
0
10
667.277018
20
209.080462
0
SEQEND
0
POLYLINE
70
1
62
7
8
0
66
1
0
VERTEX
8
0
10
697.277
20
209.080
42
-0.414214
0
VERTEX
8
0
10
691.277018
20
203.080462
42
-0.414214
0
VERTEX
8
0
10
685.277018
20
209.080462
42
-0.414214
0
VERTEX
8
0
10
691.277018
20
215.080462
42
-0.414214
0
VERTEX
8
0
10
697.277018
20
209.080462
0
SEQEND
0
POLYLINE
70
1
62
7
8
0
66
1
0
VERTEX
8
0
10
667.277
20
180.362
42
0.414214
0
VERTEX
8
0
10
661.277018
20
186.362415
42
0.414214
0
VERTEX
8
0
10
655.277018
20
180.362415
42
0.414214
0
VERTEX
8
0
10
661.277018
20
174.362415
42
0.414214
0
VERTEX
8
0
10
667.277018
20
180.362415
0
SEQEND
0
POLYLINE
70
1
62
7
8
0
66
1
0
VERTEX
8
0
10
697.277
20
180.362
42
0.414214
0
VERTEX
8
0
10
691.277018
20
186.362415
42
0.414214
0
VERTEX
8
0
10
685.277018
20
180.362415
42
0.414214
0
VERTEX
8
0
10
691.277018
20
174.362415
42
0.414214
0
VERTEX
8
0
10
697.277018
20
180.362415
0
SEQEND
0
POLYLINE
70
1
62
7
8
0
66
1
0
VERTEX
8
0
10
577.277
20
209.510
42
-0.414214
0
VERTEX
8
0
10
571.277018
20
203.509864
42
-0.414214
0
VERTEX
8
0
10
565.277018
20
209.509864
42
-0.414214
0
VERTEX
8
0
10
571.277018
20
215.509864
42
-0.414214
0
VERTEX
8
0
10
577.277018
20
209.509864
0
SEQEND
0
POLYLINE
70
1
62
7
8
0
66
1
0
VERTEX
8
0
10
607.277
20
209.510
42
-0.414214
0
VERTEX
8
0
10
601.277018
20
203.509864
42
-0.414214
0
VERTEX
8
0
10
595.277018
20
209.509864
42
-0.414214
0
VERTEX
8
0
10
601.277018
20
215.509864
42
-0.414214
0
VERTEX
8
0
10
607.277018
20
209.509864
0
SEQEND
0
POLYLINE
70
1
62
7
8
0
66
1
0
VERTEX
8
0
10
577.277
20
180.792
42
0.414214
0
VERTEX
8
0
10
571.277018
20
186.791817
42
0.414214
0
VERTEX
8
0
10
565.277018
20
180.791817
42
0.414214
0
VERTEX
8
0
10
571.277018
20
174.791817
42
0.414214
0
VERTEX
8
0
10
577.277018
20
180.791817
0
SEQEND
0
POLYLINE
70
1
62
7
8
0
66
1
0
VERTEX
8
0
10
607.277
20
180.792
42
0.414214
0
VERTEX
8
0
10
601.277018
20
186.791817
42
0.414214
0
VERTEX
8
0
10
595.277018
20
180.791817
42
0.414214
0
VERTEX
8
0
10
601.277018
20
174.791817
42
0.414214
0
VERTEX
8
0
10
607.277018
20
180.791817
0
SEQEND
0
POLYLINE
70
1
62
7
8
0
66
1
0
VERTEX
8
0
10
487.277
20
209.080
42
-0.414214
0
VERTEX
8
0
10
481.277018
20
203.080462
42
-0.414214
0
VERTEX
8
0
10
475.277018
20
209.080462
42
-0.414214
0
VERTEX
8
0
10
481.277018
20
215.080462
42
-0.414214
0
VERTEX
8
0
10
487.277018
20
209.080462
0
SEQEND
0
POLYLINE
70
1
62
7
8
0
66
1
0
VERTEX
8
0
10
517.277
20
209.080
42
-0.414214
0
VERTEX
8
0
10
511.277018
20
203.080462
42
-0.414214
0
VERTEX
8
0
10
505.277018
20
209.080462
42
-0.414214
0
VERTEX
8
0
10
511.277018
20
215.080462
42
-0.414214
0
VERTEX
8
0
10
517.277018
20
209.080462
0
SEQEND
0
POLYLINE
70
1
62
7
8
0
66
1
0
VERTEX
8
0
10
487.277
20
180.362
42
0.414214
0
VERTEX
8
0
10
481.277018
20
186.362415
42
0.414214
0
VERTEX
8
0
10
475.277018
20
180.362415
42
0.414214
0
VERTEX
8
0
10
481.277018
20
174.362415
42
0.414214
0
VERTEX
8
0
10
487.277018
20
180.362415
0
SEQEND
0
POLYLINE
70
1
62
7
8
0
66
1
0
VERTEX
8
0
10
517.277
20
180.362
42
0.414214
0
VERTEX
8
0
10
511.277018
20
186.362415
42
0.414214
0
VERTEX
8
0
10
505.277018
20
180.362415
42
0.414214
0
VERTEX
8
0
10
511.277018
20
174.362415
42
0.414214
0
VERTEX
8
0
10
517.277018
20
180.362415
0
SEQEND
0
POLYLINE
70
1
62
7
8
0
66
1
0
VERTEX
8
0
10
467.452
20
336.735
0
VERTEX
8
0
10
467.452
20
282.829
0
VERTEX
8
0
10
521.358
20
282.829
0
VERTEX
8
0
10
521.358
20
336.735
0
VERTEX
8
0
10
467.452
20
336.735
0
SEQEND
0
POLYLINE
70
0
62
7
8
0
66
1
0
VERTEX
8
0
10
487.314
20
308.676
0
VERTEX
8
0
10
487.949
20
308.743
42
0.044994
0
VERTEX
8
0
10
488.043912
20
308.244415
42
0.069687
0
VERTEX
8
0
10
488.177216
20
307.943856
42
0.072525
0
VERTEX
8
0
10
488.386769
20
307.695769
42
0.063444
0
VERTEX
8
0
10
488.693221
20
307.487064
42
0.066988
0
VERTEX
8
0
10
489.027275
20
307.361262
42
0.056658
0
VERTEX
8
0
10
489.446082
20
307.313652
42
0.076126
0
VERTEX
8
0
10
490.013747
20
307.400584
42
0.105471
0
VERTEX
8
0
10
490.376585
20
307.605491
42
0.108667
0
VERTEX
8
0
10
490.621450
20
307.941288
42
0.103764
0
VERTEX
8
0
10
490.710719
20
308.366811
42
0.062887
0
VERTEX
8
0
10
490.677602
20
308.629080
42
0.071269
0
VERTEX
8
0
10
490.588062
20
308.844751
42
0.071551
0
VERTEX
8
0
10
490.442946
20
309.024693
42
0.061178
0
VERTEX
8
0
10
490.224321
20
309.183115
42
0.036788
0
VERTEX
8
0
10
489.978541
20
309.290212
42
0.011665
0
VERTEX
8
0
10
489.175391
20
309.551087
42
-0.027268
0
VERTEX
8
0
10
488.477370
20
309.801439
42
-0.054405
0
VERTEX
8
0
10
488.151838
20
309.982502
42
-0.059953
0
VERTEX
8
0
10
487.875603
20
310.232739
42
-0.062915
0
VERTEX
8
0
10
487.678128
20
310.528114
42
-0.064556
0
VERTEX
8
0
10
487.555085
20
310.865211
42
-0.055318
0
VERTEX
8
0
10
487.508946
20
311.280975
42
-0.094367
0
VERTEX
8
0
10
487.641363
20
311.976337
42
-0.104271
0
VERTEX
8
0
10
487.995345
20
312.511776
42
-0.107721
0
VERTEX
8
0
10
488.535520
20
312.853578
42
-0.087610
0
VERTEX
8
0
10
489.306507
20
312.989716
42
-0.055742
0
VERTEX
8
0
10
489.852127
20
312.928698
42
-0.064755
0
VERTEX
8
0
10
490.296223
20
312.765549
42
-0.069954
0
VERTEX
8
0
10
490.676738
20
312.486515
42
-0.071983
0
VERTEX
8
0
10
490.956034
20
312.122657
42
-0.064819
0
VERTEX
8
0
10
491.130673
20
311.687303
42
-0.054639
0
VERTEX
8
0
10
491.209807
20
311.137170
0
VERTEX
8
0
10
490.563
20
311.078
42
0.075484
0
VERTEX
8
0
10
490.428222
20
311.640328
42
0.108318
0
VERTEX
8
0
10
490.198943
20
311.974622
42
0.108074
0
VERTEX
8
0
10
489.854099
20
312.180638
42
0.080978
0
VERTEX
8
0
10
489.327655
20
312.266462
42
0.072097
0
VERTEX
8
0
10
488.788284
20
312.188281
42
0.104685
0
VERTEX
8
0
10
488.456366
20
312.008459
42
0.112711
0
VERTEX
8
0
10
488.236697
20
311.720446
42
0.107185
0
VERTEX
8
0
10
488.156068
20
311.348648
42
0.040160
0
VERTEX
8
0
10
488.171751
20
311.153710
42
0.053667
0
VERTEX
8
0
10
488.210523
20
311.012398
42
0.053667
0
VERTEX
8
0
10
488.283978
20
310.872076
42
0.060239
0
VERTEX
8
0
10
488.376005
20
310.764969
42
0.091520
0
VERTEX
8
0
10
488.614563
20
310.605952
42
0.032882
0
VERTEX
8
0
10
489.361491
20
310.342014
42
-0.016263
0
VERTEX
8
0
10
490.084811
20
310.122051
42
-0.033990
0
VERTEX
8
0
10
490.418880
20
309.982502
42
-0.063519
0
VERTEX
8
0
10
490.841246
20
309.692759
42
-0.074496
0
VERTEX
8
0
10
491.120986
20
309.356527
42
-0.075488
0
VERTEX
8
0
10
491.295719
20
308.950546
42
-0.064023
0
VERTEX
8
0
10
491.362071
20
308.434484
42
-0.063123
0
VERTEX
8
0
10
491.297420
20
307.924423
42
-0.065667
0
VERTEX
8
0
10
491.112527
20
307.465916
42
-0.067461
0
VERTEX
8
0
10
490.806810
20
307.072072
42
-0.072400
0
VERTEX
8
0
10
490.431569
20
306.797646
42
-0.065456
0
VERTEX
8
0
10
489.980926
20
306.635892
42
-0.053524
0
VERTEX
8
0
10
489.399557
20
306.573480
42
-0.090244
0
VERTEX
8
0
10
488.515684
20
306.734318
42
-0.109594
0
VERTEX
8
0
10
487.893835
20
307.140240
42
-0.105101
0
VERTEX
8
0
10
487.488291
20
307.772506
42
-0.085527
0
VERTEX
8
0
10
487.314386
20
308.675569
0
SEQEND
0
POLYLINE
70
0
62
7
8
0
66
1
0
VERTEX
8
0
10
492.051
20
308.676
0
VERTEX
8
0
10
492.686
20
308.743
42
0.044994
0
VERTEX
8
0
10
492.781015
20
308.244415
42
0.069687
0
VERTEX
8
0
10
492.914318
20
307.943856
42
0.072525
0
VERTEX
8
0
10
493.123871
20
307.695769
42
0.063444
0
VERTEX
8
0
10
493.430324
20
307.487064
42
0.066988
0
VERTEX
8
0
10
493.764378
20
307.361262
42
0.056658
0
VERTEX
8
0
10
494.183185
20
307.313652
42
0.076126
0
VERTEX
8
0
10
494.750849
20
307.400584
42
0.105471
0
VERTEX
8
0
10
495.113687
20
307.605491
42
0.108667
0
VERTEX
8
0
10
495.358553
20
307.941288
42
0.103764
0
VERTEX
8
0
10
495.447822
20
308.366811
42
0.062887
0
VERTEX
8
0
10
495.414705
20
308.629080
42
0.071269
0
VERTEX
8
0
10
495.325165
20
308.844751
42
0.071551
0
VERTEX
8
0
10
495.180048
20
309.024693
42
0.061178
0
VERTEX
8
0
10
494.961423
20
309.183115
42
0.036788
0
VERTEX
8
0
10
494.715644
20
309.290212
42
0.011665
0
VERTEX
8
0
10
493.912493
20
309.551087
42
-0.027268
0
VERTEX
8
0
10
493.214472
20
309.801439
42
-0.054405
0
VERTEX
8
0
10
492.888941
20
309.982502
42
-0.059953
0
VERTEX
8
0
10
492.612706
20
310.232739
42
-0.062915
0
VERTEX
8
0
10
492.415230
20
310.528114
42
-0.064556
0
VERTEX
8
0
10
492.292188
20
310.865211
42
-0.055318
0
VERTEX
8
0
10
492.246048
20
311.280975
42
-0.094367
0
VERTEX
8
0
10
492.378465
20
311.976337
42
-0.104271
0
VERTEX
8
0
10
492.732447
20
312.511776
42
-0.107721
0
VERTEX
8
0
10
493.272622
20
312.853578
42
-0.087610
0
VERTEX
8
0
10
494.043609
20
312.989716
42
-0.055742
0
VERTEX
8
0
10
494.589230
20
312.928698
42
-0.064755
0
VERTEX
8
0
10
495.033325
20
312.765549
42
-0.069954
0
VERTEX
8
0
10
495.413840
20
312.486515
42
-0.071983
0
VERTEX
8
0
10
495.693136
20
312.122657
42
-0.064819
0
VERTEX
8
0
10
495.867776
20
311.687303
42
-0.054639
0
VERTEX
8
0
10
495.946910
20
311.137170
0
VERTEX
8
0
10
495.300
20
311.078
42
0.075484
0
VERTEX
8
0
10
495.165324
20
311.640328
42
0.108318
0
VERTEX
8
0
10
494.936046
20
311.974622
42
0.108074
0
VERTEX
8
0
10
494.591201
20
312.180638
42
0.080978
0
VERTEX
8
0
10
494.064757
20
312.266462
42
0.072097
0
VERTEX
8
0
10
493.525387
20
312.188281
42
0.104685
0
VERTEX
8
0
10
493.193469
20
312.008459
42
0.112711
0
VERTEX
8
0
10
492.973799
20
311.720446
42
0.107185
0
VERTEX
8
0
10
492.893170
20
311.348648
42
0.040160
0
VERTEX
8
0
10
492.908853
20
311.153710
42
0.053667
0
VERTEX
8
0
10
492.947626
20
311.012398
42
0.053667
0
VERTEX
8
0
10
493.021081
20
310.872076
42
0.060239
0
VERTEX
8
0
10
493.113107
20
310.764969
42
0.091520
0
VERTEX
8
0
10
493.351665
20
310.605952
42
0.032882
0
VERTEX
8
0
10
494.098594
20
310.342014
42
-0.016263
0
VERTEX
8
0
10
494.821914
20
310.122051
42
-0.033990
0
VERTEX
8
0
10
495.155983
20
309.982502
42
-0.063519
0
VERTEX
8
0
10
495.578348
20
309.692759
42
-0.074496
0
VERTEX
8
0
10
495.858089
20
309.356527
42
-0.075488
0
VERTEX
8
0
10
496.032822
20
308.950546
42
-0.064023
0
VERTEX
8
0
10
496.099174
20
308.434484
42
-0.063123
0
VERTEX
8
0
10
496.034523
20
307.924423
42
-0.065667
0
VERTEX
8
0
10
495.849630
20
307.465916
42
-0.067461
0
VERTEX
8
0
10
495.543912
20
307.072072
42
-0.072400
0
VERTEX
8
0
10
495.168671
20
306.797646
42
-0.065456
0
VERTEX
8
0
10
494.718028
20
306.635892
42
-0.053524
0
VERTEX
8
0
10
494.136660
20
306.573480
42
-0.090244
0
VERTEX
8
0
10
493.252786
20
306.734318
42
-0.109594
0
VERTEX
8
0
10
492.630938
20
307.140240
42
-0.105101
0
VERTEX
8
0
10
492.225394
20
307.772506
42
-0.085527
0
VERTEX
8
0
10
492.051489
20
308.675569
0
SEQEND
0
POLYLINE
70
0
62
7
8
0
66
1
0
VERTEX
8
0
10
497.013
20
306.679
0
VERTEX
8
0
10
497.013
20
312.880
0
VERTEX
8
0
10
499.267
20
312.880
42
-0.041311
0
VERTEX
8
0
10
499.953544
20
312.822936
42
-0.076654
0
VERTEX
8
0
10
500.307582
20
312.706335
42
-0.080612
0
VERTEX
8
0
10
500.605678
20
312.481172
42
-0.068778
0
VERTEX
8
0
10
500.861653
20
312.126886
42
-0.065477
0
VERTEX
8
0
10
501.018810
20
311.706262
42
-0.056761
0
VERTEX
8
0
10
501.077361
20
311.192154
42
-0.078360
0
VERTEX
8
0
10
500.972979
20
310.530206
42
-0.096850
0
VERTEX
8
0
10
500.709389
20
310.054404
42
-0.098005
0
VERTEX
8
0
10
500.289408
20
309.717268
42
-0.077651
0
VERTEX
8
0
10
499.647771
20
309.500332
42
-0.030199
0
VERTEX
8
0
10
499.914183
20
309.313828
42
-0.043280
0
VERTEX
8
0
10
500.079185
20
309.157738
42
-0.027258
0
VERTEX
8
0
10
500.356069
20
308.788743
42
-0.025590
0
VERTEX
8
0
10
500.607880
20
308.366811
0
VERTEX
8
0
10
501.496
20
306.679
0
VERTEX
8
0
10
500.650
20
306.679
0
VERTEX
8
0
10
499.969
20
307.965
42
0.012344
0
VERTEX
8
0
10
499.566317
20
308.699747
42
0.030291
0
VERTEX
8
0
10
499.377079
20
308.984326
42
0.044966
0
VERTEX
8
0
10
499.156190
20
309.225780
42
0.072681
0
VERTEX
8
0
10
498.987960
20
309.339609
42
0.065697
0
VERTEX
8
0
10
498.782308
20
309.404448
42
0.043582
0
VERTEX
8
0
10
498.459266
20
309.432659
0
VERTEX
8
0
10
497.685
20
309.433
0
VERTEX
8
0
10
497.685
20
306.679
0
VERTEX
8
0
10
497.013
20
306.679
0
SEQEND
0
POLYLINE
70
0
62
7
8
0
66
1
0
VERTEX
8
0
10
497.685
20
310.143
0
VERTEX
8
0
10
499.132
20
310.143
42
0.039397
0
VERTEX
8
0
10
499.595326
20
310.179808
42
0.068833
0
VERTEX
8
0
10
499.850789
20
310.257423
42
0.076020
0
VERTEX
8
0
10
500.068519
20
310.404508
42
0.073150
0
VERTEX
8
0
10
500.239909
20
310.616935
42
0.069631
0
VERTEX
8
0
10
500.345004
20
310.875722
42
0.061759
0
VERTEX
8
0
10
500.383714
20
311.187925
42
0.089616
0
VERTEX
8
0
10
500.305231
20
311.622289
42
0.110358
0
VERTEX
8
0
10
500.108792
20
311.923868
42
0.110940
0
VERTEX
8
0
10
499.792839
20
312.113763
42
0.080220
0
VERTEX
8
0
10
499.292488
20
312.194559
0
VERTEX
8
0
10
497.685
20
312.195
0
VERTEX
8
0
10
497.685
20
310.143
0
SEQEND
0
POLYLINE
70
1
62
7
8
0
66
1
0
VERTEX
8
0
10
483.348
20
327.588
42
-0.414214
0
VERTEX
8
0
10
475.907030
20
320.147671
42
-0.414214
0
VERTEX
8
0
10
468.466396
20
327.588305
42
-0.414214
0
VERTEX
8
0
10
475.907030
20
335.028940
42
-0.414214
0
VERTEX
8
0
10
483.347665
20
327.588305
0
SEQEND
0
POLYLINE
70
1
62
7
8
0
66
1
0
VERTEX
8
0
10
520.551
20
327.588
42
-0.414214
0
VERTEX
8
0
10
513.110203
20
320.147671
42
-0.414214
0
VERTEX
8
0
10
505.669568
20
327.588305
42
-0.414214
0
VERTEX
8
0
10
513.110203
20
335.028940
42
-0.414214
0
VERTEX
8
0
10
520.550837
20
327.588305
0
SEQEND
0
POLYLINE
70
1
62
7
8
0
66
1
0
VERTEX
8
0
10
483.348
20
291.975
42
0.414214
0
VERTEX
8
0
10
475.907030
20
299.415525
42
0.414214
0
VERTEX
8
0
10
468.466396
20
291.974890
42
0.414214
0
VERTEX
8
0
10
475.907030
20
284.534256
42
0.414214
0
VERTEX
8
0
10
483.347665
20
291.974890
0
SEQEND
0
POLYLINE
70
1
62
7
8
0
66
1
0
VERTEX
8
0
10
520.551
20
291.975
42
0.414214
0
VERTEX
8
0
10
513.110203
20
299.415525
42
0.414214
0
VERTEX
8
0
10
505.669568
20
291.974890
42
0.414214
0
VERTEX
8
0
10
513.110203
20
284.534256
42
0.414214
0
VERTEX
8
0
10
520.550837
20
291.974890
0
SEQEND
0
POLYLINE
70
1
62
7
8
0
66
1
0
VERTEX
8
0
10
572.342
20
282.829
0
VERTEX
8
0
10
572.342
20
387.366
0
VERTEX
8
0
10
636.321
20
387.366
0
VERTEX
8
0
10
636.321
20
282.829
0
VERTEX
8
0
10
572.342
20
282.829
0
SEQEND
0
POLYLINE
70
0
62
7
8
0
66
1
0
VERTEX
8
0
10
590.617
20
339.665
42
-0.069860
0
VERTEX
8
0
10
590.829375
20
341.175522
42
-0.102448
0
VERTEX
8
0
10
591.315211
20
342.101548
42
-0.049727
0
VERTEX
8
0
10
591.702916
20
342.488225
42
-0.058011
0
VERTEX
8
0
10
592.098737
20
342.741268
42
-0.058011
0
VERTEX
8
0
10
592.552622
20
342.900305
42
-0.055339
0
VERTEX
8
0
10
593.053559
20
342.955918
42
-0.075372
0
VERTEX
8
0
10
593.691973
20
342.859131
42
-0.074512
0
VERTEX
8
0
10
594.280130
20
342.575258
42
-0.074735
0
VERTEX
8
0
10
594.752522
20
342.132576
42
-0.062079
0
VERTEX
8
0
10
595.155648
20
341.467114
42
-0.058600
0
VERTEX
8
0
10
595.389831
20
340.719600
42
-0.046667
0
VERTEX
8
0
10
595.481324
20
339.741455
42
-0.068060
0
VERTEX
8
0
10
595.300949
20
338.422478
42
-0.088376
0
VERTEX
8
0
10
594.855350
20
337.495561
42
-0.053170
0
VERTEX
8
0
10
594.465370
20
337.061089
42
-0.062717
0
VERTEX
8
0
10
594.058607
20
336.778123
42
-0.062717
0
VERTEX
8
0
10
593.587980
20
336.602446
42
-0.058064
0
VERTEX
8
0
10
593.049329
20
336.539682
42
-0.059167
0
VERTEX
8
0
10
592.506019
20
336.604199
42
-0.064009
0
VERTEX
8
0
10
592.033179
20
336.784467
42
-0.064009
0
VERTEX
8
0
10
591.628106
20
337.073604
42
-0.053670
0
VERTEX
8
0
10
591.239079
20
337.520939
42
-0.082316
0
VERTEX
8
0
10
590.788122
20
338.462981
42
-0.070668
0
VERTEX
8
0
10
590.617335
20
339.665323
0
SEQEND
0
POLYLINE
70
0
62
7
8
0
66
1
0
VERTEX
8
0
10
591.311
20
339.653
42
0.030475
0
VERTEX
8
0
10
591.347440
20
339.055026
42
0.042436
0
VERTEX
8
0
10
591.435754
20
338.633841
42
0.042436
0
VERTEX
8
0
10
591.610741
20
338.191013
42
0.053449
0
VERTEX
8
0
10
591.814299
20
337.871992
42
0.106104
0
VERTEX
8
0
10
592.393928
20
337.398804
42
0.118861
0
VERTEX
8
0
10
593.045100
20
337.241788
42
0.119529
0
VERTEX
8
0
10
593.706618
20
337.402221
42
0.108209
0
VERTEX
8
0
10
594.284360
20
337.880451
42
0.102039
0
VERTEX
8
0
10
594.631427
20
338.571834
42
0.065560
0
VERTEX
8
0
10
594.787677
20
339.758374
42
0.044668
0
VERTEX
8
0
10
594.718080
20
340.535878
42
0.051404
0
VERTEX
8
0
10
594.529674
20
341.187964
42
0.065439
0
VERTEX
8
0
10
594.271468
20
341.629444
42
0.070167
0
VERTEX
8
0
10
593.929077
20
341.961972
42
0.077021
0
VERTEX
8
0
10
593.505570
20
342.180812
42
0.080978
0
VERTEX
8
0
10
593.057788
20
342.253812
42
0.118135
0
VERTEX
8
0
10
592.379158
20
342.091203
42
0.109943
0
VERTEX
8
0
10
591.801610
20
341.615149
42
0.104742
0
VERTEX
8
0
10
591.468476
20
340.931979
42
0.061321
0
VERTEX
8
0
10
591.310982
20
339.652635
0
SEQEND
0
POLYLINE
70
0
62
7
8
0
66
1
0
VERTEX
8
0
10
596.315
20
336.645
0
VERTEX
8
0
10
596.315
20
342.846
0
VERTEX
8
0
10
597.325
20
342.846
0
VERTEX
8
0
10
598.531
20
338.456
0
VERTEX
8
0
10
598.772
20
337.538
0
VERTEX
8
0
10
599.043
20
338.532
0
VERTEX
8
0
10
600.261
20
342.846
0
VERTEX
8
0
10
601.170
20
342.846
0
VERTEX
8
0
10
601.170
20
336.645
0
VERTEX
8
0
10
600.523
20
336.645
0
VERTEX
8
0
10
600.523
20
341.831
0
VERTEX
8
0
10
599.038
20
336.645
0
VERTEX
8
0
10
598.434
20
336.645
0
VERTEX
8
0
10
596.962
20
341.920
0
VERTEX
8
0
10
596.962
20
336.645
0
VERTEX
8
0
10
596.315
20
336.645
0
SEQEND
0
POLYLINE
70
0
62
7
8
0
66
1
0
VERTEX
8
0
10
602.249
20
336.645
0
VERTEX
8
0
10
602.249
20
342.846
0
VERTEX
8
0
10
604.503
20
342.846
42
-0.041311
0
VERTEX
8
0
10
605.189399
20
342.789139
42
-0.076654
0
VERTEX
8
0
10
605.543437
20
342.672538
42
-0.080612
0
VERTEX
8
0
10
605.841534
20
342.447375
42
-0.068778
0
VERTEX
8
0
10
606.097509
20
342.093088
42
-0.065477
0
VERTEX
8
0
10
606.254666
20
341.672464
42
-0.056761
0
VERTEX
8
0
10
606.313216
20
341.158357
42
-0.078360
0
VERTEX
8
0
10
606.208834
20
340.496408
42
-0.096850
0
VERTEX
8
0
10
605.945245
20
340.020606
42
-0.098005
0
VERTEX
8
0
10
605.525263
20
339.683470
42
-0.077651
0
VERTEX
8
0
10
604.883626
20
339.466534
42
-0.030199
0
VERTEX
8
0
10
605.150039
20
339.280030
42
-0.043280
0
VERTEX
8
0
10
605.315041
20
339.123940
42
-0.027258
0
VERTEX
8
0
10
605.591924
20
338.754945
42
-0.025590
0
VERTEX
8
0
10
605.843736
20
338.333013
0
VERTEX
8
0
10
606.732
20
336.645
0
VERTEX
8
0
10
605.886
20
336.645
0
VERTEX
8
0
10
605.205
20
337.931
42
0.012344
0
VERTEX
8
0
10
604.802172
20
338.665950
42
0.030291
0
VERTEX
8
0
10
604.612935
20
338.950529
42
0.044966
0
VERTEX
8
0
10
604.392045
20
339.191982
42
0.072681
0
VERTEX
8
0
10
604.223816
20
339.305811
42
0.065697
0
VERTEX
8
0
10
604.018164
20
339.370651
42
0.043582
0
VERTEX
8
0
10
603.695121
20
339.398861
0
VERTEX
8
0
10
602.921
20
339.399
0
VERTEX
8
0
10
602.921
20
336.645
0
VERTEX
8
0
10
602.249
20
336.645
0
SEQEND
0
POLYLINE
70
0
62
7
8
0
66
1
0
VERTEX
8
0
10
602.921
20
340.109
0
VERTEX
8
0
10
604.368
20
340.109
42
0.039397
0
VERTEX
8
0
10
604.831181
20
340.146010
42
0.068833
0
VERTEX
8
0
10
605.086645
20
340.223625
42
0.076020
0
VERTEX
8
0
10
605.304374
20
340.370710
42
0.073150
0
VERTEX
8
0
10
605.475764
20
340.583137
42
0.069631
0
VERTEX
8
0
10
605.580859
20
340.841925
42
0.061759
0
VERTEX
8
0
10
605.619569
20
341.154127
42
0.089616
0
VERTEX
8
0
10
605.541086
20
341.588491
42
0.110358
0
VERTEX
8
0
10
605.344648
20
341.890070
42
0.110940
0
VERTEX
8
0
10
605.028695
20
342.079965
42
0.080220
0
VERTEX
8
0
10
604.528344
20
342.160761
0
VERTEX
8
0
10
602.921
20
342.161
0
VERTEX
8
0
10
602.921
20
340.109
0
SEQEND
0
POLYLINE
70
0
62
7
8
0
66
1
0
VERTEX
8
0
10
611.249
20
337.309
42
0.027354
0
VERTEX
8
0
10
611.747824
20
336.936050
42
0.040975
0
VERTEX
8
0
10
612.111937
20
336.734241
0
VERTEX
8
0
10
611.913
20
336.163
42
-0.048035
0
VERTEX
8
0
10
611.387621
20
336.459398
42
-0.039534
0
VERTEX
8
0
10
610.821923
20
336.924571
42
-0.076641
0
VERTEX
8
0
10
610.235597
20
336.639060
42
-0.075184
0
VERTEX
8
0
10
609.578433
20
336.539682
42
-0.059341
0
VERTEX
8
0
10
609.040624
20
336.603736
42
-0.063523
0
VERTEX
8
0
10
608.567569
20
336.783939
42
-0.063523
0
VERTEX
8
0
10
608.160727
20
337.072986
42
-0.053704
0
VERTEX
8
0
10
607.772413
20
337.516709
42
-0.086461
0
VERTEX
8
0
10
607.327906
20
338.448757
42
-0.068234
0
VERTEX
8
0
10
607.150668
20
339.741455
42
-0.047397
0
VERTEX
8
0
10
607.244800
20
340.732233
42
-0.059853
0
VERTEX
8
0
10
607.484803
20
341.484032
42
-0.062356
0
VERTEX
8
0
10
607.892288
20
342.154706
42
-0.076882
0
VERTEX
8
0
10
608.360321
20
342.587947
42
-0.075617
0
VERTEX
8
0
10
608.935174
20
342.860266
42
-0.072993
0
VERTEX
8
0
10
609.586892
20
342.955918
42
-0.075619
0
VERTEX
8
0
10
610.226960
20
342.858559
42
-0.075606
0
VERTEX
8
0
10
610.809234
20
342.575258
42
-0.073677
0
VERTEX
8
0
10
611.282645
20
342.133488
42
-0.061307
0
VERTEX
8
0
10
611.688982
20
341.471344
42
-0.058261
0
VERTEX
8
0
10
611.923684
20
340.723941
42
-0.047005
0
VERTEX
8
0
10
612.014657
20
339.758374
42
-0.036018
0
VERTEX
8
0
10
611.959160
20
338.988967
42
-0.042927
0
VERTEX
8
0
10
611.811639
20
338.358391
42
-0.047234
0
VERTEX
8
0
10
611.557725
20
337.754225
42
-0.057241
0
VERTEX
8
0
10
611.249108
20
337.309461
0
SEQEND
0
POLYLINE
70
0
62
7
8
0
66
1
0
VERTEX
8
0
10
609.765
20
338.358
42
-0.056136
0
VERTEX
8
0
10
610.305126
20
338.103571
42
-0.062369
0
VERTEX
8
0
10
610.724643
20
337.766253
42
0.110270
0
VERTEX
8
0
10
611.137092
20
338.502706
42
0.072847
0
VERTEX
8
0
10
611.321010
20
339.758374
42
0.041690
0
VERTEX
8
0
10
611.255320
20
340.544843
42
0.055471
0
VERTEX
8
0
10
611.092614
20
341.116061
42
0.062268
0
VERTEX
8
0
10
610.802169
20
341.632041
42
0.078530
0
VERTEX
8
0
10
610.466640
20
341.961972
42
0.077387
0
VERTEX
8
0
10
610.043024
20
342.180478
42
0.080612
0
VERTEX
8
0
10
609.591122
20
342.253812
42
0.117800
0
VERTEX
8
0
10
608.918248
20
342.093052
42
0.108711
0
VERTEX
8
0
10
608.339173
20
341.619378
42
0.101539
0
VERTEX
8
0
10
607.998534
20
340.931912
42
0.064503
0
VERTEX
8
0
10
607.844315
20
339.741455
42
0.028802
0
VERTEX
8
0
10
607.875949
20
339.192749
42
0.029427
0
VERTEX
8
0
10
607.969087
20
338.662919
42
0.029427
0
VERTEX
8
0
10
608.030411
20
338.458676
42
0.025598
0
VERTEX
8
0
10
608.126242
20
338.233090
42
0.025598
0
VERTEX
8
0
10
608.233544
20
338.038564
42
0.028665
0
VERTEX
8
0
10
608.347633
20
337.876221
42
0.108019
0
VERTEX
8
0
10
608.926248
20
337.401600
42
0.118494
0
VERTEX
8
0
10
609.591122
20
337.241788
42
0.059843
0
VERTEX
8
0
10
609.934386
20
337.283020
42
0.058158
0
VERTEX
8
0
10
610.267851
20
337.406741
42
0.045933
0
VERTEX
8
0
10
609.941342
20
337.620867
42
0.048516
0
VERTEX
8
0
10
609.599581
20
337.762023
0
VERTEX
8
0
10
609.765
20
338.358
0
SEQEND
0
POLYLINE
70
0
62
7
8
0
66
1
0
VERTEX
8
0
10
614.210
20
336.645
0
VERTEX
8
0
10
614.210
20
342.114
0
VERTEX
8
0
10
612.535
20
342.114
0
VERTEX
8
0
10
612.535
20
342.846
0
VERTEX
8
0
10
616.566
20
342.846
0
VERTEX
8
0
10
616.566
20
342.114
0
VERTEX
8
0
10
614.882
20
342.114
0
VERTEX
8
0
10
614.882
20
336.645
0
VERTEX
8
0
10
614.210
20
336.645
0
SEQEND
0
POLYLINE
70
0
62
7
8
0
66
1
0
VERTEX
8
0
10
617.374
20
336.645
0
VERTEX
8
0
10
617.374
20
342.846
0
VERTEX
8
0
10
618.046
20
342.846
0
VERTEX
8
0
10
618.046
20
336.645
0
VERTEX
8
0
10
617.374
20
336.645
0
SEQEND
0
POLYLINE
70
0
62
7
8
0
66
1
0
VERTEX
8
0
10
592.170
20
327.345
0
VERTEX
8
0
10
592.170
20
333.545
0
VERTEX
8
0
10
593.180
20
333.545
0
VERTEX
8
0
10
594.386
20
329.155
0
VERTEX
8
0
10
594.627
20
328.237
0
VERTEX
8
0
10
594.898
20
329.231
0
VERTEX
8
0
10
596.116
20
333.545
0
VERTEX
8
0
10
597.025
20
333.545
0
VERTEX
8
0
10
597.025
20
327.345
0
VERTEX
8
0
10
596.378
20
327.345
0
VERTEX
8
0
10
596.378
20
332.530
0
VERTEX
8
0
10
594.893
20
327.345
0
VERTEX
8
0
10
594.289
20
327.345
0
VERTEX
8
0
10
592.817
20
332.619
0
VERTEX
8
0
10
592.817
20
327.345
0
VERTEX
8
0
10
592.170
20
327.345
0
SEQEND
0
POLYLINE
70
0
62
7
8
0
66
1
0
VERTEX
8
0
10
599.537
20
327.345
0
VERTEX
8
0
10
599.537
20
329.971
0
VERTEX
8
0
10
597.579
20
333.545
0
VERTEX
8
0
10
598.400
20
333.545
0
VERTEX
8
0
10
599.398
20
331.671
42
-0.008724
0
VERTEX
8
0
10
599.680843
20
331.125121
42
-0.009658
0
VERTEX
8
0
10
599.918128
20
330.622533
42
-0.010411
0
VERTEX
8
0
10
600.132407
20
331.069030
42
-0.007038
0
VERTEX
8
0
10
600.472200
20
331.717988
0
VERTEX
8
0
10
601.462
20
333.545
0
VERTEX
8
0
10
602.240
20
333.545
0
VERTEX
8
0
10
600.210
20
329.971
0
VERTEX
8
0
10
600.210
20
327.345
0
VERTEX
8
0
10
599.537
20
327.345
0
SEQEND
0
POLYLINE
70
0
62
7
8
0
66
1
0
VERTEX
8
0
10
604.579
20
327.345
0
VERTEX
8
0
10
604.579
20
328.829
0
VERTEX
8
0
10
602.375
20
328.829
0
VERTEX
8
0
10
602.375
20
329.527
0
VERTEX
8
0
10
604.689
20
333.545
0
VERTEX
8
0
10
605.205
20
333.545
0
VERTEX
8
0
10
605.205
20
329.527
0
VERTEX
8
0
10
605.894
20
329.527
0
VERTEX
8
0
10
605.894
20
328.829
0
VERTEX
8
0
10
605.205
20
328.829
0
VERTEX
8
0
10
605.205
20
327.345
0
VERTEX
8
0
10
604.579
20
327.345
0
SEQEND
0
POLYLINE
70
0
62
7
8
0
66
1
0
VERTEX
8
0
10
604.579
20
329.527
0
VERTEX
8
0
10
604.579
20
332.323
0
VERTEX
8
0
10
602.989
20
329.527
0
VERTEX
8
0
10
604.579
20
329.527
0
SEQEND
0
POLYLINE
70
0
62
7
8
0
66
1
0
VERTEX
8
0
10
606.774
20
327.345
0
VERTEX
8
0
10
606.774
20
333.545
0
VERTEX
8
0
10
607.464
20
333.545
0
VERTEX
8
0
10
610.137
20
328.664
0
VERTEX
8
0
10
610.137
20
333.545
0
VERTEX
8
0
10
610.780
20
333.545
0
VERTEX
8
0
10
610.780
20
327.345
0
VERTEX
8
0
10
610.090
20
327.345
0
VERTEX
8
0
10
607.421
20
332.221
0
VERTEX
8
0
10
607.421
20
327.345
0
VERTEX
8
0
10
606.774
20
327.345
0
SEQEND
0
POLYLINE
70
0
62
7
8
0
66
1
0
VERTEX
8
0
10
611.596
20
329.206
0
VERTEX
8
0
10
611.596
20
329.971
0
VERTEX
8
0
10
613.512
20
329.971
0
VERTEX
8
0
10
613.512
20
329.206
0
VERTEX
8
0
10
611.596
20
329.206
0
SEQEND
0
POLYLINE
70
0
62
7
8
0
66
1
0
VERTEX
8
0
10
613.926
20
329.104
0
VERTEX
8
0
10
614.531
20
329.206
42
0.046696
0
VERTEX
8
0
10
614.621137
20
328.512780
42
0.106663
0
VERTEX
8
0
10
614.751180
20
328.232834
42
0.124739
0
VERTEX
8
0
10
614.975668
20
328.042847
42
0.114029
0
VERTEX
8
0
10
615.288334
20
327.970602
42
0.075293
0
VERTEX
8
0
10
615.518908
20
328.005521
42
0.081715
0
VERTEX
8
0
10
615.711289
20
328.101718
42
0.077304
0
VERTEX
8
0
10
615.868121
20
328.257189
42
0.083334
0
VERTEX
8
0
10
615.960833
20
328.440082
42
0.052187
0
VERTEX
8
0
10
616.020117
20
328.717576
42
0.026556
0
VERTEX
8
0
10
616.049654
20
329.273305
0
VERTEX
8
0
10
616.050
20
333.545
0
VERTEX
8
0
10
616.722
20
333.545
0
VERTEX
8
0
10
616.722
20
329.320
42
-0.057433
0
VERTEX
8
0
10
616.595938
20
328.224659
42
-0.111359
0
VERTEX
8
0
10
616.345723
20
327.708369
42
-0.120164
0
VERTEX
8
0
10
615.908299
20
327.369916
42
-0.105221
0
VERTEX
8
0
10
615.292563
20
327.238889
42
-0.101309
0
VERTEX
8
0
10
614.686303
20
327.363002
42
-0.129799
0
VERTEX
8
0
10
614.302847
20
327.661844
42
-0.103615
0
VERTEX
8
0
10
614.045047
20
328.179840
42
-0.063912
0
VERTEX
8
0
10
613.926417
20
329.104123
0
SEQEND
0
POLYLINE
70
1
62
7
8
0
66
1
0
VERTEX
8
0
10
587.332
20
307.834
42
-0.414214
0
VERTEX
8
0
10
580.331669
20
300.833874
42
-0.414214
0
VERTEX
8
0
10
573.331669
20
307.833874
42
-0.414214
0
VERTEX
8
0
10
580.331669
20
314.833874
42
-0.414214
0
VERTEX
8
0
10
587.331669
20
307.833874
0
SEQEND
0
POLYLINE
70
1
62
7
8
0
66
1
0
VERTEX
8
0
10
603.332
20
307.834
42
-0.414214
0
VERTEX
8
0
10
596.331669
20
300.833874
42
-0.414214
0
VERTEX
8
0
10
589.331669
20
307.833874
42
-0.414214
0
VERTEX
8
0
10
596.331669
20
314.833874
42
-0.414214
0
VERTEX
8
0
10
603.331669
20
307.833874
0
SEQEND
0
POLYLINE
70
1
62
7
8
0
66
1
0
VERTEX
8
0
10
619.332
20
307.834
42
-0.414214
0
VERTEX
8
0
10
612.331669
20
300.833874
42
-0.414214
0
VERTEX
8
0
10
605.331669
20
307.833874
42
-0.414214
0
VERTEX
8
0
10
612.331669
20
314.833874
42
-0.414214
0
VERTEX
8
0
10
619.331669
20
307.833874
0
SEQEND
0
POLYLINE
70
1
62
7
8
0
66
1
0
VERTEX
8
0
10
635.332
20
307.834
42
-0.414214
0
VERTEX
8
0
10
628.331669
20
300.833874
42
-0.414214
0
VERTEX
8
0
10
621.331669
20
307.833874
42
-0.414214
0
VERTEX
8
0
10
628.331669
20
314.833874
42
-0.414214
0
VERTEX
8
0
10
635.331669
20
307.833874
0
SEQEND
0
POLYLINE
70
1
62
7
8
0
66
1
0
VERTEX
8
0
10
587.332
20
291.834
42
-0.414214
0
VERTEX
8
0
10
580.331669
20
284.833874
42
-0.414214
0
VERTEX
8
0
10
573.331669
20
291.833874
42
-0.414214
0
VERTEX
8
0
10
580.331669
20
298.833874
42
-0.414214
0
VERTEX
8
0
10
587.331669
20
291.833874
0
SEQEND
0
POLYLINE
70
1
62
7
8
0
66
1
0
VERTEX
8
0
10
603.332
20
291.834
42
-0.414214
0
VERTEX
8
0
10
596.331669
20
284.833874
42
-0.414214
0
VERTEX
8
0
10
589.331669
20
291.833874
42
-0.414214
0
VERTEX
8
0
10
596.331669
20
298.833874
42
-0.414214
0
VERTEX
8
0
10
603.331669
20
291.833874
0
SEQEND
0
POLYLINE
70
1
62
7
8
0
66
1
0
VERTEX
8
0
10
619.332
20
291.834
42
-0.414214
0
VERTEX
8
0
10
612.331669
20
284.833874
42
-0.414214
0
VERTEX
8
0
10
605.331669
20
291.833874
42
-0.414214
0
VERTEX
8
0
10
612.331669
20
298.833874
42
-0.414214
0
VERTEX
8
0
10
619.331669
20
291.833874
0
SEQEND
0
POLYLINE
70
1
62
7
8
0
66
1
0
VERTEX
8
0
10
621.332
20
362.361
42
-0.414214
0
VERTEX
8
0
10
628.331669
20
369.360933
42
-0.414214
0
VERTEX
8
0
10
635.331669
20
362.360933
42
-0.414214
0
VERTEX
8
0
10
628.331669
20
355.360933
42
-0.414214
0
VERTEX
8
0
10
621.331669
20
362.360933
0
SEQEND
0
POLYLINE
70
1
62
7
8
0
66
1
0
VERTEX
8
0
10
605.332
20
362.361
42
-0.414214
0
VERTEX
8
0
10
612.331669
20
369.360933
42
-0.414214
0
VERTEX
8
0
10
619.331669
20
362.360933
42
-0.414214
0
VERTEX
8
0
10
612.331669
20
355.360933
42
-0.414214
0
VERTEX
8
0
10
605.331669
20
362.360933
0
SEQEND
0
POLYLINE
70
1
62
7
8
0
66
1
0
VERTEX
8
0
10
589.332
20
362.361
42
-0.414214
0
VERTEX
8
0
10
596.331669
20
369.360933
42
-0.414214
0
VERTEX
8
0
10
603.331669
20
362.360933
42
-0.414214
0
VERTEX
8
0
10
596.331669
20
355.360933
42
-0.414214
0
VERTEX
8
0
10
589.331669
20
362.360933
0
SEQEND
0
POLYLINE
70
1
62
7
8
0
66
1
0
VERTEX
8
0
10
573.332
20
362.361
42
-0.414214
0
VERTEX
8
0
10
580.331669
20
369.360933
42
-0.414214
0
VERTEX
8
0
10
587.331669
20
362.360933
42
-0.414214
0
VERTEX
8
0
10
580.331669
20
355.360933
42
-0.414214
0
VERTEX
8
0
10
573.331669
20
362.360933
0
SEQEND
0
POLYLINE
70
1
62
7
8
0
66
1
0
VERTEX
8
0
10
621.332
20
378.361
42
-0.414214
0
VERTEX
8
0
10
628.331669
20
385.360933
42
-0.414214
0
VERTEX
8
0
10
635.331669
20
378.360933
42
-0.414214
0
VERTEX
8
0
10
628.331669
20
371.360933
42
-0.414214
0
VERTEX
8
0
10
621.331669
20
378.360933
0
SEQEND
0
POLYLINE
70
1
62
7
8
0
66
1
0
VERTEX
8
0
10
605.332
20
378.361
42
-0.414214
0
VERTEX
8
0
10
612.331669
20
385.360933
42
-0.414214
0
VERTEX
8
0
10
619.331669
20
378.360933
42
-0.414214
0
VERTEX
8
0
10
612.331669
20
371.360933
42
-0.414214
0
VERTEX
8
0
10
605.331669
20
378.360933
0
SEQEND
0
POLYLINE
70
1
62
7
8
0
66
1
0
VERTEX
8
0
10
589.332
20
378.361
42
-0.414214
0
VERTEX
8
0
10
596.331669
20
385.360933
42
-0.414214
0
VERTEX
8
0
10
603.331669
20
378.360933
42
-0.414214
0
VERTEX
8
0
10
596.331669
20
371.360933
42
-0.414214
0
VERTEX
8
0
10
589.331669
20
378.360933
0
SEQEND
0
POLYLINE
70
0
62
1
8
0
66
1
0
VERTEX
8
0
10
481.119
20
133.273
0
VERTEX
8
0
10
481.119
20
150.917
0
VERTEX
8
0
10
571.231
20
150.917
0
VERTEX
8
0
10
571.231
20
174.640
0
SEQEND
0
POLYLINE
70
1
62
7
8
0
66
1
0
VERTEX
8
0
10
658.826
20
253.298
0
VERTEX
8
0
10
658.826
20
240.235
0
VERTEX
8
0
10
712.732
20
240.235
0
VERTEX
8
0
10
712.732
20
253.298
0
VERTEX
8
0
10
658.826
20
253.298
0
SEQEND
0
POLYLINE
70
0
62
7
8
0
66
1
0
VERTEX
8
0
10
670.341
20
243.664
0
VERTEX
8
0
10
670.341
20
249.865
0
VERTEX
8
0
10
671.014
20
249.865
0
VERTEX
8
0
10
671.014
20
244.396
0
VERTEX
8
0
10
673.518
20
244.396
0
VERTEX
8
0
10
673.518
20
243.664
0
VERTEX
8
0
10
670.341
20
243.664
0
SEQEND
0
POLYLINE
70
0
62
7
8
0
66
1
0
VERTEX
8
0
10
674.461
20
243.664
0
VERTEX
8
0
10
674.461
20
249.865
0
VERTEX
8
0
10
675.133
20
249.865
0
VERTEX
8
0
10
675.133
20
243.664
0
VERTEX
8
0
10
674.461
20
243.664
0
SEQEND
0
POLYLINE
70
0
62
7
8
0
66
1
0
VERTEX
8
0
10
676.288
20
243.664
0
VERTEX
8
0
10
676.288
20
249.865
0
VERTEX
8
0
10
677.299
20
249.865
0
VERTEX
8
0
10
678.504
20
245.474
0
VERTEX
8
0
10
678.745
20
244.557
0
VERTEX
8
0
10
679.016
20
245.551
0
VERTEX
8
0
10
680.234
20
249.865
0
VERTEX
8
0
10
681.143
20
249.865
0
VERTEX
8
0
10
681.143
20
243.664
0
VERTEX
8
0
10
680.496
20
243.664
0
VERTEX
8
0
10
680.496
20
248.850
0
VERTEX
8
0
10
679.012
20
243.664
0
VERTEX
8
0
10
678.407
20
243.664
0
VERTEX
8
0
10
676.935
20
248.938
0
VERTEX
8
0
10
676.935
20
243.664
0
VERTEX
8
0
10
676.288
20
243.664
0
SEQEND
0
POLYLINE
70
0
62
7
8
0
66
1
0
VERTEX
8
0
10
682.353
20
243.664
0
VERTEX
8
0
10
682.353
20
249.865
0
VERTEX
8
0
10
683.026
20
249.865
0
VERTEX
8
0
10
683.026
20
243.664
0
VERTEX
8
0
10
682.353
20
243.664
0
SEQEND
0
POLYLINE
70
0
62
7
8
0
66
1
0
VERTEX
8
0
10
685.504
20
243.664
0
VERTEX
8
0
10
685.504
20
249.133
0
VERTEX
8
0
10
683.829
20
249.133
0
VERTEX
8
0
10
683.829
20
249.865
0
VERTEX
8
0
10
687.860
20
249.865
0
VERTEX
8
0
10
687.860
20
249.133
0
VERTEX
8
0
10
686.177
20
249.133
0
VERTEX
8
0
10
686.177
20
243.664
0
VERTEX
8
0
10
685.504
20
243.664
0
SEQEND
0
POLYLINE
70
0
62
7
8
0
66
1
0
VERTEX
8
0
10
690.165
20
245.661
0
VERTEX
8
0
10
690.799
20
245.728
42
0.044994
0
VERTEX
8
0
10
690.894574
20
245.229409
42
0.069687
0
VERTEX
8
0
10
691.027877
20
244.928850
42
0.072525
0
VERTEX
8
0
10
691.237431
20
244.680763
42
0.063444
0
VERTEX
8
0
10
691.543883
20
244.472058
42
0.066988
0
VERTEX
8
0
10
691.877937
20
244.346256
42
0.056658
0
VERTEX
8
0
10
692.296744
20
244.298646
42
0.076126
0
VERTEX
8
0
10
692.864408
20
244.385578
42
0.105471
0
VERTEX
8
0
10
693.227246
20
244.590485
42
0.108667
0
VERTEX
8
0
10
693.472112
20
244.926282
42
0.103764
0
VERTEX
8
0
10
693.561381
20
245.351805
42
0.062887
0
VERTEX
8
0
10
693.528264
20
245.614074
42
0.071269
0
VERTEX
8
0
10
693.438724
20
245.829745
42
0.071551
0
VERTEX
8
0
10
693.293607
20
246.009687
42
0.061178
0
VERTEX
8
0
10
693.074982
20
246.168109
42
0.036788
0
VERTEX
8
0
10
692.829203
20
246.275206
42
0.011665
0
VERTEX
8
0
10
692.026052
20
246.536081
42
-0.027268
0
VERTEX
8
0
10
691.328032
20
246.786433
42
-0.054405
0
VERTEX
8
0
10
691.002500
20
246.967495
42
-0.059953
0
VERTEX
8
0
10
690.726265
20
247.217733
42
-0.062915
0
VERTEX
8
0
10
690.528790
20
247.513108
42
-0.064556
0
VERTEX
8
0
10
690.405747
20
247.850205
42
-0.055318
0
VERTEX
8
0
10
690.359607
20
248.265969
42
-0.094367
0
VERTEX
8
0
10
690.492025
20
248.961331
42
-0.104271
0
VERTEX
8
0
10
690.846006
20
249.496770
42
-0.107721
0
VERTEX
8
0
10
691.386181
20
249.838572
42
-0.087610
0
VERTEX
8
0
10
692.157169
20
249.974710
42
-0.055742
0
VERTEX
8
0
10
692.702789
20
249.913692
42
-0.064755
0
VERTEX
8
0
10
693.146885
20
249.750543
42
-0.069954
0
VERTEX
8
0
10
693.527400
20
249.471509
42
-0.071983
0
VERTEX
8
0
10
693.806695
20
249.107651
42
-0.064819
0
VERTEX
8
0
10
693.981335
20
248.672297
42
-0.054639
0
VERTEX
8
0
10
694.060469
20
248.122164
0
VERTEX
8
0
10
693.413
20
248.063
42
0.075484
0
VERTEX
8
0
10
693.278883
20
248.625322
42
0.108318
0
VERTEX
8
0
10
693.049605
20
248.959616
42
0.108074
0
VERTEX
8
0
10
692.704760
20
249.165632
42
0.080978
0
VERTEX
8
0
10
692.178316
20
249.251456
42
0.072097
0
VERTEX
8
0
10
691.638946
20
249.173275
42
0.104685
0
VERTEX
8
0
10
691.307028
20
248.993453
42
0.112711
0
VERTEX
8
0
10
691.087358
20
248.705439
42
0.107185
0
VERTEX
8
0
10
691.006729
20
248.333642
42
0.040160
0
VERTEX
8
0
10
691.022412
20
248.138704
42
0.053667
0
VERTEX
8
0
10
691.061185
20
247.997392
42
0.053667
0
VERTEX
8
0
10
691.134640
20
247.857070
42
0.060239
0
VERTEX
8
0
10
691.226666
20
247.749963
42
0.091520
0
VERTEX
8
0
10
691.465224
20
247.590946
42
0.032882
0
VERTEX
8
0
10
692.212153
20
247.327008
42
-0.016263
0
VERTEX
8
0
10
692.935473
20
247.107044
42
-0.033990
0
VERTEX
8
0
10
693.269542
20
246.967495
42
-0.063519
0
VERTEX
8
0
10
693.691908
20
246.677753
42
-0.074496
0
VERTEX
8
0
10
693.971648
20
246.341521
42
-0.075488
0
VERTEX
8
0
10
694.146381
20
245.935540
42
-0.064023
0
VERTEX
8
0
10
694.212733
20
245.419478
42
-0.063123
0
VERTEX
8
0
10
694.148082
20
244.909417
42
-0.065667
0
VERTEX
8
0
10
693.963189
20
244.450910
42
-0.067461
0
VERTEX
8
0
10
693.657472
20
244.057066
42
-0.072400
0
VERTEX
8
0
10
693.282231
20
243.782640
42
-0.065456
0
VERTEX
8
0
10
692.831588
20
243.620886
42
-0.053524
0
VERTEX
8
0
10
692.250219
20
243.558473
42
-0.090244
0
VERTEX
8
0
10
691.366345
20
243.719312
42
-0.109594
0
VERTEX
8
0
10
690.744497
20
244.125234
42
-0.105101
0
VERTEX
8
0
10
690.338953
20
244.757500
42
-0.085527
0
VERTEX
8
0
10
690.165048
20
245.660563
0
SEQEND
0
POLYLINE
70
0
62
7
8
0
66
1
0
VERTEX
8
0
10
696.031
20
243.664
0
VERTEX
8
0
10
694.678
20
249.865
0
VERTEX
8
0
10
695.367
20
249.865
0
VERTEX
8
0
10
696.141
20
245.800
42
-0.005306
0
VERTEX
8
0
10
696.255262
20
245.170911
42
-0.005238
0
VERTEX
8
0
10
696.357118
20
244.531271
0
VERTEX
8
0
10
696.586
20
245.677
0
VERTEX
8
0
10
697.554
20
249.865
0
VERTEX
8
0
10
698.370
20
249.865
0
VERTEX
8
0
10
699.094
20
246.726
42
-0.012209
0
VERTEX
8
0
10
699.327577
20
245.593282
42
-0.013147
0
VERTEX
8
0
10
699.491218
20
244.531271
42
-0.006571
0
VERTEX
8
0
10
699.584710
20
245.076752
42
-0.004442
0
VERTEX
8
0
10
699.740762
20
245.880500
0
VERTEX
8
0
10
700.540
20
249.865
0
VERTEX
8
0
10
701.217
20
249.865
0
VERTEX
8
0
10
699.821
20
243.664
0
VERTEX
8
0
10
699.174
20
243.664
0
VERTEX
8
0
10
698.100
20
248.389
0
VERTEX
8
0
10
697.939
20
249.116
42
-0.007634
0
VERTEX
8
0
10
697.866041
20
248.727432
42
-0.008700
0
VERTEX
8
0
10
697.790937
20
248.388626
0
VERTEX
8
0
10
696.712
20
243.664
0
VERTEX
8
0
10
696.031
20
243.664
0
SEQEND
0
POLYLINE
70
1
62
7
8
0
66
1
0
VERTEX
8
0
10
658.211
20
285.692
0
VERTEX
8
0
10
658.211
20
272.061
0
VERTEX
8
0
10
714.464
20
272.061
0
VERTEX
8
0
10
714.464
20
285.692
0
VERTEX
8
0
10
658.211
20
285.692
0
SEQEND
0
POLYLINE
70
0
62
7
8
0
66
1
0
VERTEX
8
0
10
659.285
20
275.774
0
VERTEX
8
0
10
659.285
20
281.975
0
VERTEX
8
0
10
661.201
20
281.975
42
-0.029532
0
VERTEX
8
0
10
661.857346
20
281.935770
42
-0.055357
0
VERTEX
8
0
10
662.199533
20
281.856121
42
-0.086159
0
VERTEX
8
0
10
662.583361
20
281.630067
42
-0.078500
0
VERTEX
8
0
10
662.901639
20
281.259754
42
-0.074091
0
VERTEX
8
0
10
663.090390
20
280.798251
42
-0.060153
0
VERTEX
8
0
10
663.163872
20
280.189676
42
-0.075911
0
VERTEX
8
0
10
663.042610
20
279.395565
42
-0.094296
0
VERTEX
8
0
10
662.736687
20
278.823529
42
-0.073313
0
VERTEX
8
0
10
662.508188
20
278.613245
42
-0.056508
0
VERTEX
8
0
10
662.152479
20
278.425951
42
-0.056508
0
VERTEX
8
0
10
661.808648
20
278.334905
42
-0.036506
0
VERTEX
8
0
10
661.260572
20
278.294835
0
VERTEX
8
0
10
659.958
20
278.295
0
VERTEX
8
0
10
659.958
20
275.774
0
VERTEX
8
0
10
659.285
20
275.774
0
SEQEND
0
POLYLINE
70
0
62
7
8
0
66
1
0
VERTEX
8
0
10
659.958
20
279.027
0
VERTEX
8
0
10
661.273
20
279.027
42
0.074599
0
VERTEX
8
0
10
661.855711
20
279.113935
42
0.116861
0
VERTEX
8
0
10
662.182615
20
279.305699
42
0.118148
0
VERTEX
8
0
10
662.382660
20
279.623766
42
0.081737
0
VERTEX
8
0
10
662.470225
20
280.155840
42
0.056146
0
VERTEX
8
0
10
662.431241
20
280.501915
42
0.064631
0
VERTEX
8
0
10
662.326420
20
280.786043
42
0.067307
0
VERTEX
8
0
10
662.160723
20
281.014789
42
0.086677
0
VERTEX
8
0
10
661.983826
20
281.145556
42
0.076307
0
VERTEX
8
0
10
661.768718
20
281.208815
42
0.033438
0
VERTEX
8
0
10
661.260572
20
281.242835
0
VERTEX
8
0
10
659.958
20
281.243
0
VERTEX
8
0
10
659.958
20
279.027
0
SEQEND
0
POLYLINE
70
0
62
7
8
0
66
1
0
VERTEX
8
0
10
664.006
20
275.774
0
VERTEX
8
0
10
664.006
20
281.975
0
VERTEX
8
0
10
664.695
20
281.975
0
VERTEX
8
0
10
667.368
20
277.094
0
VERTEX
8
0
10
667.368
20
281.975
0
VERTEX
8
0
10
668.011
20
281.975
0
VERTEX
8
0
10
668.011
20
275.774
0
VERTEX
8
0
10
667.322
20
275.774
0
VERTEX
8
0
10
664.653
20
280.651
0
VERTEX
8
0
10
664.653
20
275.774
0
VERTEX
8
0
10
664.006
20
275.774
0
SEQEND
0
POLYLINE
70
0
62
7
8
0
66
1
0
VERTEX
8
0
10
669.166
20
275.774
0
VERTEX
8
0
10
669.166
20
281.975
0
VERTEX
8
0
10
672.841
20
281.975
0
VERTEX
8
0
10
672.841
20
281.243
0
VERTEX
8
0
10
669.838
20
281.243
0
VERTEX
8
0
10
669.838
20
279.348
0
VERTEX
8
0
10
672.651
20
279.348
0
VERTEX
8
0
10
672.651
20
278.616
0
VERTEX
8
0
10
669.838
20
278.616
0
VERTEX
8
0
10
669.838
20
276.506
0
VERTEX
8
0
10
672.960
20
276.506
0
VERTEX
8
0
10
672.960
20
275.774
0
VERTEX
8
0
10
669.166
20
275.774
0
SEQEND
0
POLYLINE
70
0
62
7
8
0
66
1
0
VERTEX
8
0
10
677.210
20
281.975
0
VERTEX
8
0
10
677.883
20
281.975
0
VERTEX
8
0
10
677.883
20
278.392
42
-0.029866
0
VERTEX
8
0
10
677.829220
20
277.497150
42
-0.044797
0
VERTEX
8
0
10
677.705085
20
276.911770
42
-0.078608
0
VERTEX
8
0
10
677.447745
20
276.386290
42
-0.085094
0
VERTEX
8
0
10
677.066422
20
276.002416
42
-0.088003
0
VERTEX
8
0
10
676.575223
20
275.763667
42
-0.069329
0
VERTEX
8
0
10
675.890605
20
275.668281
42
-0.095170
0
VERTEX
8
0
10
674.967488
20
275.845593
42
-0.125035
0
VERTEX
8
0
10
674.384883
20
276.268878
42
-0.117547
0
VERTEX
8
0
10
674.055939
20
276.924731
42
-0.057781
0
VERTEX
8
0
10
673.885796
20
278.392115
0
VERTEX
8
0
10
673.886
20
281.975
0
VERTEX
8
0
10
674.558
20
281.975
0
VERTEX
8
0
10
674.558
20
278.396
42
0.011092
0
VERTEX
8
0
10
674.568533
20
277.934892
42
0.019260
0
VERTEX
8
0
10
674.590545
20
277.669918
42
0.019260
0
VERTEX
8
0
10
674.642574
20
277.347344
42
0.035896
0
VERTEX
8
0
10
674.689411
20
277.178232
42
0.079423
0
VERTEX
8
0
10
674.865210
20
276.840772
42
0.087457
0
VERTEX
8
0
10
675.116596
20
276.603013
42
0.080612
0
VERTEX
8
0
10
675.427983
20
276.463133
42
0.065425
0
VERTEX
8
0
10
675.844080
20
276.408453
42
0.093286
0
VERTEX
8
0
10
676.501385
20
276.532165
42
0.132237
0
VERTEX
8
0
10
676.884551
20
276.814490
42
0.117990
0
VERTEX
8
0
10
677.094824
20
277.263539
42
0.050805
0
VERTEX
8
0
10
677.210227
20
278.396344
0
VERTEX
8
0
10
677.210
20
281.975
0
SEQEND
0
POLYLINE
70
0
62
7
8
0
66
1
0
VERTEX
8
0
10
678.995
20
275.774
0
VERTEX
8
0
10
678.995
20
281.975
0
VERTEX
8
0
10
680.006
20
281.975
0
VERTEX
8
0
10
681.211
20
277.584
0
VERTEX
8
0
10
681.452
20
276.666
0
VERTEX
8
0
10
681.723
20
277.660
0
VERTEX
8
0
10
682.941
20
281.975
0
VERTEX
8
0
10
683.851
20
281.975
0
VERTEX
8
0
10
683.851
20
275.774
0
VERTEX
8
0
10
683.204
20
275.774
0
VERTEX
8
0
10
683.204
20
280.959
0
VERTEX
8
0
10
681.719
20
275.774
0
VERTEX
8
0
10
681.114
20
275.774
0
VERTEX
8
0
10
679.642
20
281.048
0
VERTEX
8
0
10
679.642
20
275.774
0
VERTEX
8
0
10
678.995
20
275.774
0
SEQEND
0
POLYLINE
70
0
62
7
8
0
66
1
0
VERTEX
8
0
10
684.375
20
275.774
0
VERTEX
8
0
10
686.333
20
281.975
0
VERTEX
8
0
10
687.052
20
281.975
0
VERTEX
8
0
10
689.138
20
275.774
0
VERTEX
8
0
10
688.364
20
275.774
0
VERTEX
8
0
10
687.776
20
277.652
0
VERTEX
8
0
10
685.636
20
277.652
0
VERTEX
8
0
10
685.081
20
275.774
0
VERTEX
8
0
10
684.375
20
275.774
0
SEQEND
0
POLYLINE
70
0
62
7
8
0
66
1
0
VERTEX
8
0
10
685.830
20
278.320
0
VERTEX
8
0
10
687.564
20
278.320
0
VERTEX
8
0
10
687.035
20
280.037
42
-0.008020
0
VERTEX
8
0
10
686.811830
20
280.790514
42
-0.011461
0
VERTEX
8
0
10
686.675972
20
281.323197
42
-0.015724
0
VERTEX
8
0
10
686.545307
20
280.678747
42
-0.018470
0
VERTEX
8
0
10
686.396822
20
280.138921
0
VERTEX
8
0
10
685.830
20
278.320
0
SEQEND
0
POLYLINE
70
0
62
7
8
0
66
1
0
VERTEX
8
0
10
690.453
20
275.774
0
VERTEX
8
0
10
690.453
20
281.243
0
VERTEX
8
0
10
688.778
20
281.243
0
VERTEX
8
0
10
688.778
20
281.975
0
VERTEX
8
0
10
692.809
20
281.975
0
VERTEX
8
0
10
692.809
20
281.243
0
VERTEX
8
0
10
691.125
20
281.243
0
VERTEX
8
0
10
691.125
20
275.774
0
VERTEX
8
0
10
690.453
20
275.774
0
SEQEND
0
POLYLINE
70
0
62
7
8
0
66
1
0
VERTEX
8
0
10
693.617
20
275.774
0
VERTEX
8
0
10
693.617
20
281.975
0
VERTEX
8
0
10
694.289
20
281.975
0
VERTEX
8
0
10
694.289
20
275.774
0
VERTEX
8
0
10
693.617
20
275.774
0
SEQEND
0
POLYLINE
70
0
62
7
8
0
66
1
0
VERTEX
8
0
10
699.073
20
277.948
0
VERTEX
8
0
10
699.750
20
277.741
42
-0.063103
0
VERTEX
8
0
10
699.402386
20
276.762065
42
-0.090219
0
VERTEX
8
0
10
698.962832
20
276.180057
42
-0.096435
0
VERTEX
8
0
10
698.353480
20
275.805011
42
-0.090105
0
VERTEX
8
0
10
697.600915
20
275.668281
42
-0.069107
0
VERTEX
8
0
10
696.921626
20
275.762619
42
-0.081079
0
VERTEX
8
0
10
696.391262
20
276.010875
42
-0.083653
0
VERTEX
8
0
10
695.968464
20
276.417998
42
-0.060718
0
VERTEX
8
0
10
695.570728
20
277.119018
42
-0.055085
0
VERTEX
8
0
10
695.342682
20
277.898173
42
-0.043696
0
VERTEX
8
0
10
695.253511
20
278.916580
42
-0.045262
0
VERTEX
8
0
10
695.344598
20
279.920723
42
-0.059810
0
VERTEX
8
0
10
695.570728
20
280.650698
42
-0.065367
0
VERTEX
8
0
10
695.962265
20
281.288697
42
-0.076274
0
VERTEX
8
0
10
696.437787
20
281.720775
42
-0.073917
0
VERTEX
8
0
10
697.014815
20
281.990843
42
-0.072673
0
VERTEX
8
0
10
697.655899
20
282.084517
42
-0.087617
0
VERTEX
8
0
10
698.343738
20
281.963051
42
-0.091497
0
VERTEX
8
0
10
698.920536
20
281.623495
42
-0.089069
0
VERTEX
8
0
10
699.342017
20
281.107058
42
-0.066833
0
VERTEX
8
0
10
699.664938
20
280.282726
0
VERTEX
8
0
10
699.005
20
280.092
42
0.056650
0
VERTEX
8
0
10
698.757890
20
280.723891
42
0.090437
0
VERTEX
8
0
10
698.493880
20
281.059378
42
0.090437
0
VERTEX
8
0
10
698.096796
20
281.299188
42
0.090980
0
VERTEX
8
0
10
697.643210
20
281.382411
42
0.072550
0
VERTEX
8
0
10
697.162781
20
281.312332
42
0.079571
0
VERTEX
8
0
10
696.763463
20
281.120178
42
0.082704
0
VERTEX
8
0
10
696.448168
20
280.813013
42
0.062817
0
VERTEX
8
0
10
696.167095
20
280.308104
42
0.057500
0
VERTEX
8
0
10
696.012993
20
279.754804
42
0.039210
0
VERTEX
8
0
10
695.947159
20
278.916580
42
0.024946
0
VERTEX
8
0
10
695.975817
20
278.342523
42
0.026226
0
VERTEX
8
0
10
696.058713
20
277.802092
42
0.026226
0
VERTEX
8
0
10
696.114550
20
277.589702
42
0.023924
0
VERTEX
8
0
10
696.198751
20
277.364201
42
0.023924
0
VERTEX
8
0
10
696.295521
20
277.165416
42
0.027967
0
VERTEX
8
0
10
696.395491
20
277.004820
42
0.054862
0
VERTEX
8
0
10
696.647058
20
276.718190
42
0.063739
0
VERTEX
8
0
10
696.915727
20
276.528995
42
0.063739
0
VERTEX
8
0
10
697.226250
20
276.412495
42
0.057969
0
VERTEX
8
0
10
697.588226
20
276.370387
42
0.097737
0
VERTEX
8
0
10
698.098970
20
276.471187
42
0.097227
0
VERTEX
8
0
10
698.535647
20
276.759506
42
0.092492
0
VERTEX
8
0
10
698.842251
20
277.199182
42
0.062988
0
VERTEX
8
0
10
699.072800
20
277.948011
0
SEQEND
0
POLYLINE
70
0
62
7
8
0
66
1
0
VERTEX
8
0
10
702.338
20
277.770
0
VERTEX
8
0
10
702.972
20
277.838
42
0.044994
0
VERTEX
8
0
10
703.067544
20
277.339216
42
0.069687
0
VERTEX
8
0
10
703.200847
20
277.038657
42
0.072525
0
VERTEX
8
0
10
703.410400
20
276.790570
42
0.063444
0
VERTEX
8
0
10
703.716853
20
276.581865
42
0.066988
0
VERTEX
8
0
10
704.050906
20
276.456063
42
0.056658
0
VERTEX
8
0
10
704.469713
20
276.408453
42
0.076126
0
VERTEX
8
0
10
705.037378
20
276.495385
42
0.105471
0
VERTEX
8
0
10
705.400216
20
276.700292
42
0.108667
0
VERTEX
8
0
10
705.645082
20
277.036089
42
0.103764
0
VERTEX
8
0
10
705.734351
20
277.461612
42
0.062887
0
VERTEX
8
0
10
705.701233
20
277.723881
42
0.071269
0
VERTEX
8
0
10
705.611694
20
277.939552
42
0.071551
0
VERTEX
8
0
10
705.466577
20
278.119495
42
0.061178
0
VERTEX
8
0
10
705.247952
20
278.277917
42
0.036788
0
VERTEX
8
0
10
705.002173
20
278.385014
42
0.011665
0
VERTEX
8
0
10
704.199022
20
278.645888
42
-0.027268
0
VERTEX
8
0
10
703.501001
20
278.896241
42
-0.054405
0
VERTEX
8
0
10
703.175469
20
279.077303
42
-0.059953
0
VERTEX
8
0
10
702.899235
20
279.327541
42
-0.062915
0
VERTEX
8
0
10
702.701759
20
279.622915
42
-0.064556
0
VERTEX
8
0
10
702.578717
20
279.960013
42
-0.055318
0
VERTEX
8
0
10
702.532577
20
280.375776
42
-0.094367
0
VERTEX
8
0
10
702.664994
20
281.071138
42
-0.104271
0
VERTEX
8
0
10
703.018976
20
281.606577
42
-0.107721
0
VERTEX
8
0
10
703.559151
20
281.948379
42
-0.087610
0
VERTEX
8
0
10
704.330138
20
282.084517
42
-0.055742
0
VERTEX
8
0
10
704.875758
20
282.023499
42
-0.064755
0
VERTEX
8
0
10
705.319854
20
281.860350
42
-0.069954
0
VERTEX
8
0
10
705.700369
20
281.581316
42
-0.071983
0
VERTEX
8
0
10
705.979665
20
281.217458
42
-0.064819
0
VERTEX
8
0
10
706.154304
20
280.782105
42
-0.054639
0
VERTEX
8
0
10
706.233438
20
280.231972
0
VERTEX
8
0
10
705.586
20
280.173
42
0.075484
0
VERTEX
8
0
10
705.451853
20
280.735129
42
0.108318
0
VERTEX
8
0
10
705.222574
20
281.069424
42
0.108074
0
VERTEX
8
0
10
704.877730
20
281.275440
42
0.080978
0
VERTEX
8
0
10
704.351286
20
281.361263
42
0.072097
0
VERTEX
8
0
10
703.811916
20
281.283082
42
0.104685
0
VERTEX
8
0
10
703.479997
20
281.103260
42
0.112711
0
VERTEX
8
0
10
703.260328
20
280.815247
42
0.107185
0
VERTEX
8
0
10
703.179699
20
280.443449
42
0.040160
0
VERTEX
8
0
10
703.195382
20
280.248511
42
0.053667
0
VERTEX
8
0
10
703.234154
20
280.107200
42
0.053667
0
VERTEX
8
0
10
703.307609
20
279.966878
42
0.060239
0
VERTEX
8
0
10
703.399636
20
279.859771
42
0.091520
0
VERTEX
8
0
10
703.638194
20
279.700753
42
0.032882
0
VERTEX
8
0
10
704.385122
20
279.436815
42
-0.016263
0
VERTEX
8
0
10
705.108443
20
279.216852
42
-0.033990
0
VERTEX
8
0
10
705.442511
20
279.077303
42
-0.063519
0
VERTEX
8
0
10
705.864877
20
278.787560
42
-0.074496
0
VERTEX
8
0
10
706.144618
20
278.451329
42
-0.075488
0
VERTEX
8
0
10
706.319351
20
278.045348
42
-0.064023
0
VERTEX
8
0
10
706.385702
20
277.529285
42
-0.063123
0
VERTEX
8
0
10
706.321051
20
277.019224
42
-0.065667
0
VERTEX
8
0
10
706.136158
20
276.560717
42
-0.067461
0
VERTEX
8
0
10
705.830441
20
276.166873
42
-0.072400
0
VERTEX
8
0
10
705.455200
20
275.892447
42
-0.065456
0
VERTEX
8
0
10
705.004557
20
275.730694
42
-0.053524
0
VERTEX
8
0
10
704.423188
20
275.668281
42
-0.090244
0
VERTEX
8
0
10
703.539315
20
275.829120
42
-0.109594
0
VERTEX
8
0
10
702.917466
20
276.235041
42
-0.105101
0
VERTEX
8
0
10
702.511923
20
276.867307
42
-0.085527
0
VERTEX
8
0
10
702.338017
20
277.770370
0
SEQEND
0
POLYLINE
70
0
62
7
8
0
66
1
0
VERTEX
8
0
10
708.204
20
275.774
0
VERTEX
8
0
10
706.851
20
281.975
0
VERTEX
8
0
10
707.540
20
281.975
0
VERTEX
8
0
10
708.314
20
277.910
42
-0.005306
0
VERTEX
8
0
10
708.428231
20
277.280718
42
-0.005238
0
VERTEX
8
0
10
708.530087
20
276.641079
0
VERTEX
8
0
10
708.758
20
277.787
0
VERTEX
8
0
10
709.727
20
281.975
0
VERTEX
8
0
10
710.543
20
281.975
0
VERTEX
8
0
10
711.267
20
278.836
42
-0.012209
0
VERTEX
8
0
10
711.500547
20
277.703090
42
-0.013147
0
VERTEX
8
0
10
711.664188
20
276.641079
42
-0.006571
0
VERTEX
8
0
10
711.757680
20
277.186560
42
-0.004442
0
VERTEX
8
0
10
711.913732
20
277.990307
0
VERTEX
8
0
10
712.713
20
281.975
0
VERTEX
8
0
10
713.390
20
281.975
0
VERTEX
8
0
10
711.994
20
275.774
0
VERTEX
8
0
10
711.347
20
275.774
0
VERTEX
8
0
10
710.273
20
280.498
0
VERTEX
8
0
10
710.112
20
281.226
42
-0.007634
0
VERTEX
8
0
10
710.039011
20
280.837239
42
-0.008700
0
VERTEX
8
0
10
709.963906
20
280.498434
0
VERTEX
8
0
10
708.885
20
275.774
0
VERTEX
8
0
10
708.204
20
275.774
0
SEQEND
0
POLYLINE
70
1
62
7
8
0
66
1
0
VERTEX
8
0
10
644.173
20
126.661
0
VERTEX
8
0
10
644.173
20
101.984
0
VERTEX
8
0
10
687.642
20
101.984
0
VERTEX
8
0
10
687.642
20
126.661
0
VERTEX
8
0
10
644.173
20
126.661
0
SEQEND
0
POLYLINE
70
0
62
7
8
0
66
1
0
VERTEX
8
0
10
655.045
20
115.571
0
VERTEX
8
0
10
655.045
20
119.981
0
VERTEX
8
0
10
653.694
20
119.981
0
VERTEX
8
0
10
653.694
20
120.571
0
VERTEX
8
0
10
656.945
20
120.571
0
VERTEX
8
0
10
656.945
20
119.981
0
VERTEX
8
0
10
655.587
20
119.981
0
VERTEX
8
0
10
655.587
20
115.571
0
VERTEX
8
0
10
655.045
20
115.571
0
SEQEND
0
POLYLINE
70
0
62
7
8
0
66
1
0
VERTEX
8
0
10
657.490
20
115.571
0
VERTEX
8
0
10
657.490
20
120.571
0
VERTEX
8
0
10
658.033
20
120.571
0
VERTEX
8
0
10
658.033
20
118.517
0
VERTEX
8
0
10
660.164
20
118.517
0
VERTEX
8
0
10
660.164
20
120.571
0
VERTEX
8
0
10
660.707
20
120.571
0
VERTEX
8
0
10
660.707
20
115.571
0
VERTEX
8
0
10
660.164
20
115.571
0
VERTEX
8
0
10
660.164
20
117.927
0
VERTEX
8
0
10
658.033
20
117.927
0
VERTEX
8
0
10
658.033
20
115.571
0
VERTEX
8
0
10
657.490
20
115.571
0
SEQEND
0
POLYLINE
70
0
62
7
8
0
66
1
0
VERTEX
8
0
10
661.638
20
115.571
0
VERTEX
8
0
10
661.638
20
120.571
0
VERTEX
8
0
10
664.602
20
120.571
0
VERTEX
8
0
10
664.602
20
119.981
0
VERTEX
8
0
10
662.180
20
119.981
0
VERTEX
8
0
10
662.180
20
118.453
0
VERTEX
8
0
10
664.448
20
118.453
0
VERTEX
8
0
10
664.448
20
117.863
0
VERTEX
8
0
10
662.180
20
117.863
0
VERTEX
8
0
10
662.180
20
116.161
0
VERTEX
8
0
10
664.697
20
116.161
0
VERTEX
8
0
10
664.697
20
115.571
0
VERTEX
8
0
10
661.638
20
115.571
0
SEQEND
0
POLYLINE
70
0
62
7
8
0
66
1
0
VERTEX
8
0
10
665.444
20
115.571
0
VERTEX
8
0
10
665.444
20
120.571
0
VERTEX
8
0
10
667.262
20
120.571
42
-0.041311
0
VERTEX
8
0
10
667.815362
20
120.524867
42
-0.076654
0
VERTEX
8
0
10
668.100852
20
120.430842
42
-0.080612
0
VERTEX
8
0
10
668.341232
20
120.249274
42
-0.068778
0
VERTEX
8
0
10
668.547646
20
119.963584
42
-0.065477
0
VERTEX
8
0
10
668.674374
20
119.624400
42
-0.056761
0
VERTEX
8
0
10
668.721589
20
119.209832
42
-0.078360
0
VERTEX
8
0
10
668.637417
20
118.676049
42
-0.096850
0
VERTEX
8
0
10
668.424863
20
118.292370
42
-0.098005
0
VERTEX
8
0
10
668.086197
20
118.020509
42
-0.077651
0
VERTEX
8
0
10
667.568792
20
117.845576
42
-0.030199
0
VERTEX
8
0
10
667.783622
20
117.695182
42
-0.043280
0
VERTEX
8
0
10
667.916677
20
117.569314
42
-0.027258
0
VERTEX
8
0
10
668.139951
20
117.271762
42
-0.025590
0
VERTEX
8
0
10
668.343007
20
116.931524
0
VERTEX
8
0
10
669.059
20
115.571
0
VERTEX
8
0
10
668.377
20
115.571
0
VERTEX
8
0
10
667.828
20
116.608
42
0.012344
0
VERTEX
8
0
10
667.503109
20
117.199998
42
0.030291
0
VERTEX
8
0
10
667.350511
20
117.429478
42
0.044966
0
VERTEX
8
0
10
667.172389
20
117.624182
42
0.072681
0
VERTEX
8
0
10
667.036732
20
117.715971
42
0.065697
0
VERTEX
8
0
10
666.870898
20
117.768257
42
0.043582
0
VERTEX
8
0
10
666.610402
20
117.791006
0
VERTEX
8
0
10
665.986
20
117.791
0
VERTEX
8
0
10
665.986
20
115.571
0
VERTEX
8
0
10
665.444
20
115.571
0
SEQEND
0
POLYLINE
70
0
62
7
8
0
66
1
0
VERTEX
8
0
10
665.986
20
118.364
0
VERTEX
8
0
10
667.153
20
118.364
42
0.039397
0
VERTEX
8
0
10
667.526501
20
118.393493
42
0.068833
0
VERTEX
8
0
10
667.732503
20
118.456081
42
0.076020
0
VERTEX
8
0
10
667.908076
20
118.574688
42
0.073150
0
VERTEX
8
0
10
668.046282
20
118.745985
42
0.069631
0
VERTEX
8
0
10
668.131028
20
118.954667
42
0.061759
0
VERTEX
8
0
10
668.162243
20
119.206422
42
0.089616
0
VERTEX
8
0
10
668.098956
20
119.556686
42
0.110358
0
VERTEX
8
0
10
667.940552
20
119.799873
42
0.110940
0
VERTEX
8
0
10
667.685772
20
119.953001
42
0.080220
0
VERTEX
8
0
10
667.282298
20
120.018154
0
VERTEX
8
0
10
665.986
20
120.018
0
VERTEX
8
0
10
665.986
20
118.364
0
SEQEND
0
POLYLINE
70
0
62
7
8
0
66
1
0
VERTEX
8
0
10
669.564
20
115.571
0
VERTEX
8
0
10
669.564
20
120.571
0
VERTEX
8
0
10
670.379
20
120.571
0
VERTEX
8
0
10
671.351
20
117.030
0
VERTEX
8
0
10
671.546
20
116.290
0
VERTEX
8
0
10
671.764
20
117.092
0
VERTEX
8
0
10
672.746
20
120.571
0
VERTEX
8
0
10
673.479
20
120.571
0
VERTEX
8
0
10
673.479
20
115.571
0
VERTEX
8
0
10
672.958
20
115.571
0
VERTEX
8
0
10
672.958
20
119.752
0
VERTEX
8
0
10
671.760
20
115.571
0
VERTEX
8
0
10
671.273
20
115.571
0
VERTEX
8
0
10
670.086
20
119.824
0
VERTEX
8
0
10
670.086
20
115.571
0
VERTEX
8
0
10
669.564
20
115.571
0
SEQEND
0
POLYLINE
70
0
62
7
8
0
66
1
0
VERTEX
8
0
10
674.199
20
118.006
42
-0.069860
0
VERTEX
8
0
10
674.370064
20
119.223674
42
-0.102448
0
VERTEX
8
0
10
674.761834
20
119.970405
42
-0.107064
0
VERTEX
8
0
10
675.410209
20
120.484218
42
-0.114702
0
VERTEX
8
0
10
676.163608
20
120.659355
42
-0.075372
0
VERTEX
8
0
10
676.678414
20
120.581307
42
-0.074512
0
VERTEX
8
0
10
677.152694
20
120.352397
42
-0.074735
0
VERTEX
8
0
10
677.533622
20
119.995426
42
-0.062079
0
VERTEX
8
0
10
677.858696
20
119.458809
42
-0.058600
0
VERTEX
8
0
10
678.047537
20
118.856027
42
-0.046667
0
VERTEX
8
0
10
678.121316
20
118.067268
42
-0.068060
0
VERTEX
8
0
10
677.975865
20
117.003667
42
-0.088376
0
VERTEX
8
0
10
677.616541
20
116.256217
42
-0.053170
0
VERTEX
8
0
10
677.302068
20
115.905866
42
-0.062717
0
VERTEX
8
0
10
676.974061
20
115.677687
42
-0.062717
0
VERTEX
8
0
10
676.594556
20
115.536024
42
-0.058064
0
VERTEX
8
0
10
676.160197
20
115.485412
42
-0.059167
0
VERTEX
8
0
10
675.722081
20
115.537438
42
-0.064009
0
VERTEX
8
0
10
675.340790
20
115.682803
42
-0.064009
0
VERTEX
8
0
10
675.014147
20
115.915958
42
-0.053670
0
VERTEX
8
0
10
674.700443
20
116.276681
42
-0.082316
0
VERTEX
8
0
10
674.336798
20
117.036328
42
-0.070668
0
VERTEX
8
0
10
674.199078
20
118.005876
0
SEQEND
0
POLYLINE
70
0
62
7
8
0
66
1
0
VERTEX
8
0
10
674.758
20
117.996
42
0.030475
0
VERTEX
8
0
10
674.787823
20
117.513743
42
0.042436
0
VERTEX
8
0
10
674.859037
20
117.174106
42
0.042436
0
VERTEX
8
0
10
675.000144
20
116.817018
42
0.053449
0
VERTEX
8
0
10
675.164290
20
116.559764
42
0.106104
0
VERTEX
8
0
10
675.631693
20
116.178194
42
0.118861
0
VERTEX
8
0
10
676.156786
20
116.051579
42
0.119529
0
VERTEX
8
0
10
676.690223
20
116.180949
42
0.108209
0
VERTEX
8
0
10
677.156104
20
116.566585
42
0.102039
0
VERTEX
8
0
10
677.435973
20
117.124105
42
0.065560
0
VERTEX
8
0
10
677.561971
20
118.080910
42
0.044668
0
VERTEX
8
0
10
677.505849
20
118.707876
42
0.051404
0
VERTEX
8
0
10
677.353921
20
119.233707
42
0.065439
0
VERTEX
8
0
10
677.145709
20
119.589709
42
0.070167
0
VERTEX
8
0
10
676.869610
20
119.857854
42
0.077021
0
VERTEX
8
0
10
676.528101
20
120.034323
42
0.080978
0
VERTEX
8
0
10
676.167018
20
120.093188
42
0.118135
0
VERTEX
8
0
10
675.619782
20
119.962063
42
0.109943
0
VERTEX
8
0
10
675.154058
20
119.578182
42
0.104742
0
VERTEX
8
0
10
674.885424
20
119.027285
42
0.061321
0
VERTEX
8
0
10
674.758423
20
117.995644
0
SEQEND
0
POLYLINE
70
0
62
7
8
0
66
1
0
VERTEX
8
0
10
657.536
20
109.824
0
VERTEX
8
0
10
658.082
20
109.657
42
-0.063103
0
VERTEX
8
0
10
657.802163
20
108.867421
42
-0.090219
0
VERTEX
8
0
10
657.447714
20
108.398100
42
-0.096435
0
VERTEX
8
0
10
656.956343
20
108.095669
42
-0.090105
0
VERTEX
8
0
10
656.349488
20
107.985412
42
-0.069107
0
VERTEX
8
0
10
655.801720
20
108.061485
42
-0.081079
0
VERTEX
8
0
10
655.374044
20
108.261674
42
-0.083653
0
VERTEX
8
0
10
655.033107
20
108.589971
42
-0.060718
0
VERTEX
8
0
10
654.712380
20
109.155262
42
-0.055085
0
VERTEX
8
0
10
654.528487
20
109.783559
42
-0.043696
0
VERTEX
8
0
10
654.456582
20
110.604785
42
-0.045262
0
VERTEX
8
0
10
654.530032
20
111.414509
42
-0.059810
0
VERTEX
8
0
10
654.712380
20
112.003147
42
-0.065367
0
VERTEX
8
0
10
655.028108
20
112.517619
42
-0.076274
0
VERTEX
8
0
10
655.411561
20
112.866040
42
-0.073917
0
VERTEX
8
0
10
655.876867
20
113.083818
42
-0.072673
0
VERTEX
8
0
10
656.393826
20
113.159355
42
-0.087617
0
VERTEX
8
0
10
656.948488
20
113.061407
42
-0.091497
0
VERTEX
8
0
10
657.413608
20
112.787595
42
-0.089069
0
VERTEX
8
0
10
657.753483
20
112.371149
42
-0.066833
0
VERTEX
8
0
10
658.013881
20
111.706422
0
VERTEX
8
0
10
657.482
20
111.553
42
0.056650
0
VERTEX
8
0
10
657.282452
20
112.062169
42
0.090437
0
VERTEX
8
0
10
657.069559
20
112.332701
42
0.090437
0
VERTEX
8
0
10
656.749358
20
112.526079
42
0.090980
0
VERTEX
8
0
10
656.383594
20
112.593188
42
0.072550
0
VERTEX
8
0
10
655.996184
20
112.536678
42
0.079571
0
VERTEX
8
0
10
655.674181
20
112.381729
42
0.082704
0
VERTEX
8
0
10
655.419932
20
112.134036
42
0.062817
0
VERTEX
8
0
10
655.193280
20
111.726886
42
0.057500
0
VERTEX
8
0
10
655.069014
20
111.280714
42
0.039210
0
VERTEX
8
0
10
655.015927
20
110.604785
42
0.024946
0
VERTEX
8
0
10
655.039037
20
110.141875
42
0.026226
0
VERTEX
8
0
10
655.105883
20
109.706081
42
0.026226
0
VERTEX
8
0
10
655.150909
20
109.534813
42
0.023924
0
VERTEX
8
0
10
655.218807
20
109.352973
42
0.023924
0
VERTEX
8
0
10
655.296841
20
109.192676
42
0.027967
0
VERTEX
8
0
10
655.377455
20
109.063175
42
0.118353
0
VERTEX
8
0
10
655.804956
20
108.684840
42
0.122825
0
VERTEX
8
0
10
656.339256
20
108.551579
42
0.097737
0
VERTEX
8
0
10
656.751111
20
108.632862
42
0.097227
0
VERTEX
8
0
10
657.103239
20
108.865358
42
0.092492
0
VERTEX
8
0
10
657.350479
20
109.219904
42
0.062988
0
VERTEX
8
0
10
657.536391
20
109.823748
0
SEQEND
0
POLYLINE
70
0
62
7
8
0
66
1
0
VERTEX
8
0
10
658.607
20
110.506
42
-0.069860
0
VERTEX
8
0
10
658.778318
20
111.723674
42
-0.102448
0
VERTEX
8
0
10
659.170088
20
112.470405
42
-0.107064
0
VERTEX
8
0
10
659.818463
20
112.984218
42
-0.114702
0
VERTEX
8
0
10
660.571861
20
113.159355
42
-0.075372
0
VERTEX
8
0
10
661.086667
20
113.081307
42
-0.074512
0
VERTEX
8
0
10
661.560947
20
112.852397
42
-0.074735
0
VERTEX
8
0
10
661.941876
20
112.495426
42
-0.062079
0
VERTEX
8
0
10
662.266950
20
111.958809
42
-0.058600
0
VERTEX
8
0
10
662.455791
20
111.356027
42
-0.046667
0
VERTEX
8
0
10
662.529569
20
110.567268
42
-0.068060
0
VERTEX
8
0
10
662.384118
20
109.503667
42
-0.088376
0
VERTEX
8
0
10
662.024795
20
108.756217
42
-0.053170
0
VERTEX
8
0
10
661.710322
20
108.405866
42
-0.062717
0
VERTEX
8
0
10
661.382315
20
108.177687
42
-0.062717
0
VERTEX
8
0
10
661.002809
20
108.036024
42
-0.058064
0
VERTEX
8
0
10
660.568451
20
107.985412
42
-0.059167
0
VERTEX
8
0
10
660.130335
20
108.037438
42
-0.064009
0
VERTEX
8
0
10
659.749044
20
108.182803
42
-0.064009
0
VERTEX
8
0
10
659.422401
20
108.415958
42
-0.053670
0
VERTEX
8
0
10
659.108696
20
108.776681
42
-0.082316
0
VERTEX
8
0
10
658.745052
20
109.536328
42
-0.070668
0
VERTEX
8
0
10
658.607332
20
110.505876
0
SEQEND
0
POLYLINE
70
0
62
7
8
0
66
1
0
VERTEX
8
0
10
659.167
20
110.496
42
0.030475
0
VERTEX
8
0
10
659.196077
20
110.013743
42
0.042436
0
VERTEX
8
0
10
659.267291
20
109.674106
42
0.042436
0
VERTEX
8
0
10
659.408398
20
109.317018
42
0.053449
0
VERTEX
8
0
10
659.572544
20
109.059764
42
0.106104
0
VERTEX
8
0
10
660.039946
20
108.678194
42
0.118861
0
VERTEX
8
0
10
660.565040
20
108.551579
42
0.119529
0
VERTEX
8
0
10
661.098477
20
108.680949
42
0.108209
0
VERTEX
8
0
10
661.564358
20
109.066585
42
0.102039
0
VERTEX
8
0
10
661.844227
20
109.624105
42
0.065560
0
VERTEX
8
0
10
661.970224
20
110.580910
42
0.044668
0
VERTEX
8
0
10
661.914102
20
111.207876
42
0.051404
0
VERTEX
8
0
10
661.762175
20
111.733707
42
0.065439
0
VERTEX
8
0
10
661.553963
20
112.089709
42
0.070167
0
VERTEX
8
0
10
661.277864
20
112.357854
42
0.077021
0
VERTEX
8
0
10
660.936355
20
112.534323
42
0.080978
0
VERTEX
8
0
10
660.575272
20
112.593188
42
0.118135
0
VERTEX
8
0
10
660.028036
20
112.462063
42
0.109943
0
VERTEX
8
0
10
659.562312
20
112.078182
42
0.104742
0
VERTEX
8
0
10
659.293678
20
111.527285
42
0.061321
0
VERTEX
8
0
10
659.166677
20
110.495644
0
SEQEND
0
POLYLINE
70
0
62
7
8
0
66
1
0
VERTEX
8
0
10
665.896
20
113.071
0
VERTEX
8
0
10
666.438
20
113.071
0
VERTEX
8
0
10
666.438
20
110.182
42
-0.029866
0
VERTEX
8
0
10
666.395018
20
109.460181
42
-0.044797
0
VERTEX
8
0
10
666.294917
20
108.988141
42
-0.078608
0
VERTEX
8
0
10
666.087403
20
108.564402
42
-0.085094
0
VERTEX
8
0
10
665.779911
20
108.254853
42
-0.088003
0
VERTEX
8
0
10
665.383816
20
108.062330
42
-0.069329
0
VERTEX
8
0
10
664.831752
20
107.985412
42
-0.095170
0
VERTEX
8
0
10
664.087366
20
108.128394
42
-0.125035
0
VERTEX
8
0
10
663.617564
20
108.469723
42
-0.117547
0
VERTEX
8
0
10
663.352309
20
108.998592
42
-0.057781
0
VERTEX
8
0
10
663.215108
20
110.181865
0
VERTEX
8
0
10
663.215
20
113.071
0
VERTEX
8
0
10
663.757
20
113.071
0
VERTEX
8
0
10
663.757
20
110.185
42
0.011092
0
VERTEX
8
0
10
663.765656
20
109.813169
42
0.019260
0
VERTEX
8
0
10
663.783406
20
109.599498
42
0.019260
0
VERTEX
8
0
10
663.825361
20
109.339380
42
0.035896
0
VERTEX
8
0
10
663.863130
20
109.203011
42
0.079423
0
VERTEX
8
0
10
664.004891
20
108.930889
42
0.087457
0
VERTEX
8
0
10
664.207605
20
108.739164
42
0.080612
0
VERTEX
8
0
10
664.458701
20
108.626367
42
0.065425
0
VERTEX
8
0
10
664.794235
20
108.582274
42
0.093286
0
VERTEX
8
0
10
665.324275
20
108.682033
42
0.132237
0
VERTEX
8
0
10
665.633253
20
108.909696
42
0.117990
0
VERTEX
8
0
10
665.802814
20
109.271801
42
0.050805
0
VERTEX
8
0
10
665.895872
20
110.185276
0
VERTEX
8
0
10
665.896
20
113.071
0
SEQEND
0
POLYLINE
70
0
62
7
8
0
66
1
0
VERTEX
8
0
10
667.349
20
108.071
0
VERTEX
8
0
10
667.349
20
113.071
0
VERTEX
8
0
10
668.894
20
113.071
42
-0.029532
0
VERTEX
8
0
10
669.422803
20
113.039408
42
-0.055357
0
VERTEX
8
0
10
669.698737
20
112.975180
42
-0.086159
0
VERTEX
8
0
10
670.008250
20
112.792894
42
-0.078500
0
VERTEX
8
0
10
670.264904
20
112.494280
42
-0.074091
0
VERTEX
8
0
10
670.417109
20
112.122132
42
-0.060153
0
VERTEX
8
0
10
670.476363
20
111.631388
42
-0.075911
0
VERTEX
8
0
10
670.378580
20
110.991030
42
-0.094296
0
VERTEX
8
0
10
670.131889
20
110.529750
42
-0.137442
0
VERTEX
8
0
10
669.722092
20
110.238981
42
-0.086195
0
VERTEX
8
0
10
668.941575
20
110.103420
0
VERTEX
8
0
10
667.891
20
110.103
0
VERTEX
8
0
10
667.891
20
108.071
0
VERTEX
8
0
10
667.349
20
108.071
0
SEQEND
0
POLYLINE
70
0
62
7
8
0
66
1
0
VERTEX
8
0
10
667.891
20
110.693
0
VERTEX
8
0
10
668.952
20
110.693
42
0.074599
0
VERTEX
8
0
10
669.421485
20
110.763929
42
0.116861
0
VERTEX
8
0
10
669.685095
20
110.918564
42
0.118148
0
VERTEX
8
0
10
669.846407
20
111.175047
42
0.081737
0
VERTEX
8
0
10
669.917018
20
111.604102
42
0.056146
0
VERTEX
8
0
10
669.885582
20
111.883172
42
0.064631
0
VERTEX
8
0
10
669.801057
20
112.112288
42
0.067307
0
VERTEX
8
0
10
669.667442
20
112.296744
42
0.086677
0
VERTEX
8
0
10
669.524795
20
112.402192
42
0.076307
0
VERTEX
8
0
10
669.351335
20
112.453204
42
0.033438
0
VERTEX
8
0
10
668.941575
20
112.480637
0
VERTEX
8
0
10
667.891
20
112.481
0
VERTEX
8
0
10
667.891
20
110.693
0
SEQEND
0
POLYLINE
70
0
62
7
8
0
66
1
0
VERTEX
8
0
10
671.138
20
108.071
0
VERTEX
8
0
10
671.138
20
113.071
0
VERTEX
8
0
10
671.680
20
113.071
0
VERTEX
8
0
10
671.680
20
108.661
0
VERTEX
8
0
10
673.699
20
108.661
0
VERTEX
8
0
10
673.699
20
108.071
0
VERTEX
8
0
10
671.138
20
108.071
0
SEQEND
0
POLYLINE
70
0
62
7
8
0
66
1
0
VERTEX
8
0
10
674.368
20
108.071
0
VERTEX
8
0
10
674.368
20
113.071
0
VERTEX
8
0
10
677.332
20
113.071
0
VERTEX
8
0
10
677.332
20
112.481
0
VERTEX
8
0
10
674.910
20
112.481
0
VERTEX
8
0
10
674.910
20
110.953
0
VERTEX
8
0
10
677.178
20
110.953
0
VERTEX
8
0
10
677.178
20
110.363
0
VERTEX
8
0
10
674.910
20
110.363
0
VERTEX
8
0
10
674.910
20
108.661
0
VERTEX
8
0
10
677.427
20
108.661
0
VERTEX
8
0
10
677.427
20
108.071
0
VERTEX
8
0
10
674.368
20
108.071
0
SEQEND
0
POLYLINE
70
0
62
1
8
0
66
1
0
VERTEX
8
0
10
501.119
20
133.273
0
VERTEX
8
0
10
501.119
20
146.917
0
VERTEX
8
0
10
692.231
20
146.917
0
VERTEX
8
0
10
692.231
20
174.640
0
SEQEND
0
POLYLINE
70
0
62
1
8
0
66
1
0
VERTEX
8
0
10
690.665
20
174.795
0
VERTEX
8
0
10
690.665
20
170.596
0
VERTEX
8
0
10
660.656
20
170.596
0
VERTEX
8
0
10
660.656
20
174.548
0
VERTEX
8
0
10
660.656
20
174.424
0
SEQEND
0
POLYLINE
70
0
62
3
8
0
66
1
0
VERTEX
8
0
10
602.887
20
122.500
0
VERTEX
8
0
10
602.887
20
111.012
0
VERTEX
8
0
10
644.083
20
111.012
0
VERTEX
8
0
10
644.083
20
111.012
0
SEQEND
0
POLYLINE
70
0
62
3
8
0
66
1
0
VERTEX
8
0
10
620.951
20
122.708
0
VERTEX
8
0
10
620.951
20
115.831
0
VERTEX
8
0
10
643.875
20
115.831
0
SEQEND
0
POLYLINE
70
0
62
1
8
0
66
1
0
VERTEX
8
0
10
474.839
20
71.410
0
VERTEX
8
0
10
459.671
20
71.410
0
VERTEX
8
0
10
459.671
20
225.319
0
VERTEX
8
0
10
510.974
20
225.319
0
VERTEX
8
0
10
510.974
20
214.612
0
SEQEND
0
POLYLINE
70
1
62
7
8
0
66
1
0
VERTEX
8
0
10
471.284
20
385.577
0
VERTEX
8
0
10
471.284
20
372.514
0
VERTEX
8
0
10
525.190
20
372.514
0
VERTEX
8
0
10
525.190
20
385.577
0
VERTEX
8
0
10
471.284
20
385.577
0
SEQEND
0
POLYLINE
70
0
62
7
8
0
66
1
0
VERTEX
8
0
10
494.044
20
376.717
0
VERTEX
8
0
10
494.044
20
375.985
0
VERTEX
8
0
10
490.681
20
375.985
42
-0.072750
0
VERTEX
8
0
10
490.731404
20
376.413435
42
-0.051623
0
VERTEX
8
0
10
490.947691
20
376.979312
42
-0.049703
0
VERTEX
8
0
10
491.276058
20
377.489104
42
-0.028468
0
VERTEX
8
0
10
491.979702
20
378.277786
42
0.021207
0
VERTEX
8
0
10
492.803525
20
379.168100
42
0.045942
0
VERTEX
8
0
10
493.125912
20
379.627014
42
0.053384
0
VERTEX
8
0
10
493.338896
20
380.125450
42
0.074425
0
VERTEX
8
0
10
493.396603
20
380.510992
42
0.086751
0
VERTEX
8
0
10
493.318795
20
380.956079
42
0.101928
0
VERTEX
8
0
10
493.117453
20
381.285000
42
0.101096
0
VERTEX
8
0
10
492.802847
20
381.508105
42
0.104210
0
VERTEX
8
0
10
492.436494
20
381.585299
42
0.107289
0
VERTEX
8
0
10
492.041904
20
381.499643
42
0.108278
0
VERTEX
8
0
10
491.721699
20
381.259623
42
0.104848
0
VERTEX
8
0
10
491.526536
20
380.904839
42
0.073628
0
VERTEX
8
0
10
491.442549
20
380.337580
0
VERTEX
8
0
10
490.800
20
380.418
42
-0.072077
0
VERTEX
8
0
10
490.982142
20
381.252746
42
-0.103365
0
VERTEX
8
0
10
491.302973
20
381.758710
42
-0.106941
0
VERTEX
8
0
10
491.795655
20
382.086176
42
-0.093657
0
VERTEX
8
0
10
492.457642
20
382.211273
42
-0.105276
0
VERTEX
8
0
10
493.157129
20
382.062344
42
-0.124673
0
VERTEX
8
0
10
493.633459
20
381.686808
42
-0.081258
0
VERTEX
8
0
10
493.932215
20
381.122762
42
-0.081414
0
VERTEX
8
0
10
494.035266
20
380.494073
42
-0.067214
0
VERTEX
8
0
10
493.958551
20
379.925969
42
-0.062441
0
VERTEX
8
0
10
493.722279
20
379.356323
42
-0.039038
0
VERTEX
8
0
10
493.358782
20
378.835972
42
-0.019955
0
VERTEX
8
0
10
492.533774
20
377.909815
42
0.006342
0
VERTEX
8
0
10
492.003091
20
377.353118
42
0.016621
0
VERTEX
8
0
10
491.810520
20
377.131576
42
0.025811
0
VERTEX
8
0
10
491.670642
20
376.933849
42
0.025114
0
VERTEX
8
0
10
491.548288
20
376.717080
0
VERTEX
8
0
10
494.044
20
376.717
0
SEQEND
0
POLYLINE
70
0
62
7
8
0
66
1
0
VERTEX
8
0
10
497.994
20
376.717
0
VERTEX
8
0
10
497.994
20
375.985
0
VERTEX
8
0
10
494.632
20
375.985
42
-0.072750
0
VERTEX
8
0
10
494.681809
20
376.413435
42
-0.051623
0
VERTEX
8
0
10
494.898096
20
376.979312
42
-0.049703
0
VERTEX
8
0
10
495.226463
20
377.489104
42
-0.028468
0
VERTEX
8
0
10
495.930107
20
378.277786
42
0.021207
0
VERTEX
8
0
10
496.753930
20
379.168100
42
0.045942
0
VERTEX
8
0
10
497.076317
20
379.627014
42
0.053384
0
VERTEX
8
0
10
497.289301
20
380.125450
42
0.074425
0
VERTEX
8
0
10
497.347009
20
380.510992
42
0.086751
0
VERTEX
8
0
10
497.269200
20
380.956079
42
0.101928
0
VERTEX
8
0
10
497.067858
20
381.285000
42
0.101096
0
VERTEX
8
0
10
496.753252
20
381.508105
42
0.104210
0
VERTEX
8
0
10
496.386899
20
381.585299
42
0.107289
0
VERTEX
8
0
10
495.992309
20
381.499643
42
0.108278
0
VERTEX
8
0
10
495.672104
20
381.259623
42
0.104848
0
VERTEX
8
0
10
495.476941
20
380.904839
42
0.073628
0
VERTEX
8
0
10
495.392954
20
380.337580
0
VERTEX
8
0
10
494.750
20
380.418
42
-0.072077
0
VERTEX
8
0
10
494.932547
20
381.252746
42
-0.103365
0
VERTEX
8
0
10
495.253378
20
381.758710
42
-0.106941
0
VERTEX
8
0
10
495.746060
20
382.086176
42
-0.093657
0
VERTEX
8
0
10
496.408047
20
382.211273
42
-0.105276
0
VERTEX
8
0
10
497.107534
20
382.062344
42
-0.124673
0
VERTEX
8
0
10
497.583864
20
381.686808
42
-0.081258
0
VERTEX
8
0
10
497.882621
20
381.122762
42
-0.081414
0
VERTEX
8
0
10
497.985671
20
380.494073
42
-0.067214
0
VERTEX
8
0
10
497.908956
20
379.925969
42
-0.062441
0
VERTEX
8
0
10
497.672684
20
379.356323
42
-0.039038
0
VERTEX
8
0
10
497.309187
20
378.835972
42
-0.019955
0
VERTEX
8
0
10
496.484179
20
377.909815
42
0.006342
0
VERTEX
8
0
10
495.953496
20
377.353118
42
0.016621
0
VERTEX
8
0
10
495.760925
20
377.131576
42
0.025811
0
VERTEX
8
0
10
495.621047
20
376.933849
42
0.025114
0
VERTEX
8
0
10
495.498693
20
376.717080
0
VERTEX
8
0
10
497.994
20
376.717
0
SEQEND
0
POLYLINE
70
0
62
7
8
0
66
1
0
VERTEX
8
0
10
498.654
20
379.043
42
-0.043849
0
VERTEX
8
0
10
498.788012
20
380.569169
42
-0.076143
0
VERTEX
8
0
10
499.072667
20
381.407657
42
-0.057674
0
VERTEX
8
0
10
499.325115
20
381.778460
42
-0.073324
0
VERTEX
8
0
10
499.592903
20
382.009312
42
-0.073324
0
VERTEX
8
0
10
499.926914
20
382.157947
42
-0.068181
0
VERTEX
8
0
10
500.316157
20
382.211273
42
-0.061898
0
VERTEX
8
0
10
500.662176
20
382.168272
42
-0.066153
0
VERTEX
8
0
10
500.965394
20
382.047378
42
-0.066153
0
VERTEX
8
0
10
501.220848
20
381.855740
42
-0.055246
0
VERTEX
8
0
10
501.462366
20
381.559921
42
-0.093762
0
VERTEX
8
0
10
501.802143
20
380.723801
42
-0.049794
0
VERTEX
8
0
10
501.969913
20
379.043336
42
-0.043926
0
VERTEX
8
0
10
501.835975
20
377.521699
42
-0.076066
0
VERTEX
8
0
10
501.551187
20
376.683244
42
-0.058160
0
VERTEX
8
0
10
501.299473
20
376.311706
42
-0.073743
0
VERTEX
8
0
10
501.030952
20
376.080003
42
-0.073743
0
VERTEX
8
0
10
500.699223
20
375.932861
42
-0.067670
0
VERTEX
8
0
10
500.307698
20
375.879628
42
-0.065542
0
VERTEX
8
0
10
499.963520
20
375.924939
42
-0.065919
0
VERTEX
8
0
10
499.644715
20
376.057269
42
-0.065919
0
VERTEX
8
0
10
499.382416
20
376.259472
42
-0.051241
0
VERTEX
8
0
10
499.114963
20
376.590193
42
-0.098281
0
VERTEX
8
0
10
498.812185
20
377.344532
42
-0.046474
0
VERTEX
8
0
10
498.653941
20
379.043336
0
SEQEND
0
POLYLINE
70
0
62
7
8
0
66
1
0
VERTEX
8
0
10
499.293
20
379.043
42
0.014021
0
VERTEX
8
0
10
499.312484
20
378.334519
42
0.017899
0
VERTEX
8
0
10
499.363449
20
377.781342
42
0.017899
0
VERTEX
8
0
10
499.404485
20
377.532534
42
0.022393
0
VERTEX
8
0
10
499.453195
20
377.336908
42
0.022393
0
VERTEX
8
0
10
499.521590
20
377.139541
42
0.034543
0
VERTEX
8
0
10
499.580214
20
377.017378
42
0.113490
0
VERTEX
8
0
10
499.940330
20
376.624958
42
0.151720
0
VERTEX
8
0
10
500.324616
20
376.505602
42
0.158597
0
VERTEX
8
0
10
500.684588
20
376.622729
42
0.110381
0
VERTEX
8
0
10
501.039411
20
377.025838
42
0.092153
0
VERTEX
8
0
10
501.225506
20
377.573707
42
0.035930
0
VERTEX
8
0
10
501.331250
20
379.043336
42
0.035782
0
VERTEX
8
0
10
501.224491
20
380.533241
42
0.094976
0
VERTEX
8
0
10
501.039411
20
381.069293
42
0.113853
0
VERTEX
8
0
10
500.676116
20
381.464609
42
0.151354
0
VERTEX
8
0
10
500.286550
20
381.585299
42
0.160312
0
VERTEX
8
0
10
499.932721
20
381.468860
42
0.108688
0
VERTEX
8
0
10
499.575984
20
381.060834
42
0.090838
0
VERTEX
8
0
10
499.395667
20
380.518031
42
0.034901
0
VERTEX
8
0
10
499.292604
20
379.043336
0
SEQEND
0
POLYLINE
70
0
62
7
8
0
66
1
0
VERTEX
8
0
10
503.810
20
375.985
0
VERTEX
8
0
10
502.406
20
380.477
0
VERTEX
8
0
10
503.070
20
380.477
0
VERTEX
8
0
10
503.861
20
377.787
42
-0.006963
0
VERTEX
8
0
10
503.992393
20
377.310437
42
-0.007808
0
VERTEX
8
0
10
504.097380
20
376.882033
42
-0.008279
0
VERTEX
8
0
10
504.183104
20
377.225397
42
-0.005522
0
VERTEX
8
0
10
504.325776
20
377.736403
0
VERTEX
8
0
10
505.151
20
380.477
0
VERTEX
8
0
10
505.793
20
380.477
0
VERTEX
8
0
10
504.389
20
375.985
0
VERTEX
8
0
10
503.810
20
375.985
0
SEQEND
0
POLYLINE
70
0
62
1
8
0
66
1
0
VERTEX
8
0
10
500.945
20
65.058
0
VERTEX
8
0
10
500.945
20
50.155
0
VERTEX
8
0
10
454.074
20
50.155
0
VERTEX
8
0
10
454.801
20
376.377
0
VERTEX
8
0
10
470.993
20
376.377
0
SEQEND
0
POLYLINE
70
0
62
1
8
0
66
1
0
VERTEX
8
0
10
560.273
20
66.059
0
VERTEX
8
0
10
560.273
20
54.455
0
VERTEX
8
0
10
781.646
20
54.455
0
VERTEX
8
0
10
781.646
20
175.518
0
VERTEX
8
0
10
781.646
20
175.518
0
SEQEND
0
POLYLINE
70
0
62
1
8
0
66
1
0
VERTEX
8
0
10
538.286
20
65.963
0
VERTEX
8
0
10
538.286
20
45.457
0
VERTEX
8
0
10
449.631
20
45.457
0
VERTEX
8
0
10
449.631
20
395.127
0
VERTEX
8
0
10
580.218
20
395.127
0
VERTEX
8
0
10
580.218
20
369.226
0
SEQEND
0
POLYLINE
70
0
62
1
8
0
66
1
0
VERTEX
8
0
10
581.324
20
77.320
0
VERTEX
8
0
10
581.324
20
107.623
0
VERTEX
8
0
10
528.783
20
107.623
0
VERTEX
8
0
10
528.783
20
273.395
0
VERTEX
8
0
10
475.709
20
273.395
0
VERTEX
8
0
10
475.709
20
288.546
0
VERTEX
8
0
10
475.709
20
287.579
0
SEQEND
0
POLYLINE
70
0
62
1
8
0
66
1
0
VERTEX
8
0
10
600.989
20
76.675
0
VERTEX
8
0
10
600.989
20
112.459
0
VERTEX
8
0
10
531.684
20
112.459
0
VERTEX
8
0
10
531.684
20
275.651
0
VERTEX
8
0
10
512.013
20
275.651
0
VERTEX
8
0
10
511.690
20
287.257
0
SEQEND
0
POLYLINE
70
0
62
1
8
0
66
1
0
VERTEX
8
0
10
525.486
20
378.008
0
VERTEX
8
0
10
542.077
20
378.008
0
VERTEX
8
0
10
542.077
20
179.053
0
VERTEX
8
0
10
516.979
20
179.478
0
SEQEND
0
POLYLINE
70
0
62
1
8
0
66
1
0
VERTEX
8
0
10
512.890
20
214.639
0
VERTEX
8
0
10
512.890
20
224.974
0
VERTEX
8
0
10
781.100
20
225.226
0
VERTEX
8
0
10
781.100
20
215.143
0
SEQEND
0
POLYLINE
70
0
62
69
8
0
66
1
0
VERTEX
8
0
10
570.817
20
213.957
0
VERTEX
8
0
10
570.817
20
218.987
0
VERTEX
8
0
10
662.031
20
218.987
0
VERTEX
8
0
10
662.031
20
214.293
0
SEQEND
0
POLYLINE
70
0
62
69
8
0
66
1
0
VERTEX
8
0
10
713.003
20
244.138
0
VERTEX
8
0
10
716.356
20
244.138
0
VERTEX
8
0
10
716.356
20
210.604
0
VERTEX
8
0
10
696.236
20
210.604
0
SEQEND
0
POLYLINE
70
0
62
69
8
0
66
1
0
VERTEX
8
0
10
478.661
20
133.897
0
VERTEX
8
0
10
478.661
20
155.350
0
VERTEX
8
0
10
722.024
20
155.350
0
VERTEX
8
0
10
722.376
20
248.897
0
VERTEX
8
0
10
712.432
20
248.897
0
SEQEND
0
POLYLINE
70
0
62
69
8
0
66
1
0
VERTEX
8
0
10
658.225
20
280.056
0
VERTEX
8
0
10
611.926
20
280.056
0
VERTEX
8
0
10
612.156
20
285.328
0
SEQEND
0
POLYLINE
70
0
62
69
8
0
66
1
0
VERTEX
8
0
10
658.225
20
276.618
0
VERTEX
8
0
10
568.149
20
276.618
0
VERTEX
8
0
10
568.149
20
308.936
0
VERTEX
8
0
10
574.108
20
308.706
0
SEQEND
0
POLYLINE
70
0
62
1
8
0
66
1
0
VERTEX
8
0
10
610.551
20
285.557
0
VERTEX
8
0
10
610.551
20
274.097
0
VERTEX
8
0
10
535.603
20
274.097
0
VERTEX
8
0
10
535.603
20
347.730
0
VERTEX
8
0
10
477.379
20
347.730
0
VERTEX
8
0
10
477.466
20
333.849
0
SEQEND
0
POLYLINE
70
0
62
69
8
0
66
1
0
VERTEX
8
0
10
596.505
20
285.243
0
VERTEX
8
0
10
596.505
20
268.998
0
VERTEX
8
0
10
563.241
20
268.998
0
VERTEX
8
0
10
563.241
20
362.212
0
VERTEX
8
0
10
573.685
20
362.212
0
SEQEND
0
POLYLINE
70
0
62
7
8
0
66
1
0
VERTEX
8
0
10
510.061
20
206.570
0
VERTEX
8
0
10
509.556
20
206.570
0
VERTEX
8
0
10
509.556
20
210.482
42
-0.033687
0
VERTEX
8
0
10
509.373124
20
210.293974
42
-0.024149
0
VERTEX
8
0
10
509.089092
20
210.062726
42
-0.022517
0
VERTEX
8
0
10
508.784926
20
209.862700
42
-0.031079
0
VERTEX
8
0
10
508.550210
20
209.742126
0
VERTEX
8
0
10
508.550
20
210.336
42
0.038873
0
VERTEX
8
0
10
508.944779
20
210.602165
42
0.039926
0
VERTEX
8
0
10
509.283498
20
210.918797
42
0.039099
0
VERTEX
8
0
10
509.568640
20
211.279821
42
0.051159
0
VERTEX
8
0
10
509.733703
20
211.590694
0
VERTEX
8
0
10
510.061
20
211.591
0
VERTEX
8
0
10
510.061
20
206.570
0
SEQEND
0
POLYLINE
70
0
62
7
8
0
66
1
0
VERTEX
8
0
10
514.004
20
207.160
0
VERTEX
8
0
10
514.004
20
206.570
0
VERTEX
8
0
10
511.292
20
206.570
42
-0.072750
0
VERTEX
8
0
10
511.332826
20
206.915416
42
-0.051623
0
VERTEX
8
0
10
511.507236
20
207.371731
42
-0.049703
0
VERTEX
8
0
10
511.772026
20
207.782818
42
-0.028468
0
VERTEX
8
0
10
512.339433
20
208.418797
42
0.021207
0
VERTEX
8
0
10
513.003749
20
209.136731
42
0.045942
0
VERTEX
8
0
10
513.263716
20
209.506792
42
0.053384
0
VERTEX
8
0
10
513.435463
20
209.908722
42
0.074425
0
VERTEX
8
0
10
513.481997
20
210.219616
42
0.086751
0
VERTEX
8
0
10
513.419254
20
210.578527
42
0.101928
0
VERTEX
8
0
10
513.256895
20
210.843763
42
0.101096
0
VERTEX
8
0
10
513.003203
20
211.023671
42
0.104210
0
VERTEX
8
0
10
512.707782
20
211.085919
42
0.107289
0
VERTEX
8
0
10
512.389591
20
211.016847
42
0.108278
0
VERTEX
8
0
10
512.131383
20
210.823299
42
0.104848
0
VERTEX
8
0
10
511.974007
20
210.537208
42
0.073628
0
VERTEX
8
0
10
511.906281
20
210.079780
0
VERTEX
8
0
10
511.388
20
210.145
42
-0.072077
0
VERTEX
8
0
10
511.535017
20
210.817754
42
-0.103365
0
VERTEX
8
0
10
511.793730
20
211.225755
42
-0.106941
0
VERTEX
8
0
10
512.191020
20
211.489817
42
-0.093657
0
VERTEX
8
0
10
512.724835
20
211.590694
42
-0.105276
0
VERTEX
8
0
10
513.288889
20
211.470600
42
-0.124673
0
VERTEX
8
0
10
513.672993
20
211.167774
42
-0.081258
0
VERTEX
8
0
10
513.913906
20
210.712937
42
-0.081414
0
VERTEX
8
0
10
513.997004
20
210.205973
42
-0.067214
0
VERTEX
8
0
10
513.935142
20
209.747864
42
-0.062441
0
VERTEX
8
0
10
513.744617
20
209.288511
42
-0.039038
0
VERTEX
8
0
10
513.451499
20
208.868909
42
-0.019955
0
VERTEX
8
0
10
512.786227
20
208.122072
42
0.006342
0
VERTEX
8
0
10
512.358293
20
207.673161
42
0.016621
0
VERTEX
8
0
10
512.203007
20
207.494514
42
0.025811
0
VERTEX
8
0
10
512.090211
20
207.335069
42
0.025114
0
VERTEX
8
0
10
511.991547
20
207.160271
0
VERTEX
8
0
10
514.004
20
207.160
0
SEQEND
0
POLYLINE
70
0
62
7
8
0
66
1
0
VERTEX
8
0
10
510.649
20
177.852
0
VERTEX
8
0
10
510.145
20
177.852
0
VERTEX
8
0
10
510.145
20
181.764
42
-0.033687
0
VERTEX
8
0
10
509.961460
20
181.575928
42
-0.024149
0
VERTEX
8
0
10
509.677427
20
181.344680
42
-0.022517
0
VERTEX
8
0
10
509.373262
20
181.144654
42
-0.031079
0
VERTEX
8
0
10
509.138546
20
181.024079
0
VERTEX
8
0
10
509.139
20
181.618
42
0.038873
0
VERTEX
8
0
10
509.533115
20
181.884118
42
0.039926
0
VERTEX
8
0
10
509.871834
20
182.200751
42
0.039099
0
VERTEX
8
0
10
510.156975
20
182.561774
42
0.051159
0
VERTEX
8
0
10
510.322038
20
182.872647
0
VERTEX
8
0
10
510.649
20
182.873
0
VERTEX
8
0
10
510.649
20
177.852
0
SEQEND
0
POLYLINE
70
0
62
7
8
0
66
1
0
VERTEX
8
0
10
513.415
20
177.852
0
VERTEX
8
0
10
512.911
20
177.852
0
VERTEX
8
0
10
512.911
20
181.764
42
-0.033687
0
VERTEX
8
0
10
512.727490
20
181.575928
42
-0.024149
0
VERTEX
8
0
10
512.443457
20
181.344680
42
-0.022517
0
VERTEX
8
0
10
512.139292
20
181.144654
42
-0.031079
0
VERTEX
8
0
10
511.904576
20
181.024079
0
VERTEX
8
0
10
511.905
20
181.618
42
0.038873
0
VERTEX
8
0
10
512.299145
20
181.884118
42
0.039926
0
VERTEX
8
0
10
512.637864
20
182.200751
42
0.039099
0
VERTEX
8
0
10
512.923005
20
182.561774
42
0.051159
0
VERTEX
8
0
10
513.088068
20
182.872647
0
VERTEX
8
0
10
513.415
20
182.873
0
VERTEX
8
0
10
513.415
20
177.852
0
SEQEND
0
POLYLINE
70
0
62
7
8
0
66
1
0
VERTEX
8
0
10
481.025
20
178.485
0
VERTEX
8
0
10
481.025
20
177.895
0
VERTEX
8
0
10
478.313
20
177.895
42
-0.072750
0
VERTEX
8
0
10
478.353854
20
178.240003
42
-0.051623
0
VERTEX
8
0
10
478.528263
20
178.696317
42
-0.049703
0
VERTEX
8
0
10
478.793053
20
179.107404
42
-0.028468
0
VERTEX
8
0
10
479.360460
20
179.743384
42
0.021207
0
VERTEX
8
0
10
480.024777
20
180.461318
42
0.045942
0
VERTEX
8
0
10
480.284744
20
180.831378
42
0.053384
0
VERTEX
8
0
10
480.456490
20
181.233308
42
0.074425
0
VERTEX
8
0
10
480.503025
20
181.544202
42
0.086751
0
VERTEX
8
0
10
480.440281
20
181.903113
42
0.101928
0
VERTEX
8
0
10
480.277922
20
182.168350
42
0.101096
0
VERTEX
8
0
10
480.024230
20
182.348258
42
0.104210
0
VERTEX
8
0
10
479.728809
20
182.410505
42
0.107289
0
VERTEX
8
0
10
479.410618
20
182.341434
42
0.108278
0
VERTEX
8
0
10
479.152411
20
182.147886
42
0.104848
0
VERTEX
8
0
10
478.995034
20
181.861794
42
0.073628
0
VERTEX
8
0
10
478.927309
20
181.404366
0
VERTEX
8
0
10
478.409
20
181.469
42
-0.072077
0
VERTEX
8
0
10
478.556045
20
182.142340
42
-0.103365
0
VERTEX
8
0
10
478.814757
20
182.550341
42
-0.106941
0
VERTEX
8
0
10
479.212047
20
182.814404
42
-0.093657
0
VERTEX
8
0
10
479.745862
20
182.915280
42
-0.105276
0
VERTEX
8
0
10
480.309916
20
182.795186
42
-0.124673
0
VERTEX
8
0
10
480.694021
20
182.492360
42
-0.081258
0
VERTEX
8
0
10
480.934933
20
182.037523
42
-0.081414
0
VERTEX
8
0
10
481.018032
20
181.530560
42
-0.067214
0
VERTEX
8
0
10
480.956169
20
181.072450
42
-0.062441
0
VERTEX
8
0
10
480.765644
20
180.613097
42
-0.039038
0
VERTEX
8
0
10
480.472526
20
180.193495
42
-0.019955
0
VERTEX
8
0
10
479.807254
20
179.446658
42
0.006342
0
VERTEX
8
0
10
479.379321
20
178.997747
42
0.016621
0
VERTEX
8
0
10
479.224034
20
178.819100
42
0.025811
0
VERTEX
8
0
10
479.111239
20
178.659656
42
0.025114
0
VERTEX
8
0
10
479.012575
20
178.484857
0
VERTEX
8
0
10
481.025
20
178.485
0
SEQEND
0
POLYLINE
70
0
62
7
8
0
66
1
0
VERTEX
8
0
10
481.557
20
179.218
0
VERTEX
8
0
10
482.058
20
179.300
42
0.050726
0
VERTEX
8
0
10
482.190159
20
178.795260
42
0.096691
0
VERTEX
8
0
10
482.334113
20
178.560317
42
0.096691
0
VERTEX
8
0
10
482.586243
20
178.374349
42
0.111136
0
VERTEX
8
0
10
482.852957
20
178.314325
42
0.113522
0
VERTEX
8
0
10
483.167401
20
178.386650
42
0.102500
0
VERTEX
8
0
10
483.449819
20
178.604229
42
0.098888
0
VERTEX
8
0
10
483.633559
20
178.922965
42
0.081630
0
VERTEX
8
0
10
483.705617
20
179.361392
42
0.079878
0
VERTEX
8
0
10
483.639692
20
179.771419
42
0.098952
0
VERTEX
8
0
10
483.473693
20
180.063984
42
0.101518
0
VERTEX
8
0
10
483.204907
20
180.265868
42
0.110916
0
VERTEX
8
0
10
482.904116
20
180.333425
42
0.047533
0
VERTEX
8
0
10
482.766570
20
180.320319
42
0.029273
0
VERTEX
8
0
10
482.549409
20
180.265212
0
VERTEX
8
0
10
482.607
20
180.804
0
VERTEX
8
0
10
482.686
20
180.797
42
0.089466
0
VERTEX
8
0
10
483.033721
20
180.860022
42
0.104693
0
VERTEX
8
0
10
483.289519
20
181.022374
42
0.107528
0
VERTEX
8
0
10
483.459231
20
181.280197
42
0.092241
0
VERTEX
8
0
10
483.524853
20
181.632879
42
0.084708
0
VERTEX
8
0
10
483.468983
20
181.960291
42
0.102713
0
VERTEX
8
0
10
483.327036
20
182.195635
42
0.102813
0
VERTEX
8
0
10
483.108161
20
182.355370
42
0.106789
0
VERTEX
8
0
10
482.852957
20
182.410505
42
0.107856
0
VERTEX
8
0
10
482.587421
20
182.352552
42
0.104327
0
VERTEX
8
0
10
482.361824
20
182.185403
42
0.092151
0
VERTEX
8
0
10
482.211431
20
181.935330
42
0.061204
0
VERTEX
8
0
10
482.109437
20
181.510096
0
VERTEX
8
0
10
481.608
20
181.619
42
-0.068746
0
VERTEX
8
0
10
481.780914
20
182.219646
42
-0.096097
0
VERTEX
8
0
10
482.037813
20
182.587858
42
-0.098513
0
VERTEX
8
0
10
482.405522
20
182.829430
42
-0.096514
0
VERTEX
8
0
10
482.846135
20
182.915280
42
-0.103042
0
VERTEX
8
0
10
483.303064
20
182.820104
42
-0.101154
0
VERTEX
8
0
10
483.691974
20
182.546931
42
-0.099846
0
VERTEX
8
0
10
483.945252
20
182.140967
42
-0.089934
0
VERTEX
8
0
10
484.039860
20
181.619236
42
-0.060988
0
VERTEX
8
0
10
483.999566
20
181.290121
42
-0.068452
0
VERTEX
8
0
10
483.889791
20
181.015553
42
-0.067192
0
VERTEX
8
0
10
483.708550
20
180.777742
42
-0.069278
0
VERTEX
8
0
10
483.477104
20
180.602865
42
-0.060548
0
VERTEX
8
0
10
483.709326
20
180.508646
42
-0.069867
0
VERTEX
8
0
10
483.882970
20
180.377763
42
-0.058048
0
VERTEX
8
0
10
484.017344
20
180.207956
42
-0.044965
0
VERTEX
8
0
10
484.142179
20
179.958254
42
-0.047432
0
VERTEX
8
0
10
484.214604
20
179.687990
42
-0.041783
0
VERTEX
8
0
10
484.241088
20
179.371624
42
-0.086740
0
VERTEX
8
0
10
484.129203
20
178.731530
42
-0.099554
0
VERTEX
8
0
10
483.835221
20
178.246112
42
-0.100184
0
VERTEX
8
0
10
483.380814
20
177.920453
42
-0.105925
0
VERTEX
8
0
10
482.863188
20
177.809550
42
-0.101687
0
VERTEX
8
0
10
482.377576
20
177.909343
42
-0.102212
0
VERTEX
8
0
10
481.973011
20
178.191542
42
-0.096957
0
VERTEX
8
0
10
481.701171
20
178.607918
42
-0.076620
0
VERTEX
8
0
10
481.556913
20
179.218145
0
SEQEND
0
POLYLINE
70
0
62
7
8
0
66
1
0
VERTEX
8
0
10
481.030
20
207.083
0
VERTEX
8
0
10
481.030
20
206.493
0
VERTEX
8
0
10
478.319
20
206.493
42
-0.072750
0
VERTEX
8
0
10
478.358970
20
206.837933
42
-0.051623
0
VERTEX
8
0
10
478.533379
20
207.294248
42
-0.049703
0
VERTEX
8
0
10
478.798169
20
207.705335
42
-0.028468
0
VERTEX
8
0
10
479.365576
20
208.341315
42
0.021207
0
VERTEX
8
0
10
480.029893
20
209.059249
42
0.045942
0
VERTEX
8
0
10
480.289860
20
209.429309
42
0.053384
0
VERTEX
8
0
10
480.461606
20
209.831239
42
0.074425
0
VERTEX
8
0
10
480.508141
20
210.142133
42
0.086751
0
VERTEX
8
0
10
480.445397
20
210.501044
42
0.101928
0
VERTEX
8
0
10
480.283038
20
210.766280
42
0.101096
0
VERTEX
8
0
10
480.029346
20
210.946189
42
0.104210
0
VERTEX
8
0
10
479.733925
20
211.008436
42
0.107289
0
VERTEX
8
0
10
479.415734
20
210.939364
42
0.108278
0
VERTEX
8
0
10
479.157527
20
210.745817
42
0.104848
0
VERTEX
8
0
10
479.000150
20
210.459725
42
0.073628
0
VERTEX
8
0
10
478.932424
20
210.002297
0
VERTEX
8
0
10
478.414
20
210.067
42
-0.072077
0
VERTEX
8
0
10
478.561161
20
210.740271
42
-0.103365
0
VERTEX
8
0
10
478.819873
20
211.148272
42
-0.106941
0
VERTEX
8
0
10
479.217163
20
211.412334
42
-0.093657
0
VERTEX
8
0
10
479.750978
20
211.513211
42
-0.105276
0
VERTEX
8
0
10
480.315032
20
211.393117
42
-0.124673
0
VERTEX
8
0
10
480.699137
20
211.090291
42
-0.081258
0
VERTEX
8
0
10
480.940049
20
210.635454
42
-0.081414
0
VERTEX
8
0
10
481.023148
20
210.128491
42
-0.067214
0
VERTEX
8
0
10
480.961285
20
209.670381
42
-0.062441
0
VERTEX
8
0
10
480.770760
20
209.211028
42
-0.039038
0
VERTEX
8
0
10
480.477642
20
208.791426
42
-0.019955
0
VERTEX
8
0
10
479.812370
20
208.044589
42
0.006342
0
VERTEX
8
0
10
479.384437
20
207.595678
42
0.016621
0
VERTEX
8
0
10
479.229150
20
207.417031
42
0.025811
0
VERTEX
8
0
10
479.116355
20
207.257587
42
0.025114
0
VERTEX
8
0
10
479.017691
20
207.082788
0
VERTEX
8
0
10
481.030
20
207.083
0
SEQEND
0
POLYLINE
70
0
62
7
8
0
66
1
0
VERTEX
8
0
10
483.175
20
206.493
0
VERTEX
8
0
10
483.175
20
207.690
0
VERTEX
8
0
10
481.398
20
207.690
0
VERTEX
8
0
10
481.398
20
208.253
0
VERTEX
8
0
10
483.264
20
211.493
0
VERTEX
8
0
10
483.680
20
211.493
0
VERTEX
8
0
10
483.680
20
208.253
0
VERTEX
8
0
10
484.236
20
208.253
0
VERTEX
8
0
10
484.236
20
207.690
0
VERTEX
8
0
10
483.680
20
207.690
0
VERTEX
8
0
10
483.680
20
206.493
0
VERTEX
8
0
10
483.175
20
206.493
0
SEQEND
0
POLYLINE
70
0
62
7
8
0
66
1
0
VERTEX
8
0
10
483.175
20
208.253
0
VERTEX
8
0
10
483.175
20
210.507
0
VERTEX
8
0
10
481.893
20
208.253
0
VERTEX
8
0
10
483.175
20
208.253
0
SEQEND
0
POLYLINE
70
1
62
1
8
0
66
1
0
VERTEX
8
0
10
475.423
20
376.885
0
VERTEX
8
0
10
475.423
20
378.256
0
VERTEX
8
0
10
474.308
20
378.256
0
VERTEX
8
0
10
474.308
20
378.829
0
VERTEX
8
0
10
475.423
20
378.829
0
VERTEX
8
0
10
475.423
20
380.190
0
VERTEX
8
0
10
475.900
20
380.190
0
VERTEX
8
0
10
475.900
20
378.829
0
VERTEX
8
0
10
477.016
20
378.829
0
VERTEX
8
0
10
477.016
20
378.256
0
VERTEX
8
0
10
475.900
20
378.256
0
VERTEX
8
0
10
475.900
20
376.885
0
VERTEX
8
0
10
475.423
20
376.885
0
SEQEND
0
POLYLINE
70
1
62
1
8
0
66
1
0
VERTEX
8
0
10
518.563
20
378.077
0
VERTEX
8
0
10
518.563
20
378.694
0
VERTEX
8
0
10
520.108
20
378.694
0
VERTEX
8
0
10
520.108
20
378.077
0
VERTEX
8
0
10
518.563
20
378.077
0
SEQEND
0
POLYLINE
70
0
62
1
8
0
66
1
0
VERTEX
8
0
10
525.354
20
376.314
0
VERTEX
8
0
10
530.466
20
376.314
0
VERTEX
8
0
10
530.466
20
350.159
0
VERTEX
8
0
10
475.658
20
350.040
0
VERTEX
8
0
10
475.658
20
334.466
0
VERTEX
8
0
10
475.658
20
334.466
0
SEQEND
0
POLYLINE
70
1
62
7
8
0
66
1
0
VERTEX
8
0
10
705.291
20
140.163
0
VERTEX
8
0
10
705.291
20
74.960
0
VERTEX
8
0
10
789.720
20
74.960
0
VERTEX
8
0
10
789.720
20
140.163
0
VERTEX
8
0
10
705.291
20
140.163
0
SEQEND
0
POLYLINE
70
1
62
7
8
0
66
1
0
VERTEX
8
0
10
723.506
20
105.315
42
-0.414214
0
VERTEX
8
0
10
717.505676
20
99.315393
42
-0.414214
0
VERTEX
8
0
10
711.505676
20
105.315393
42
-0.414214
0
VERTEX
8
0
10
717.505676
20
111.315393
42
-0.414214
0
VERTEX
8
0
10
723.505676
20
105.315393
0
SEQEND
0
POLYLINE
70
1
62
7
8
0
66
1
0
VERTEX
8
0
10
738.506
20
105.315
42
-0.414214
0
VERTEX
8
0
10
732.505676
20
99.315393
42
-0.414214
0
VERTEX
8
0
10
726.505676
20
105.315393
42
-0.414214
0
VERTEX
8
0
10
732.505676
20
111.315393
42
-0.414214
0
VERTEX
8
0
10
738.505676
20
105.315393
0
SEQEND
0
POLYLINE
70
1
62
7
8
0
66
1
0
VERTEX
8
0
10
753.506
20
105.315
42
-0.414214
0
VERTEX
8
0
10
747.505676
20
99.315393
42
-0.414214
0
VERTEX
8
0
10
741.505676
20
105.315393
42
-0.414214
0
VERTEX
8
0
10
747.505676
20
111.315393
42
-0.414214
0
VERTEX
8
0
10
753.505676
20
105.315393
0
SEQEND
0
POLYLINE
70
1
62
7
8
0
66
1
0
VERTEX
8
0
10
768.506
20
105.315
42
-0.414214
0
VERTEX
8
0
10
762.505676
20
99.315393
42
-0.414214
0
VERTEX
8
0
10
756.505676
20
105.315393
42
-0.414214
0
VERTEX
8
0
10
762.505676
20
111.315393
42
-0.414214
0
VERTEX
8
0
10
768.505676
20
105.315393
0
SEQEND
0
POLYLINE
70
1
62
7
8
0
66
1
0
VERTEX
8
0
10
783.506
20
105.315
42
-0.414214
0
VERTEX
8
0
10
777.505676
20
99.315393
42
-0.414214
0
VERTEX
8
0
10
771.505676
20
105.315393
42
-0.414214
0
VERTEX
8
0
10
777.505676
20
111.315393
42
-0.414214
0
VERTEX
8
0
10
783.505676
20
105.315393
0
SEQEND
0
POLYLINE
70
0
62
1
8
0
66
1
0
VERTEX
8
0
10
611.190
20
358.924
0
VERTEX
8
0
10
611.697
20
348.792
0
VERTEX
8
0
10
808.765
20
348.285
0
VERTEX
8
0
10
809.272
20
88.904
0
VERTEX
8
0
10
778.369
20
88.904
0
VERTEX
8
0
10
778.369
20
104.609
0
SEQEND
0
POLYLINE
70
0
62
1
8
0
66
1
0
VERTEX
8
0
10
611.190
20
306.237
0
VERTEX
8
0
10
611.697
20
319.409
0
VERTEX
8
0
10
804.712
20
318.902
0
VERTEX
8
0
10
805.219
20
121.834
0
VERTEX
8
0
10
762.158
20
119.807
0
VERTEX
8
0
10
762.664
20
106.129
0
SEQEND
0
POLYLINE
70
0
62
1
8
0
66
1
0
VERTEX
8
0
10
519.401
20
68.887
0
VERTEX
8
0
10
519.190
20
51.306
0
VERTEX
8
0
10
696.814
20
50.968
0
VERTEX
8
0
10
696.243
20
92.616
0
VERTEX
8
0
10
731.616
20
92.616
0
VERTEX
8
0
10
731.570
20
104.597
0
SEQEND
0
POLYLINE
70
0
62
1
8
0
66
1
0
VERTEX
8
0
10
539.542
20
69.074
0
VERTEX
8
0
10
539.542
20
53.523
0
VERTEX
8
0
10
694.047
20
54.875
0
VERTEX
8
0
10
694.047
20
103.897
0
VERTEX
8
0
10
717.374
20
103.897
0
SEQEND
0
POLYLINE
70
0
62
7
8
0
66
1
0
VERTEX
8
0
10
739.388
20
132.264
0
VERTEX
8
0
10
739.934
20
132.096
42
-0.063103
0
VERTEX
8
0
10
739.654024
20
131.307191
42
-0.090219
0
VERTEX
8
0
10
739.299575
20
130.837870
42
-0.096435
0
VERTEX
8
0
10
738.808204
20
130.535440
42
-0.090105
0
VERTEX
8
0
10
738.201348
20
130.425182
42
-0.069107
0
VERTEX
8
0
10
737.653581
20
130.501255
42
-0.081079
0
VERTEX
8
0
10
737.225905
20
130.701444
42
-0.083653
0
VERTEX
8
0
10
736.884967
20
131.029742
42
-0.060718
0
VERTEX
8
0
10
736.564240
20
131.595032
42
-0.055085
0
VERTEX
8
0
10
736.380348
20
132.223329
42
-0.043696
0
VERTEX
8
0
10
736.308442
20
133.044555
42
-0.045262
0
VERTEX
8
0
10
736.381893
20
133.854279
42
-0.059810
0
VERTEX
8
0
10
736.564240
20
134.442918
42
-0.065367
0
VERTEX
8
0
10
736.879969
20
134.957390
42
-0.076274
0
VERTEX
8
0
10
737.263422
20
135.305810
42
-0.073917
0
VERTEX
8
0
10
737.728728
20
135.523588
42
-0.072673
0
VERTEX
8
0
10
738.245687
20
135.599125
42
-0.087617
0
VERTEX
8
0
10
738.800348
20
135.501177
42
-0.091497
0
VERTEX
8
0
10
739.265468
20
135.227365
42
-0.089069
0
VERTEX
8
0
10
739.605344
20
134.810919
42
-0.066833
0
VERTEX
8
0
10
739.865741
20
134.146192
0
VERTEX
8
0
10
739.334
20
133.993
42
0.056650
0
VERTEX
8
0
10
739.134313
20
134.501940
42
0.090437
0
VERTEX
8
0
10
738.921420
20
134.772471
42
0.090437
0
VERTEX
8
0
10
738.601218
20
134.965849
42
0.090980
0
VERTEX
8
0
10
738.235455
20
135.032959
42
0.072550
0
VERTEX
8
0
10
737.848044
20
134.976448
42
0.079571
0
VERTEX
8
0
10
737.526041
20
134.821499
42
0.082704
0
VERTEX
8
0
10
737.271793
20
134.573806
42
0.062817
0
VERTEX
8
0
10
737.045141
20
134.166656
42
0.057500
0
VERTEX
8
0
10
736.920875
20
133.720484
42
0.039210
0
VERTEX
8
0
10
736.867788
20
133.044555
42
0.024946
0
VERTEX
8
0
10
736.890897
20
132.581645
42
0.026226
0
VERTEX
8
0
10
736.957743
20
132.145851
42
0.026226
0
VERTEX
8
0
10
737.002769
20
131.974583
42
0.023924
0
VERTEX
8
0
10
737.070667
20
131.792743
42
0.023924
0
VERTEX
8
0
10
737.148701
20
131.632446
42
0.027967
0
VERTEX
8
0
10
737.229316
20
131.502945
42
0.118353
0
VERTEX
8
0
10
737.656816
20
131.124610
42
0.122825
0
VERTEX
8
0
10
738.191116
20
130.991349
42
0.097737
0
VERTEX
8
0
10
738.602972
20
131.072632
42
0.097227
0
VERTEX
8
0
10
738.955100
20
131.305128
42
0.092492
0
VERTEX
8
0
10
739.202340
20
131.659675
42
0.062988
0
VERTEX
8
0
10
739.388251
20
132.263518
0
SEQEND
0
POLYLINE
70
0
62
7
8
0
66
1
0
VERTEX
8
0
10
740.459
20
132.946
42
-0.069860
0
VERTEX
8
0
10
740.630178
20
134.163444
42
-0.102448
0
VERTEX
8
0
10
741.021949
20
134.910176
42
-0.107064
0
VERTEX
8
0
10
741.670324
20
135.423988
42
-0.114702
0
VERTEX
8
0
10
742.423722
20
135.599125
42
-0.075372
0
VERTEX
8
0
10
742.938528
20
135.521077
42
-0.074512
0
VERTEX
8
0
10
743.412808
20
135.292167
42
-0.074735
0
VERTEX
8
0
10
743.793737
20
134.935196
42
-0.062079
0
VERTEX
8
0
10
744.118811
20
134.398579
42
-0.058600
0
VERTEX
8
0
10
744.307652
20
133.795797
42
-0.046667
0
VERTEX
8
0
10
744.381430
20
133.007038
42
-0.068060
0
VERTEX
8
0
10
744.235979
20
131.943437
42
-0.088376
0
VERTEX
8
0
10
743.876655
20
131.195987
42
-0.053170
0
VERTEX
8
0
10
743.562182
20
130.845636
42
-0.062717
0
VERTEX
8
0
10
743.234176
20
130.617457
42
-0.062717
0
VERTEX
8
0
10
742.854670
20
130.475794
42
-0.058064
0
VERTEX
8
0
10
742.420311
20
130.425182
42
-0.059167
0
VERTEX
8
0
10
741.982195
20
130.477208
42
-0.064009
0
VERTEX
8
0
10
741.600905
20
130.622573
42
-0.064009
0
VERTEX
8
0
10
741.274262
20
130.855728
42
-0.053670
0
VERTEX
8
0
10
740.960557
20
131.216451
42
-0.082316
0
VERTEX
8
0
10
740.596913
20
131.976098
42
-0.070668
0
VERTEX
8
0
10
740.459193
20
132.945646
0
SEQEND
0
POLYLINE
70
0
62
7
8
0
66
1
0
VERTEX
8
0
10
741.019
20
132.935
42
0.030475
0
VERTEX
8
0
10
741.047937
20
132.453513
42
0.042436
0
VERTEX
8
0
10
741.119152
20
132.113876
42
0.042436
0
VERTEX
8
0
10
741.260258
20
131.756788
42
0.053449
0
VERTEX
8
0
10
741.424404
20
131.499534
42
0.106104
0
VERTEX
8
0
10
741.891807
20
131.117964
42
0.118861
0
VERTEX
8
0
10
742.416901
20
130.991349
42
0.119529
0
VERTEX
8
0
10
742.950338
20
131.120720
42
0.108209
0
VERTEX
8
0
10
743.416219
20
131.506356
42
0.102039
0
VERTEX
8
0
10
743.696088
20
132.063875
42
0.065560
0
VERTEX
8
0
10
743.822085
20
133.020680
42
0.044668
0
VERTEX
8
0
10
743.765963
20
133.647646
42
0.051404
0
VERTEX
8
0
10
743.614036
20
134.173477
42
0.065439
0
VERTEX
8
0
10
743.405823
20
134.529479
42
0.070167
0
VERTEX
8
0
10
743.129725
20
134.797624
42
0.077021
0
VERTEX
8
0
10
742.788216
20
134.974093
42
0.080978
0
VERTEX
8
0
10
742.427133
20
135.032959
42
0.118135
0
VERTEX
8
0
10
741.879896
20
134.901833
42
0.109943
0
VERTEX
8
0
10
741.414172
20
134.517952
42
0.104742
0
VERTEX
8
0
10
741.145539
20
133.967055
42
0.061321
0
VERTEX
8
0
10
741.018538
20
132.935414
0
SEQEND
0
POLYLINE
70
0
62
7
8
0
66
1
0
VERTEX
8
0
10
747.748
20
135.510
0
VERTEX
8
0
10
748.290
20
135.510
0
VERTEX
8
0
10
748.290
20
132.622
42
-0.029866
0
VERTEX
8
0
10
748.246879
20
131.899951
42
-0.044797
0
VERTEX
8
0
10
748.146778
20
131.427911
42
-0.078608
0
VERTEX
8
0
10
747.939264
20
131.004173
42
-0.085094
0
VERTEX
8
0
10
747.631771
20
130.694623
42
-0.088003
0
VERTEX
8
0
10
747.235677
20
130.502100
42
-0.069329
0
VERTEX
8
0
10
746.683613
20
130.425182
42
-0.095170
0
VERTEX
8
0
10
745.939227
20
130.568164
42
-0.125035
0
VERTEX
8
0
10
745.469425
20
130.909493
42
-0.117547
0
VERTEX
8
0
10
745.204169
20
131.438362
42
-0.057781
0
VERTEX
8
0
10
745.066969
20
132.621635
0
VERTEX
8
0
10
745.067
20
135.510
0
VERTEX
8
0
10
745.609
20
135.510
0
VERTEX
8
0
10
745.609
20
132.625
42
0.011092
0
VERTEX
8
0
10
745.617517
20
132.252939
42
0.019260
0
VERTEX
8
0
10
745.635267
20
132.039268
42
0.019260
0
VERTEX
8
0
10
745.677222
20
131.779150
42
0.035896
0
VERTEX
8
0
10
745.714991
20
131.642781
42
0.079423
0
VERTEX
8
0
10
745.856752
20
131.370659
42
0.087457
0
VERTEX
8
0
10
746.059466
20
131.178934
42
0.080612
0
VERTEX
8
0
10
746.310562
20
131.066138
42
0.065425
0
VERTEX
8
0
10
746.646096
20
131.022045
42
0.093286
0
VERTEX
8
0
10
747.176136
20
131.121803
42
0.132237
0
VERTEX
8
0
10
747.485114
20
131.349466
42
0.117990
0
VERTEX
8
0
10
747.654675
20
131.711571
42
0.050805
0
VERTEX
8
0
10
747.747733
20
132.625046
0
VERTEX
8
0
10
747.748
20
135.510
0
SEQEND
0
POLYLINE
70
0
62
7
8
0
66
1
0
VERTEX
8
0
10
749.187
20
130.510
0
VERTEX
8
0
10
749.187
20
135.510
0
VERTEX
8
0
10
749.743
20
135.510
0
VERTEX
8
0
10
751.898
20
131.575
0
VERTEX
8
0
10
751.898
20
135.510
0
VERTEX
8
0
10
752.417
20
135.510
0
VERTEX
8
0
10
752.417
20
130.510
0
VERTEX
8
0
10
751.861
20
130.510
0
VERTEX
8
0
10
749.709
20
134.443
0
VERTEX
8
0
10
749.709
20
130.510
0
VERTEX
8
0
10
749.187
20
130.510
0
SEQEND
0
POLYLINE
70
0
62
7
8
0
66
1
0
VERTEX
8
0
10
754.388
20
130.510
0
VERTEX
8
0
10
754.388
20
134.920
0
VERTEX
8
0
10
753.038
20
134.920
0
VERTEX
8
0
10
753.038
20
135.510
0
VERTEX
8
0
10
756.288
20
135.510
0
VERTEX
8
0
10
756.288
20
134.920
0
VERTEX
8
0
10
754.931
20
134.920
0
VERTEX
8
0
10
754.931
20
130.510
0
VERTEX
8
0
10
754.388
20
130.510
0
SEQEND
0
POLYLINE
70
0
62
7
8
0
66
1
0
VERTEX
8
0
10
756.847
20
130.510
0
VERTEX
8
0
10
756.847
20
135.510
0
VERTEX
8
0
10
759.811
20
135.510
0
VERTEX
8
0
10
759.811
20
134.920
0
VERTEX
8
0
10
757.390
20
134.920
0
VERTEX
8
0
10
757.390
20
133.392
0
VERTEX
8
0
10
759.658
20
133.392
0
VERTEX
8
0
10
759.658
20
132.802
0
VERTEX
8
0
10
757.390
20
132.802
0
VERTEX
8
0
10
757.390
20
131.100
0
VERTEX
8
0
10
759.907
20
131.100
0
VERTEX
8
0
10
759.907
20
130.510
0
VERTEX
8
0
10
756.847
20
130.510
0
SEQEND
0
POLYLINE
70
0
62
7
8
0
66
1
0
VERTEX
8
0
10
760.654
20
130.510
0
VERTEX
8
0
10
760.654
20
135.510
0
VERTEX
8
0
10
762.471
20
135.510
42
-0.041311
0
VERTEX
8
0
10
763.024999
20
135.464637
42
-0.076654
0
VERTEX
8
0
10
763.310489
20
135.370612
42
-0.080612
0
VERTEX
8
0
10
763.550869
20
135.189044
42
-0.068778
0
VERTEX
8
0
10
763.757283
20
134.903354
42
-0.065477
0
VERTEX
8
0
10
763.884011
20
134.564170
42
-0.056761
0
VERTEX
8
0
10
763.931225
20
134.149603
42
-0.078360
0
VERTEX
8
0
10
763.847054
20
133.615819
42
-0.096850
0
VERTEX
8
0
10
763.634500
20
133.232140
42
-0.098005
0
VERTEX
8
0
10
763.295834
20
132.960279
42
-0.077651
0
VERTEX
8
0
10
762.778429
20
132.785346
42
-0.030199
0
VERTEX
8
0
10
762.993259
20
132.634952
42
-0.043280
0
VERTEX
8
0
10
763.126314
20
132.509084
42
-0.027258
0
VERTEX
8
0
10
763.349588
20
132.211532
42
-0.025590
0
VERTEX
8
0
10
763.552644
20
131.871294
0
VERTEX
8
0
10
764.269
20
130.510
0
VERTEX
8
0
10
763.587
20
130.510
0
VERTEX
8
0
10
763.038
20
131.547
42
0.012344
0
VERTEX
8
0
10
762.712745
20
132.139768
42
0.030291
0
VERTEX
8
0
10
762.560148
20
132.369248
42
0.044966
0
VERTEX
8
0
10
762.382026
20
132.563952
42
0.072681
0
VERTEX
8
0
10
762.246369
20
132.655742
42
0.065697
0
VERTEX
8
0
10
762.080535
20
132.708027
42
0.043582
0
VERTEX
8
0
10
761.820039
20
132.730776
0
VERTEX
8
0
10
761.196
20
132.731
0
VERTEX
8
0
10
761.196
20
130.510
0
VERTEX
8
0
10
760.654
20
130.510
0
SEQEND
0
POLYLINE
70
0
62
7
8
0
66
1
0
VERTEX
8
0
10
761.196
20
133.304
0
VERTEX
8
0
10
762.362
20
133.304
42
0.039397
0
VERTEX
8
0
10
762.736138
20
133.333263
42
0.068833
0
VERTEX
8
0
10
762.942140
20
133.395851
42
0.076020
0
VERTEX
8
0
10
763.117713
20
133.514458
42
0.073150
0
VERTEX
8
0
10
763.255919
20
133.685755
42
0.069631
0
VERTEX
8
0
10
763.340665
20
133.894437
42
0.061759
0
VERTEX
8
0
10
763.371880
20
134.146192
42
0.089616
0
VERTEX
8
0
10
763.308593
20
134.496456
42
0.110358
0
VERTEX
8
0
10
763.150189
20
134.739643
42
0.110940
0
VERTEX
8
0
10
762.895409
20
134.892772
42
0.080220
0
VERTEX
8
0
10
762.491935
20
134.957924
0
VERTEX
8
0
10
761.196
20
134.958
0
VERTEX
8
0
10
761.196
20
133.304
0
SEQEND
0
POLYLINE
70
0
62
7
8
0
66
1
0
VERTEX
8
0
10
600.061
20
206.570
0
VERTEX
8
0
10
599.556
20
206.570
0
VERTEX
8
0
10
599.556
20
210.482
42
-0.033687
0
VERTEX
8
0
10
599.373124
20
210.293974
42
-0.024149
0
VERTEX
8
0
10
599.089092
20
210.062726
42
-0.022517
0
VERTEX
8
0
10
598.784926
20
209.862700
42
-0.031079
0
VERTEX
8
0
10
598.550210
20
209.742126
0
VERTEX
8
0
10
598.550
20
210.336
42
0.038873
0
VERTEX
8
0
10
598.944779
20
210.602165
42
0.039926
0
VERTEX
8
0
10
599.283498
20
210.918797
42
0.039099
0
VERTEX
8
0
10
599.568640
20
211.279821
42
0.051159
0
VERTEX
8
0
10
599.733703
20
211.590694
0
VERTEX
8
0
10
600.061
20
211.591
0
VERTEX
8
0
10
600.061
20
206.570
0
SEQEND
0
POLYLINE
70
0
62
7
8
0
66
1
0
VERTEX
8
0
10
604.004
20
207.160
0
VERTEX
8
0
10
604.004
20
206.570
0
VERTEX
8
0
10
601.292
20
206.570
42
-0.072750
0
VERTEX
8
0
10
601.332826
20
206.915416
42
-0.051623
0
VERTEX
8
0
10
601.507236
20
207.371731
42
-0.049703
0
VERTEX
8
0
10
601.772026
20
207.782818
42
-0.028468
0
VERTEX
8
0
10
602.339433
20
208.418797
42
0.021207
0
VERTEX
8
0
10
603.003749
20
209.136731
42
0.045942
0
VERTEX
8
0
10
603.263716
20
209.506792
42
0.053384
0
VERTEX
8
0
10
603.435463
20
209.908722
42
0.074425
0
VERTEX
8
0
10
603.481997
20
210.219616
42
0.086751
0
VERTEX
8
0
10
603.419254
20
210.578527
42
0.101928
0
VERTEX
8
0
10
603.256895
20
210.843763
42
0.101096
0
VERTEX
8
0
10
603.003203
20
211.023671
42
0.104210
0
VERTEX
8
0
10
602.707782
20
211.085919
42
0.107289
0
VERTEX
8
0
10
602.389591
20
211.016847
42
0.108278
0
VERTEX
8
0
10
602.131383
20
210.823299
42
0.104848
0
VERTEX
8
0
10
601.974007
20
210.537208
42
0.073628
0
VERTEX
8
0
10
601.906281
20
210.079780
0
VERTEX
8
0
10
601.388
20
210.145
42
-0.072077
0
VERTEX
8
0
10
601.535017
20
210.817754
42
-0.103365
0
VERTEX
8
0
10
601.793730
20
211.225755
42
-0.106941
0
VERTEX
8
0
10
602.191020
20
211.489817
42
-0.093657
0
VERTEX
8
0
10
602.724835
20
211.590694
42
-0.105276
0
VERTEX
8
0
10
603.288889
20
211.470600
42
-0.124673
0
VERTEX
8
0
10
603.672993
20
211.167774
42
-0.081258
0
VERTEX
8
0
10
603.913906
20
210.712937
42
-0.081414
0
VERTEX
8
0
10
603.997004
20
210.205973
42
-0.067214
0
VERTEX
8
0
10
603.935142
20
209.747864
42
-0.062441
0
VERTEX
8
0
10
603.744617
20
209.288511
42
-0.039038
0
VERTEX
8
0
10
603.451499
20
208.868909
42
-0.019955
0
VERTEX
8
0
10
602.786227
20
208.122072
42
0.006342
0
VERTEX
8
0
10
602.358293
20
207.673161
42
0.016621
0
VERTEX
8
0
10
602.203007
20
207.494514
42
0.025811
0
VERTEX
8
0
10
602.090211
20
207.335069
42
0.025114
0
VERTEX
8
0
10
601.991547
20
207.160271
0
VERTEX
8
0
10
604.004
20
207.160
0
SEQEND
0
POLYLINE
70
0
62
7
8
0
66
1
0
VERTEX
8
0
10
600.649
20
177.852
0
VERTEX
8
0
10
600.145
20
177.852
0
VERTEX
8
0
10
600.145
20
181.764
42
-0.033687
0
VERTEX
8
0
10
599.961460
20
181.575928
42
-0.024149
0
VERTEX
8
0
10
599.677427
20
181.344680
42
-0.022517
0
VERTEX
8
0
10
599.373262
20
181.144654
42
-0.031079
0
VERTEX
8
0
10
599.138546
20
181.024079
0
VERTEX
8
0
10
599.139
20
181.618
42
0.038873
0
VERTEX
8
0
10
599.533115
20
181.884118
42
0.039926
0
VERTEX
8
0
10
599.871834
20
182.200751
42
0.039099
0
VERTEX
8
0
10
600.156975
20
182.561774
42
0.051159
0
VERTEX
8
0
10
600.322038
20
182.872647
0
VERTEX
8
0
10
600.649
20
182.873
0
VERTEX
8
0
10
600.649
20
177.852
0
SEQEND
0
POLYLINE
70
0
62
7
8
0
66
1
0
VERTEX
8
0
10
603.415
20
177.852
0
VERTEX
8
0
10
602.911
20
177.852
0
VERTEX
8
0
10
602.911
20
181.764
42
-0.033687
0
VERTEX
8
0
10
602.727490
20
181.575928
42
-0.024149
0
VERTEX
8
0
10
602.443457
20
181.344680
42
-0.022517
0
VERTEX
8
0
10
602.139292
20
181.144654
42
-0.031079
0
VERTEX
8
0
10
601.904576
20
181.024079
0
VERTEX
8
0
10
601.905
20
181.618
42
0.038873
0
VERTEX
8
0
10
602.299145
20
181.884118
42
0.039926
0
VERTEX
8
0
10
602.637864
20
182.200751
42
0.039099
0
VERTEX
8
0
10
602.923005
20
182.561774
42
0.051159
0
VERTEX
8
0
10
603.088068
20
182.872647
0
VERTEX
8
0
10
603.415
20
182.873
0
VERTEX
8
0
10
603.415
20
177.852
0
SEQEND
0
POLYLINE
70
0
62
7
8
0
66
1
0
VERTEX
8
0
10
571.025
20
178.485
0
VERTEX
8
0
10
571.025
20
177.895
0
VERTEX
8
0
10
568.313
20
177.895
42
-0.072750
0
VERTEX
8
0
10
568.353854
20
178.240003
42
-0.051623
0
VERTEX
8
0
10
568.528263
20
178.696317
42
-0.049703
0
VERTEX
8
0
10
568.793053
20
179.107404
42
-0.028468
0
VERTEX
8
0
10
569.360460
20
179.743384
42
0.021207
0
VERTEX
8
0
10
570.024777
20
180.461318
42
0.045942
0
VERTEX
8
0
10
570.284744
20
180.831378
42
0.053384
0
VERTEX
8
0
10
570.456490
20
181.233308
42
0.074425
0
VERTEX
8
0
10
570.503025
20
181.544202
42
0.086751
0
VERTEX
8
0
10
570.440281
20
181.903113
42
0.101928
0
VERTEX
8
0
10
570.277922
20
182.168350
42
0.101096
0
VERTEX
8
0
10
570.024230
20
182.348258
42
0.104210
0
VERTEX
8
0
10
569.728809
20
182.410505
42
0.107289
0
VERTEX
8
0
10
569.410618
20
182.341434
42
0.108278
0
VERTEX
8
0
10
569.152411
20
182.147886
42
0.104848
0
VERTEX
8
0
10
568.995034
20
181.861794
42
0.073628
0
VERTEX
8
0
10
568.927309
20
181.404366
0
VERTEX
8
0
10
568.409
20
181.469
42
-0.072077
0
VERTEX
8
0
10
568.556045
20
182.142340
42
-0.103365
0
VERTEX
8
0
10
568.814757
20
182.550341
42
-0.106941
0
VERTEX
8
0
10
569.212047
20
182.814404
42
-0.093657
0
VERTEX
8
0
10
569.745862
20
182.915280
42
-0.105276
0
VERTEX
8
0
10
570.309916
20
182.795186
42
-0.124673
0
VERTEX
8
0
10
570.694021
20
182.492360
42
-0.081258
0
VERTEX
8
0
10
570.934933
20
182.037523
42
-0.081414
0
VERTEX
8
0
10
571.018032
20
181.530560
42
-0.067214
0
VERTEX
8
0
10
570.956169
20
181.072450
42
-0.062441
0
VERTEX
8
0
10
570.765644
20
180.613097
42
-0.039038
0
VERTEX
8
0
10
570.472526
20
180.193495
42
-0.019955
0
VERTEX
8
0
10
569.807254
20
179.446658
42
0.006342
0
VERTEX
8
0
10
569.379321
20
178.997747
42
0.016621
0
VERTEX
8
0
10
569.224034
20
178.819100
42
0.025811
0
VERTEX
8
0
10
569.111239
20
178.659656
42
0.025114
0
VERTEX
8
0
10
569.012575
20
178.484857
0
VERTEX
8
0
10
571.025
20
178.485
0
SEQEND
0
POLYLINE
70
0
62
7
8
0
66
1
0
VERTEX
8
0
10
571.557
20
179.218
0
VERTEX
8
0
10
572.058
20
179.300
42
0.050726
0
VERTEX
8
0
10
572.190159
20
178.795260
42
0.096691
0
VERTEX
8
0
10
572.334113
20
178.560317
42
0.096691
0
VERTEX
8
0
10
572.586243
20
178.374349
42
0.111136
0
VERTEX
8
0
10
572.852957
20
178.314325
42
0.113522
0
VERTEX
8
0
10
573.167401
20
178.386650
42
0.102500
0
VERTEX
8
0
10
573.449819
20
178.604229
42
0.098888
0
VERTEX
8
0
10
573.633559
20
178.922965
42
0.081630
0
VERTEX
8
0
10
573.705617
20
179.361392
42
0.079878
0
VERTEX
8
0
10
573.639692
20
179.771419
42
0.098952
0
VERTEX
8
0
10
573.473693
20
180.063984
42
0.101518
0
VERTEX
8
0
10
573.204907
20
180.265868
42
0.110916
0
VERTEX
8
0
10
572.904116
20
180.333425
42
0.047533
0
VERTEX
8
0
10
572.766570
20
180.320319
42
0.029273
0
VERTEX
8
0
10
572.549409
20
180.265212
0
VERTEX
8
0
10
572.607
20
180.804
0
VERTEX
8
0
10
572.686
20
180.797
42
0.089466
0
VERTEX
8
0
10
573.033721
20
180.860022
42
0.104693
0
VERTEX
8
0
10
573.289519
20
181.022374
42
0.107528
0
VERTEX
8
0
10
573.459231
20
181.280197
42
0.092241
0
VERTEX
8
0
10
573.524853
20
181.632879
42
0.084708
0
VERTEX
8
0
10
573.468983
20
181.960291
42
0.102713
0
VERTEX
8
0
10
573.327036
20
182.195635
42
0.102813
0
VERTEX
8
0
10
573.108161
20
182.355370
42
0.106789
0
VERTEX
8
0
10
572.852957
20
182.410505
42
0.107856
0
VERTEX
8
0
10
572.587421
20
182.352552
42
0.104327
0
VERTEX
8
0
10
572.361824
20
182.185403
42
0.092151
0
VERTEX
8
0
10
572.211431
20
181.935330
42
0.061204
0
VERTEX
8
0
10
572.109437
20
181.510096
0
VERTEX
8
0
10
571.608
20
181.619
42
-0.068746
0
VERTEX
8
0
10
571.780914
20
182.219646
42
-0.096097
0
VERTEX
8
0
10
572.037813
20
182.587858
42
-0.098513
0
VERTEX
8
0
10
572.405522
20
182.829430
42
-0.096514
0
VERTEX
8
0
10
572.846135
20
182.915280
42
-0.103042
0
VERTEX
8
0
10
573.303064
20
182.820104
42
-0.101154
0
VERTEX
8
0
10
573.691974
20
182.546931
42
-0.099846
0
VERTEX
8
0
10
573.945252
20
182.140967
42
-0.089934
0
VERTEX
8
0
10
574.039860
20
181.619236
42
-0.060988
0
VERTEX
8
0
10
573.999566
20
181.290121
42
-0.068452
0
VERTEX
8
0
10
573.889791
20
181.015553
42
-0.067192
0
VERTEX
8
0
10
573.708550
20
180.777742
42
-0.069278
0
VERTEX
8
0
10
573.477104
20
180.602865
42
-0.060548
0
VERTEX
8
0
10
573.709326
20
180.508646
42
-0.069867
0
VERTEX
8
0
10
573.882970
20
180.377763
42
-0.058048
0
VERTEX
8
0
10
574.017344
20
180.207956
42
-0.044965
0
VERTEX
8
0
10
574.142179
20
179.958254
42
-0.047432
0
VERTEX
8
0
10
574.214604
20
179.687990
42
-0.041783
0
VERTEX
8
0
10
574.241088
20
179.371624
42
-0.086740
0
VERTEX
8
0
10
574.129203
20
178.731530
42
-0.099554
0
VERTEX
8
0
10
573.835221
20
178.246112
42
-0.100184
0
VERTEX
8
0
10
573.380814
20
177.920453
42
-0.105925
0
VERTEX
8
0
10
572.863188
20
177.809550
42
-0.101687
0
VERTEX
8
0
10
572.377576
20
177.909343
42
-0.102212
0
VERTEX
8
0
10
571.973011
20
178.191542
42
-0.096957
0
VERTEX
8
0
10
571.701171
20
178.607918
42
-0.076620
0
VERTEX
8
0
10
571.556913
20
179.218145
0
SEQEND
0
POLYLINE
70
0
62
7
8
0
66
1
0
VERTEX
8
0
10
571.030
20
207.083
0
VERTEX
8
0
10
571.030
20
206.493
0
VERTEX
8
0
10
568.319
20
206.493
42
-0.072750
0
VERTEX
8
0
10
568.358970
20
206.837933
42
-0.051623
0
VERTEX
8
0
10
568.533379
20
207.294248
42
-0.049703
0
VERTEX
8
0
10
568.798169
20
207.705335
42
-0.028468
0
VERTEX
8
0
10
569.365576
20
208.341315
42
0.021207
0
VERTEX
8
0
10
570.029893
20
209.059249
42
0.045942
0
VERTEX
8
0
10
570.289860
20
209.429309
42
0.053384
0
VERTEX
8
0
10
570.461606
20
209.831239
42
0.074425
0
VERTEX
8
0
10
570.508141
20
210.142133
42
0.086751
0
VERTEX
8
0
10
570.445397
20
210.501044
42
0.101928
0
VERTEX
8
0
10
570.283038
20
210.766280
42
0.101096
0
VERTEX
8
0
10
570.029346
20
210.946189
42
0.104210
0
VERTEX
8
0
10
569.733925
20
211.008436
42
0.107289
0
VERTEX
8
0
10
569.415734
20
210.939364
42
0.108278
0
VERTEX
8
0
10
569.157527
20
210.745817
42
0.104848
0
VERTEX
8
0
10
569.000150
20
210.459725
42
0.073628
0
VERTEX
8
0
10
568.932424
20
210.002297
0
VERTEX
8
0
10
568.414
20
210.067
42
-0.072077
0
VERTEX
8
0
10
568.561161
20
210.740271
42
-0.103365
0
VERTEX
8
0
10
568.819873
20
211.148272
42
-0.106941
0
VERTEX
8
0
10
569.217163
20
211.412334
42
-0.093657
0
VERTEX
8
0
10
569.750978
20
211.513211
42
-0.105276
0
VERTEX
8
0
10
570.315032
20
211.393117
42
-0.124673
0
VERTEX
8
0
10
570.699137
20
211.090291
42
-0.081258
0
VERTEX
8
0
10
570.940049
20
210.635454
42
-0.081414
0
VERTEX
8
0
10
571.023148
20
210.128491
42
-0.067214
0
VERTEX
8
0
10
570.961285
20
209.670381
42
-0.062441
0
VERTEX
8
0
10
570.770760
20
209.211028
42
-0.039038
0
VERTEX
8
0
10
570.477642
20
208.791426
42
-0.019955
0
VERTEX
8
0
10
569.812370
20
208.044589
42
0.006342
0
VERTEX
8
0
10
569.384437
20
207.595678
42
0.016621
0
VERTEX
8
0
10
569.229150
20
207.417031
42
0.025811
0
VERTEX
8
0
10
569.116355
20
207.257587
42
0.025114
0
VERTEX
8
0
10
569.017691
20
207.082788
0
VERTEX
8
0
10
571.030
20
207.083
0
SEQEND
0
POLYLINE
70
0
62
7
8
0
66
1
0
VERTEX
8
0
10
573.175
20
206.493
0
VERTEX
8
0
10
573.175
20
207.690
0
VERTEX
8
0
10
571.398
20
207.690
0
VERTEX
8
0
10
571.398
20
208.253
0
VERTEX
8
0
10
573.264
20
211.493
0
VERTEX
8
0
10
573.680
20
211.493
0
VERTEX
8
0
10
573.680
20
208.253
0
VERTEX
8
0
10
574.236
20
208.253
0
VERTEX
8
0
10
574.236
20
207.690
0
VERTEX
8
0
10
573.680
20
207.690
0
VERTEX
8
0
10
573.680
20
206.493
0
VERTEX
8
0
10
573.175
20
206.493
0
SEQEND
0
POLYLINE
70
0
62
7
8
0
66
1
0
VERTEX
8
0
10
573.175
20
208.253
0
VERTEX
8
0
10
573.175
20
210.507
0
VERTEX
8
0
10
571.893
20
208.253
0
VERTEX
8
0
10
573.175
20
208.253
0
SEQEND
0
POLYLINE
70
0
62
7
8
0
66
1
0
VERTEX
8
0
10
690.061
20
206.570
0
VERTEX
8
0
10
689.556
20
206.570
0
VERTEX
8
0
10
689.556
20
210.482
42
-0.033687
0
VERTEX
8
0
10
689.373124
20
210.293974
42
-0.024149
0
VERTEX
8
0
10
689.089092
20
210.062726
42
-0.022517
0
VERTEX
8
0
10
688.784926
20
209.862700
42
-0.031079
0
VERTEX
8
0
10
688.550210
20
209.742126
0
VERTEX
8
0
10
688.550
20
210.336
42
0.038873
0
VERTEX
8
0
10
688.944779
20
210.602165
42
0.039926
0
VERTEX
8
0
10
689.283498
20
210.918797
42
0.039099
0
VERTEX
8
0
10
689.568640
20
211.279821
42
0.051159
0
VERTEX
8
0
10
689.733703
20
211.590694
0
VERTEX
8
0
10
690.061
20
211.591
0
VERTEX
8
0
10
690.061
20
206.570
0
SEQEND
0
POLYLINE
70
0
62
7
8
0
66
1
0
VERTEX
8
0
10
694.004
20
207.160
0
VERTEX
8
0
10
694.004
20
206.570
0
VERTEX
8
0
10
691.292
20
206.570
42
-0.072750
0
VERTEX
8
0
10
691.332826
20
206.915416
42
-0.051623
0
VERTEX
8
0
10
691.507236
20
207.371731
42
-0.049703
0
VERTEX
8
0
10
691.772026
20
207.782818
42
-0.028468
0
VERTEX
8
0
10
692.339433
20
208.418797
42
0.021207
0
VERTEX
8
0
10
693.003749
20
209.136731
42
0.045942
0
VERTEX
8
0
10
693.263716
20
209.506792
42
0.053384
0
VERTEX
8
0
10
693.435463
20
209.908722
42
0.074425
0
VERTEX
8
0
10
693.481997
20
210.219616
42
0.086751
0
VERTEX
8
0
10
693.419254
20
210.578527
42
0.101928
0
VERTEX
8
0
10
693.256895
20
210.843763
42
0.101096
0
VERTEX
8
0
10
693.003203
20
211.023671
42
0.104210
0
VERTEX
8
0
10
692.707782
20
211.085919
42
0.107289
0
VERTEX
8
0
10
692.389591
20
211.016847
42
0.108278
0
VERTEX
8
0
10
692.131383
20
210.823299
42
0.104848
0
VERTEX
8
0
10
691.974007
20
210.537208
42
0.073628
0
VERTEX
8
0
10
691.906281
20
210.079780
0
VERTEX
8
0
10
691.388
20
210.145
42
-0.072077
0
VERTEX
8
0
10
691.535017
20
210.817754
42
-0.103365
0
VERTEX
8
0
10
691.793730
20
211.225755
42
-0.106941
0
VERTEX
8
0
10
692.191020
20
211.489817
42
-0.093657
0
VERTEX
8
0
10
692.724835
20
211.590694
42
-0.105276
0
VERTEX
8
0
10
693.288889
20
211.470600
42
-0.124673
0
VERTEX
8
0
10
693.672993
20
211.167774
42
-0.081258
0
VERTEX
8
0
10
693.913906
20
210.712937
42
-0.081414
0
VERTEX
8
0
10
693.997004
20
210.205973
42
-0.067214
0
VERTEX
8
0
10
693.935142
20
209.747864
42
-0.062441
0
VERTEX
8
0
10
693.744617
20
209.288511
42
-0.039038
0
VERTEX
8
0
10
693.451499
20
208.868909
42
-0.019955
0
VERTEX
8
0
10
692.786227
20
208.122072
42
0.006342
0
VERTEX
8
0
10
692.358293
20
207.673161
42
0.016621
0
VERTEX
8
0
10
692.203007
20
207.494514
42
0.025811
0
VERTEX
8
0
10
692.090211
20
207.335069
42
0.025114
0
VERTEX
8
0
10
691.991547
20
207.160271
0
VERTEX
8
0
10
694.004
20
207.160
0
SEQEND
0
POLYLINE
70
0
62
7
8
0
66
1
0
VERTEX
8
0
10
690.649
20
177.852
0
VERTEX
8
0
10
690.145
20
177.852
0
VERTEX
8
0
10
690.145
20
181.764
42
-0.033687
0
VERTEX
8
0
10
689.961460
20
181.575928
42
-0.024149
0
VERTEX
8
0
10
689.677427
20
181.344680
42
-0.022517
0
VERTEX
8
0
10
689.373262
20
181.144654
42
-0.031079
0
VERTEX
8
0
10
689.138546
20
181.024079
0
VERTEX
8
0
10
689.139
20
181.618
42
0.038873
0
VERTEX
8
0
10
689.533115
20
181.884118
42
0.039926
0
VERTEX
8
0
10
689.871834
20
182.200751
42
0.039099
0
VERTEX
8
0
10
690.156975
20
182.561774
42
0.051159
0
VERTEX
8
0
10
690.322038
20
182.872647
0
VERTEX
8
0
10
690.649
20
182.873
0
VERTEX
8
0
10
690.649
20
177.852
0
SEQEND
0
POLYLINE
70
0
62
7
8
0
66
1
0
VERTEX
8
0
10
693.415
20
177.852
0
VERTEX
8
0
10
692.911
20
177.852
0
VERTEX
8
0
10
692.911
20
181.764
42
-0.033687
0
VERTEX
8
0
10
692.727490
20
181.575928
42
-0.024149
0
VERTEX
8
0
10
692.443457
20
181.344680
42
-0.022517
0
VERTEX
8
0
10
692.139292
20
181.144654
42
-0.031079
0
VERTEX
8
0
10
691.904576
20
181.024079
0
VERTEX
8
0
10
691.905
20
181.618
42
0.038873
0
VERTEX
8
0
10
692.299145
20
181.884118
42
0.039926
0
VERTEX
8
0
10
692.637864
20
182.200751
42
0.039099
0
VERTEX
8
0
10
692.923005
20
182.561774
42
0.051159
0
VERTEX
8
0
10
693.088068
20
182.872647
0
VERTEX
8
0
10
693.415
20
182.873
0
VERTEX
8
0
10
693.415
20
177.852
0
SEQEND
0
POLYLINE
70
0
62
7
8
0
66
1
0
VERTEX
8
0
10
661.025
20
178.485
0
VERTEX
8
0
10
661.025
20
177.895
0
VERTEX
8
0
10
658.313
20
177.895
42
-0.072750
0
VERTEX
8
0
10
658.353854
20
178.240003
42
-0.051623
0
VERTEX
8
0
10
658.528263
20
178.696317
42
-0.049703
0
VERTEX
8
0
10
658.793053
20
179.107404
42
-0.028468
0
VERTEX
8
0
10
659.360460
20
179.743384
42
0.021207
0
VERTEX
8
0
10
660.024777
20
180.461318
42
0.045942
0
VERTEX
8
0
10
660.284744
20
180.831378
42
0.053384
0
VERTEX
8
0
10
660.456490
20
181.233308
42
0.074425
0
VERTEX
8
0
10
660.503025
20
181.544202
42
0.086751
0
VERTEX
8
0
10
660.440281
20
181.903113
42
0.101928
0
VERTEX
8
0
10
660.277922
20
182.168350
42
0.101096
0
VERTEX
8
0
10
660.024230
20
182.348258
42
0.104210
0
VERTEX
8
0
10
659.728809
20
182.410505
42
0.107289
0
VERTEX
8
0
10
659.410618
20
182.341434
42
0.108278
0
VERTEX
8
0
10
659.152411
20
182.147886
42
0.104848
0
VERTEX
8
0
10
658.995034
20
181.861794
42
0.073628
0
VERTEX
8
0
10
658.927309
20
181.404366
0
VERTEX
8
0
10
658.409
20
181.469
42
-0.072077
0
VERTEX
8
0
10
658.556045
20
182.142340
42
-0.103365
0
VERTEX
8
0
10
658.814757
20
182.550341
42
-0.106941
0
VERTEX
8
0
10
659.212047
20
182.814404
42
-0.093657
0
VERTEX
8
0
10
659.745862
20
182.915280
42
-0.105276
0
VERTEX
8
0
10
660.309916
20
182.795186
42
-0.124673
0
VERTEX
8
0
10
660.694021
20
182.492360
42
-0.081258
0
VERTEX
8
0
10
660.934933
20
182.037523
42
-0.081414
0
VERTEX
8
0
10
661.018032
20
181.530560
42
-0.067214
0
VERTEX
8
0
10
660.956169
20
181.072450
42
-0.062441
0
VERTEX
8
0
10
660.765644
20
180.613097
42
-0.039038
0
VERTEX
8
0
10
660.472526
20
180.193495
42
-0.019955
0
VERTEX
8
0
10
659.807254
20
179.446658
42
0.006342
0
VERTEX
8
0
10
659.379321
20
178.997747
42
0.016621
0
VERTEX
8
0
10
659.224034
20
178.819100
42
0.025811
0
VERTEX
8
0
10
659.111239
20
178.659656
42
0.025114
0
VERTEX
8
0
10
659.012575
20
178.484857
0
VERTEX
8
0
10
661.025
20
178.485
0
SEQEND
0
POLYLINE
70
0
62
7
8
0
66
1
0
VERTEX
8
0
10
661.557
20
179.218
0
VERTEX
8
0
10
662.058
20
179.300
42
0.050726
0
VERTEX
8
0
10
662.190159
20
178.795260
42
0.096691
0
VERTEX
8
0
10
662.334113
20
178.560317
42
0.096691
0
VERTEX
8
0
10
662.586243
20
178.374349
42
0.111136
0
VERTEX
8
0
10
662.852957
20
178.314325
42
0.113522
0
VERTEX
8
0
10
663.167401
20
178.386650
42
0.102500
0
VERTEX
8
0
10
663.449819
20
178.604229
42
0.098888
0
VERTEX
8
0
10
663.633559
20
178.922965
42
0.081630
0
VERTEX
8
0
10
663.705617
20
179.361392
42
0.079878
0
VERTEX
8
0
10
663.639692
20
179.771419
42
0.098952
0
VERTEX
8
0
10
663.473693
20
180.063984
42
0.101518
0
VERTEX
8
0
10
663.204907
20
180.265868
42
0.110916
0
VERTEX
8
0
10
662.904116
20
180.333425
42
0.047533
0
VERTEX
8
0
10
662.766570
20
180.320319
42
0.029273
0
VERTEX
8
0
10
662.549409
20
180.265212
0
VERTEX
8
0
10
662.607
20
180.804
0
VERTEX
8
0
10
662.686
20
180.797
42
0.089466
0
VERTEX
8
0
10
663.033721
20
180.860022
42
0.104693
0
VERTEX
8
0
10
663.289519
20
181.022374
42
0.107528
0
VERTEX
8
0
10
663.459231
20
181.280197
42
0.092241
0
VERTEX
8
0
10
663.524853
20
181.632879
42
0.084708
0
VERTEX
8
0
10
663.468983
20
181.960291
42
0.102713
0
VERTEX
8
0
10
663.327036
20
182.195635
42
0.102813
0
VERTEX
8
0
10
663.108161
20
182.355370
42
0.106789
0
VERTEX
8
0
10
662.852957
20
182.410505
42
0.107856
0
VERTEX
8
0
10
662.587421
20
182.352552
42
0.104327
0
VERTEX
8
0
10
662.361824
20
182.185403
42
0.092151
0
VERTEX
8
0
10
662.211431
20
181.935330
42
0.061204
0
VERTEX
8
0
10
662.109437
20
181.510096
0
VERTEX
8
0
10
661.608
20
181.619
42
-0.068746
0
VERTEX
8
0
10
661.780914
20
182.219646
42
-0.096097
0
VERTEX
8
0
10
662.037813
20
182.587858
42
-0.098513
0
VERTEX
8
0
10
662.405522
20
182.829430
42
-0.096514
0
VERTEX
8
0
10
662.846135
20
182.915280
42
-0.103042
0
VERTEX
8
0
10
663.303064
20
182.820104
42
-0.101154
0
VERTEX
8
0
10
663.691974
20
182.546931
42
-0.099846
0
VERTEX
8
0
10
663.945252
20
182.140967
42
-0.089934
0
VERTEX
8
0
10
664.039860
20
181.619236
42
-0.060988
0
VERTEX
8
0
10
663.999566
20
181.290121
42
-0.068452
0
VERTEX
8
0
10
663.889791
20
181.015553
42
-0.067192
0
VERTEX
8
0
10
663.708550
20
180.777742
42
-0.069278
0
VERTEX
8
0
10
663.477104
20
180.602865
42
-0.060548
0
VERTEX
8
0
10
663.709326
20
180.508646
42
-0.069867
0
VERTEX
8
0
10
663.882970
20
180.377763
42
-0.058048
0
VERTEX
8
0
10
664.017344
20
180.207956
42
-0.044965
0
VERTEX
8
0
10
664.142179
20
179.958254
42
-0.047432
0
VERTEX
8
0
10
664.214604
20
179.687990
42
-0.041783
0
VERTEX
8
0
10
664.241088
20
179.371624
42
-0.086740
0
VERTEX
8
0
10
664.129203
20
178.731530
42
-0.099554
0
VERTEX
8
0
10
663.835221
20
178.246112
42
-0.100184
0
VERTEX
8
0
10
663.380814
20
177.920453
42
-0.105925
0
VERTEX
8
0
10
662.863188
20
177.809550
42
-0.101687
0
VERTEX
8
0
10
662.377576
20
177.909343
42
-0.102212
0
VERTEX
8
0
10
661.973011
20
178.191542
42
-0.096957
0
VERTEX
8
0
10
661.701171
20
178.607918
42
-0.076620
0
VERTEX
8
0
10
661.556913
20
179.218145
0
SEQEND
0
POLYLINE
70
0
62
7
8
0
66
1
0
VERTEX
8
0
10
661.030
20
207.083
0
VERTEX
8
0
10
661.030
20
206.493
0
VERTEX
8
0
10
658.319
20
206.493
42
-0.072750
0
VERTEX
8
0
10
658.358970
20
206.837933
42
-0.051623
0
VERTEX
8
0
10
658.533379
20
207.294248
42
-0.049703
0
VERTEX
8
0
10
658.798169
20
207.705335
42
-0.028468
0
VERTEX
8
0
10
659.365576
20
208.341315
42
0.021207
0
VERTEX
8
0
10
660.029893
20
209.059249
42
0.045942
0
VERTEX
8
0
10
660.289860
20
209.429309
42
0.053384
0
VERTEX
8
0
10
660.461606
20
209.831239
42
0.074425
0
VERTEX
8
0
10
660.508141
20
210.142133
42
0.086751
0
VERTEX
8
0
10
660.445397
20
210.501044
42
0.101928
0
VERTEX
8
0
10
660.283038
20
210.766280
42
0.101096
0
VERTEX
8
0
10
660.029346
20
210.946189
42
0.104210
0
VERTEX
8
0
10
659.733925
20
211.008436
42
0.107289
0
VERTEX
8
0
10
659.415734
20
210.939364
42
0.108278
0
VERTEX
8
0
10
659.157527
20
210.745817
42
0.104848
0
VERTEX
8
0
10
659.000150
20
210.459725
42
0.073628
0
VERTEX
8
0
10
658.932424
20
210.002297
0
VERTEX
8
0
10
658.414
20
210.067
42
-0.072077
0
VERTEX
8
0
10
658.561161
20
210.740271
42
-0.103365
0
VERTEX
8
0
10
658.819873
20
211.148272
42
-0.106941
0
VERTEX
8
0
10
659.217163
20
211.412334
42
-0.093657
0
VERTEX
8
0
10
659.750978
20
211.513211
42
-0.105276
0
VERTEX
8
0
10
660.315032
20
211.393117
42
-0.124673
0
VERTEX
8
0
10
660.699137
20
211.090291
42
-0.081258
0
VERTEX
8
0
10
660.940049
20
210.635454
42
-0.081414
0
VERTEX
8
0
10
661.023148
20
210.128491
42
-0.067214
0
VERTEX
8
0
10
660.961285
20
209.670381
42
-0.062441
0
VERTEX
8
0
10
660.770760
20
209.211028
42
-0.039038
0
VERTEX
8
0
10
660.477642
20
208.791426
42
-0.019955
0
VERTEX
8
0
10
659.812370
20
208.044589
42
0.006342
0
VERTEX
8
0
10
659.384437
20
207.595678
42
0.016621
0
VERTEX
8
0
10
659.229150
20
207.417031
42
0.025811
0
VERTEX
8
0
10
659.116355
20
207.257587
42
0.025114
0
VERTEX
8
0
10
659.017691
20
207.082788
0
VERTEX
8
0
10
661.030
20
207.083
0
SEQEND
0
POLYLINE
70
0
62
7
8
0
66
1
0
VERTEX
8
0
10
663.175
20
206.493
0
VERTEX
8
0
10
663.175
20
207.690
0
VERTEX
8
0
10
661.398
20
207.690
0
VERTEX
8
0
10
661.398
20
208.253
0
VERTEX
8
0
10
663.264
20
211.493
0
VERTEX
8
0
10
663.680
20
211.493
0
VERTEX
8
0
10
663.680
20
208.253
0
VERTEX
8
0
10
664.236
20
208.253
0
VERTEX
8
0
10
664.236
20
207.690
0
VERTEX
8
0
10
663.680
20
207.690
0
VERTEX
8
0
10
663.680
20
206.493
0
VERTEX
8
0
10
663.175
20
206.493
0
SEQEND
0
POLYLINE
70
0
62
7
8
0
66
1
0
VERTEX
8
0
10
663.175
20
208.253
0
VERTEX
8
0
10
663.175
20
210.507
0
VERTEX
8
0
10
661.893
20
208.253
0
VERTEX
8
0
10
663.175
20
208.253
0
SEQEND
0
POLYLINE
70
0
62
7
8
0
66
1
0
VERTEX
8
0
10
780.061
20
206.570
0
VERTEX
8
0
10
779.556
20
206.570
0
VERTEX
8
0
10
779.556
20
210.482
42
-0.033687
0
VERTEX
8
0
10
779.373124
20
210.293974
42
-0.024149
0
VERTEX
8
0
10
779.089092
20
210.062726
42
-0.022517
0
VERTEX
8
0
10
778.784926
20
209.862700
42
-0.031079
0
VERTEX
8
0
10
778.550210
20
209.742126
0
VERTEX
8
0
10
778.550
20
210.336
42
0.038873
0
VERTEX
8
0
10
778.944779
20
210.602165
42
0.039926
0
VERTEX
8
0
10
779.283498
20
210.918797
42
0.039099
0
VERTEX
8
0
10
779.568640
20
211.279821
42
0.051159
0
VERTEX
8
0
10
779.733703
20
211.590694
0
VERTEX
8
0
10
780.061
20
211.591
0
VERTEX
8
0
10
780.061
20
206.570
0
SEQEND
0
POLYLINE
70
0
62
7
8
0
66
1
0
VERTEX
8
0
10
784.004
20
207.160
0
VERTEX
8
0
10
784.004
20
206.570
0
VERTEX
8
0
10
781.292
20
206.570
42
-0.072750
0
VERTEX
8
0
10
781.332826
20
206.915416
42
-0.051623
0
VERTEX
8
0
10
781.507236
20
207.371731
42
-0.049703
0
VERTEX
8
0
10
781.772026
20
207.782818
42
-0.028468
0
VERTEX
8
0
10
782.339433
20
208.418797
42
0.021207
0
VERTEX
8
0
10
783.003749
20
209.136731
42
0.045942
0
VERTEX
8
0
10
783.263716
20
209.506792
42
0.053384
0
VERTEX
8
0
10
783.435463
20
209.908722
42
0.074425
0
VERTEX
8
0
10
783.481997
20
210.219616
42
0.086751
0
VERTEX
8
0
10
783.419254
20
210.578527
42
0.101928
0
VERTEX
8
0
10
783.256895
20
210.843763
42
0.101096
0
VERTEX
8
0
10
783.003203
20
211.023671
42
0.104210
0
VERTEX
8
0
10
782.707782
20
211.085919
42
0.107289
0
VERTEX
8
0
10
782.389591
20
211.016847
42
0.108278
0
VERTEX
8
0
10
782.131383
20
210.823299
42
0.104848
0
VERTEX
8
0
10
781.974007
20
210.537208
42
0.073628
0
VERTEX
8
0
10
781.906281
20
210.079780
0
VERTEX
8
0
10
781.388
20
210.145
42
-0.072077
0
VERTEX
8
0
10
781.535017
20
210.817754
42
-0.103365
0
VERTEX
8
0
10
781.793730
20
211.225755
42
-0.106941
0
VERTEX
8
0
10
782.191020
20
211.489817
42
-0.093657
0
VERTEX
8
0
10
782.724835
20
211.590694
42
-0.105276
0
VERTEX
8
0
10
783.288889
20
211.470600
42
-0.124673
0
VERTEX
8
0
10
783.672993
20
211.167774
42
-0.081258
0
VERTEX
8
0
10
783.913906
20
210.712937
42
-0.081414
0
VERTEX
8
0
10
783.997004
20
210.205973
42
-0.067214
0
VERTEX
8
0
10
783.935142
20
209.747864
42
-0.062441
0
VERTEX
8
0
10
783.744617
20
209.288511
42
-0.039038
0
VERTEX
8
0
10
783.451499
20
208.868909
42
-0.019955
0
VERTEX
8
0
10
782.786227
20
208.122072
42
0.006342
0
VERTEX
8
0
10
782.358293
20
207.673161
42
0.016621
0
VERTEX
8
0
10
782.203007
20
207.494514
42
0.025811
0
VERTEX
8
0
10
782.090211
20
207.335069
42
0.025114
0
VERTEX
8
0
10
781.991547
20
207.160271
0
VERTEX
8
0
10
784.004
20
207.160
0
SEQEND
0
POLYLINE
70
0
62
7
8
0
66
1
0
VERTEX
8
0
10
780.649
20
177.852
0
VERTEX
8
0
10
780.145
20
177.852
0
VERTEX
8
0
10
780.145
20
181.764
42
-0.033687
0
VERTEX
8
0
10
779.961460
20
181.575928
42
-0.024149
0
VERTEX
8
0
10
779.677427
20
181.344680
42
-0.022517
0
VERTEX
8
0
10
779.373262
20
181.144654
42
-0.031079
0
VERTEX
8
0
10
779.138546
20
181.024079
0
VERTEX
8
0
10
779.139
20
181.618
42
0.038873
0
VERTEX
8
0
10
779.533115
20
181.884118
42
0.039926
0
VERTEX
8
0
10
779.871834
20
182.200751
42
0.039099
0
VERTEX
8
0
10
780.156975
20
182.561774
42
0.051159
0
VERTEX
8
0
10
780.322038
20
182.872647
0
VERTEX
8
0
10
780.649
20
182.873
0
VERTEX
8
0
10
780.649
20
177.852
0
SEQEND
0
POLYLINE
70
0
62
7
8
0
66
1
0
VERTEX
8
0
10
783.415
20
177.852
0
VERTEX
8
0
10
782.911
20
177.852
0
VERTEX
8
0
10
782.911
20
181.764
42
-0.033687
0
VERTEX
8
0
10
782.727490
20
181.575928
42
-0.024149
0
VERTEX
8
0
10
782.443457
20
181.344680
42
-0.022517
0
VERTEX
8
0
10
782.139292
20
181.144654
42
-0.031079
0
VERTEX
8
0
10
781.904576
20
181.024079
0
VERTEX
8
0
10
781.905
20
181.618
42
0.038873
0
VERTEX
8
0
10
782.299145
20
181.884118
42
0.039926
0
VERTEX
8
0
10
782.637864
20
182.200751
42
0.039099
0
VERTEX
8
0
10
782.923005
20
182.561774
42
0.051159
0
VERTEX
8
0
10
783.088068
20
182.872647
0
VERTEX
8
0
10
783.415
20
182.873
0
VERTEX
8
0
10
783.415
20
177.852
0
SEQEND
0
POLYLINE
70
0
62
7
8
0
66
1
0
VERTEX
8
0
10
751.025
20
178.485
0
VERTEX
8
0
10
751.025
20
177.895
0
VERTEX
8
0
10
748.313
20
177.895
42
-0.072750
0
VERTEX
8
0
10
748.353854
20
178.240003
42
-0.051623
0
VERTEX
8
0
10
748.528263
20
178.696317
42
-0.049703
0
VERTEX
8
0
10
748.793053
20
179.107404
42
-0.028468
0
VERTEX
8
0
10
749.360460
20
179.743384
42
0.021207
0
VERTEX
8
0
10
750.024777
20
180.461318
42
0.045942
0
VERTEX
8
0
10
750.284744
20
180.831378
42
0.053384
0
VERTEX
8
0
10
750.456490
20
181.233308
42
0.074425
0
VERTEX
8
0
10
750.503025
20
181.544202
42
0.086751
0
VERTEX
8
0
10
750.440281
20
181.903113
42
0.101928
0
VERTEX
8
0
10
750.277922
20
182.168350
42
0.101096
0
VERTEX
8
0
10
750.024230
20
182.348258
42
0.104210
0
VERTEX
8
0
10
749.728809
20
182.410505
42
0.107289
0
VERTEX
8
0
10
749.410618
20
182.341434
42
0.108278
0
VERTEX
8
0
10
749.152411
20
182.147886
42
0.104848
0
VERTEX
8
0
10
748.995034
20
181.861794
42
0.073628
0
VERTEX
8
0
10
748.927309
20
181.404366
0
VERTEX
8
0
10
748.409
20
181.469
42
-0.072077
0
VERTEX
8
0
10
748.556045
20
182.142340
42
-0.103365
0
VERTEX
8
0
10
748.814757
20
182.550341
42
-0.106941
0
VERTEX
8
0
10
749.212047
20
182.814404
42
-0.093657
0
VERTEX
8
0
10
749.745862
20
182.915280
42
-0.105276
0
VERTEX
8
0
10
750.309916
20
182.795186
42
-0.124673
0
VERTEX
8
0
10
750.694021
20
182.492360
42
-0.081258
0
VERTEX
8
0
10
750.934933
20
182.037523
42
-0.081414
0
VERTEX
8
0
10
751.018032
20
181.530560
42
-0.067214
0
VERTEX
8
0
10
750.956169
20
181.072450
42
-0.062441
0
VERTEX
8
0
10
750.765644
20
180.613097
42
-0.039038
0
VERTEX
8
0
10
750.472526
20
180.193495
42
-0.019955
0
VERTEX
8
0
10
749.807254
20
179.446658
42
0.006342
0
VERTEX
8
0
10
749.379321
20
178.997747
42
0.016621
0
VERTEX
8
0
10
749.224034
20
178.819100
42
0.025811
0
VERTEX
8
0
10
749.111239
20
178.659656
42
0.025114
0
VERTEX
8
0
10
749.012575
20
178.484857
0
VERTEX
8
0
10
751.025
20
178.485
0
SEQEND
0
POLYLINE
70
0
62
7
8
0
66
1
0
VERTEX
8
0
10
751.557
20
179.218
0
VERTEX
8
0
10
752.058
20
179.300
42
0.050726
0
VERTEX
8
0
10
752.190159
20
178.795260
42
0.096691
0
VERTEX
8
0
10
752.334113
20
178.560317
42
0.096691
0
VERTEX
8
0
10
752.586243
20
178.374349
42
0.111136
0
VERTEX
8
0
10
752.852957
20
178.314325
42
0.113522
0
VERTEX
8
0
10
753.167401
20
178.386650
42
0.102500
0
VERTEX
8
0
10
753.449819
20
178.604229
42
0.098888
0
VERTEX
8
0
10
753.633559
20
178.922965
42
0.081630
0
VERTEX
8
0
10
753.705617
20
179.361392
42
0.079878
0
VERTEX
8
0
10
753.639692
20
179.771419
42
0.098952
0
VERTEX
8
0
10
753.473693
20
180.063984
42
0.101518
0
VERTEX
8
0
10
753.204907
20
180.265868
42
0.110916
0
VERTEX
8
0
10
752.904116
20
180.333425
42
0.047533
0
VERTEX
8
0
10
752.766570
20
180.320319
42
0.029273
0
VERTEX
8
0
10
752.549409
20
180.265212
0
VERTEX
8
0
10
752.607
20
180.804
0
VERTEX
8
0
10
752.686
20
180.797
42
0.089466
0
VERTEX
8
0
10
753.033721
20
180.860022
42
0.104693
0
VERTEX
8
0
10
753.289519
20
181.022374
42
0.107528
0
VERTEX
8
0
10
753.459231
20
181.280197
42
0.092241
0
VERTEX
8
0
10
753.524853
20
181.632879
42
0.084708
0
VERTEX
8
0
10
753.468983
20
181.960291
42
0.102713
0
VERTEX
8
0
10
753.327036
20
182.195635
42
0.102813
0
VERTEX
8
0
10
753.108161
20
182.355370
42
0.106789
0
VERTEX
8
0
10
752.852957
20
182.410505
42
0.107856
0
VERTEX
8
0
10
752.587421
20
182.352552
42
0.104327
0
VERTEX
8
0
10
752.361824
20
182.185403
42
0.092151
0
VERTEX
8
0
10
752.211431
20
181.935330
42
0.061204
0
VERTEX
8
0
10
752.109437
20
181.510096
0
VERTEX
8
0
10
751.608
20
181.619
42
-0.068746
0
VERTEX
8
0
10
751.780914
20
182.219646
42
-0.096097
0
VERTEX
8
0
10
752.037813
20
182.587858
42
-0.098513
0
VERTEX
8
0
10
752.405522
20
182.829430
42
-0.096514
0
VERTEX
8
0
10
752.846135
20
182.915280
42
-0.103042
0
VERTEX
8
0
10
753.303064
20
182.820104
42
-0.101154
0
VERTEX
8
0
10
753.691974
20
182.546931
42
-0.099846
0
VERTEX
8
0
10
753.945252
20
182.140967
42
-0.089934
0
VERTEX
8
0
10
754.039860
20
181.619236
42
-0.060988
0
VERTEX
8
0
10
753.999566
20
181.290121
42
-0.068452
0
VERTEX
8
0
10
753.889791
20
181.015553
42
-0.067192
0
VERTEX
8
0
10
753.708550
20
180.777742
42
-0.069278
0
VERTEX
8
0
10
753.477104
20
180.602865
42
-0.060548
0
VERTEX
8
0
10
753.709326
20
180.508646
42
-0.069867
0
VERTEX
8
0
10
753.882970
20
180.377763
42
-0.058048
0
VERTEX
8
0
10
754.017344
20
180.207956
42
-0.044965
0
VERTEX
8
0
10
754.142179
20
179.958254
42
-0.047432
0
VERTEX
8
0
10
754.214604
20
179.687990
42
-0.041783
0
VERTEX
8
0
10
754.241088
20
179.371624
42
-0.086740
0
VERTEX
8
0
10
754.129203
20
178.731530
42
-0.099554
0
VERTEX
8
0
10
753.835221
20
178.246112
42
-0.100184
0
VERTEX
8
0
10
753.380814
20
177.920453
42
-0.105925
0
VERTEX
8
0
10
752.863188
20
177.809550
42
-0.101687
0
VERTEX
8
0
10
752.377576
20
177.909343
42
-0.102212
0
VERTEX
8
0
10
751.973011
20
178.191542
42
-0.096957
0
VERTEX
8
0
10
751.701171
20
178.607918
42
-0.076620
0
VERTEX
8
0
10
751.556913
20
179.218145
0
SEQEND
0
POLYLINE
70
0
62
7
8
0
66
1
0
VERTEX
8
0
10
751.030
20
207.083
0
VERTEX
8
0
10
751.030
20
206.493
0
VERTEX
8
0
10
748.319
20
206.493
42
-0.072750
0
VERTEX
8
0
10
748.358970
20
206.837933
42
-0.051623
0
VERTEX
8
0
10
748.533379
20
207.294248
42
-0.049703
0
VERTEX
8
0
10
748.798169
20
207.705335
42
-0.028468
0
VERTEX
8
0
10
749.365576
20
208.341315
42
0.021207
0
VERTEX
8
0
10
750.029893
20
209.059249
42
0.045942
0
VERTEX
8
0
10
750.289860
20
209.429309
42
0.053384
0
VERTEX
8
0
10
750.461606
20
209.831239
42
0.074425
0
VERTEX
8
0
10
750.508141
20
210.142133
42
0.086751
0
VERTEX
8
0
10
750.445397
20
210.501044
42
0.101928
0
VERTEX
8
0
10
750.283038
20
210.766280
42
0.101096
0
VERTEX
8
0
10
750.029346
20
210.946189
42
0.104210
0
VERTEX
8
0
10
749.733925
20
211.008436
42
0.107289
0
VERTEX
8
0
10
749.415734
20
210.939364
42
0.108278
0
VERTEX
8
0
10
749.157527
20
210.745817
42
0.104848
0
VERTEX
8
0
10
749.000150
20
210.459725
42
0.073628
0
VERTEX
8
0
10
748.932424
20
210.002297
0
VERTEX
8
0
10
748.414
20
210.067
42
-0.072077
0
VERTEX
8
0
10
748.561161
20
210.740271
42
-0.103365
0
VERTEX
8
0
10
748.819873
20
211.148272
42
-0.106941
0
VERTEX
8
0
10
749.217163
20
211.412334
42
-0.093657
0
VERTEX
8
0
10
749.750978
20
211.513211
42
-0.105276
0
VERTEX
8
0
10
750.315032
20
211.393117
42
-0.124673
0
VERTEX
8
0
10
750.699137
20
211.090291
42
-0.081258
0
VERTEX
8
0
10
750.940049
20
210.635454
42
-0.081414
0
VERTEX
8
0
10
751.023148
20
210.128491
42
-0.067214
0
VERTEX
8
0
10
750.961285
20
209.670381
42
-0.062441
0
VERTEX
8
0
10
750.770760
20
209.211028
42
-0.039038
0
VERTEX
8
0
10
750.477642
20
208.791426
42
-0.019955
0
VERTEX
8
0
10
749.812370
20
208.044589
42
0.006342
0
VERTEX
8
0
10
749.384437
20
207.595678
42
0.016621
0
VERTEX
8
0
10
749.229150
20
207.417031
42
0.025811
0
VERTEX
8
0
10
749.116355
20
207.257587
42
0.025114
0
VERTEX
8
0
10
749.017691
20
207.082788
0
VERTEX
8
0
10
751.030
20
207.083
0
SEQEND
0
POLYLINE
70
0
62
7
8
0
66
1
0
VERTEX
8
0
10
753.175
20
206.493
0
VERTEX
8
0
10
753.175
20
207.690
0
VERTEX
8
0
10
751.398
20
207.690
0
VERTEX
8
0
10
751.398
20
208.253
0
VERTEX
8
0
10
753.264
20
211.493
0
VERTEX
8
0
10
753.680
20
211.493
0
VERTEX
8
0
10
753.680
20
208.253
0
VERTEX
8
0
10
754.236
20
208.253
0
VERTEX
8
0
10
754.236
20
207.690
0
VERTEX
8
0
10
753.680
20
207.690
0
VERTEX
8
0
10
753.680
20
206.493
0
VERTEX
8
0
10
753.175
20
206.493
0
SEQEND
0
POLYLINE
70
0
62
7
8
0
66
1
0
VERTEX
8
0
10
753.175
20
208.253
0
VERTEX
8
0
10
753.175
20
210.507
0
VERTEX
8
0
10
751.893
20
208.253
0
VERTEX
8
0
10
753.175
20
208.253
0
SEQEND
0
ENDSEC
0
EOF
