  0
SECTION
  2
HEADER
  9
$ACADVER
  1
AC1015
  9
$ACADMAINTVER
 70
    20
  9
$DWGCODEPAGE
  3
ANSI_936
  9
$INSBASE
 10
0.0
 20
0.0
 30
0.0
  9
$EXTMIN
 10
-58.01236370865237
 20
-18.17490831967
 30
-0.0000000000467182
  9
$EXTMAX
 10
44.92485785287311
 20
273.23597768033
 30
0.0000000000783302
  9
$LIMMIN
 10
0.0
 20
0.0
  9
$LIMMAX
 10
0.0
 20
0.0
  9
$ORTHOMODE
 70
     0
  9
$REGENMODE
 70
     1
  9
$FILLMODE
 70
     1
  9
$QTEXTMODE
 70
     0
  9
$MIRRTEXT
 70
     1
  9
$LTSCALE
 40
8.0
  9
$ATTMODE
 70
     1
  9
$TEXTSIZE
 40
0.0
  9
$TRACEWID
 40
0.05
  9
$TEXTSTYLE
  7
Standard
  9
$CLAYER
  8
0
  9
$CELTYPE
  6
CENTER
  9
$CECOLOR
 62
   256
  9
$CELTSCALE
 40
1.0
  9
$DISPSILH
 70
     0
  9
$DIMSCALE
 40
1.0
  9
$DIMASZ
 40
0.18
  9
$DIMEXO
 40
0.0625
  9
$DIMDLI
 40
0.38
  9
$DIMRND
 40
0.0
  9
$DIMDLE
 40
0.0
  9
$DIMEXE
 40
0.18
  9
$DIMTP
 40
0.0
  9
$DIMTM
 40
0.0
  9
$DIMTXT
 40
0.18
  9
$DIMCEN
 40
0.09
  9
$DIMTSZ
 40
0.0
  9
$DIMTOL
 70
     0
  9
$DIMLIM
 70
     0
  9
$DIMTIH
 70
     1
  9
$DIMTOH
 70
     1
  9
$DIMSE1
 70
     0
  9
$DIMSE2
 70
     0
  9
$DIMTAD
 70
     0
  9
$DIMZIN
 70
     0
  9
$DIMBLK
  1

  9
$DIMASO
 70
     1
  9
$DIMSHO
 70
     1
  9
$DIMPOST
  1

  9
$DIMAPOST
  1

  9
$DIMALT
 70
     0
  9
$DIMALTD
 70
     2
  9
$DIMALTF
 40
25.4
  9
$DIMLFAC
 40
1.0
  9
$DIMTOFL
 70
     0
  9
$DIMTVP
 40
0.0
  9
$DIMTIX
 70
     0
  9
$DIMSOXD
 70
     0
  9
$DIMSAH
 70
     0
  9
$DIMBLK1
  1

  9
$DIMBLK2
  1

  9
$DIMSTYLE
  2
Standard
  9
$DIMCLRD
 70
     0
  9
$DIMCLRE
 70
     0
  9
$DIMCLRT
 70
     0
  9
$DIMTFAC
 40
1.0
  9
$DIMGAP
 40
0.09
  9
$DIMJUST
 70
     0
  9
$DIMSD1
 70
     0
  9
$DIMSD2
 70
     0
  9
$DIMTOLJ
 70
     1
  9
$DIMTZIN
 70
     0
  9
$DIMALTZ
 70
     0
  9
$DIMALTTZ
 70
     0
  9
$DIMUPT
 70
     0
  9
$DIMDEC
 70
     4
  9
$DIMTDEC
 70
     4
  9
$DIMALTU
 70
     2
  9
$DIMALTTD
 70
     2
  9
$DIMTXSTY
  7
Standard
  9
$DIMAUNIT
 70
     0
  9
$DIMADEC
 70
     0
  9
$DIMALTRND
 40
0.0
  9
$DIMAZIN
 70
     0
  9
$DIMDSEP
 70
     0
  9
$DIMATFIT
 70
     3
  9
$DIMFRAC
 70
     0
  9
$DIMLDRBLK
  1

  9
$DIMLUNIT
 70
     2
  9
$DIMLWD
 70
     0
  9
$DIMLWE
 70
     0
  9
$DIMTMOVE
 70
     0
  9
$LUNITS
 70
     2
  9
$LUPREC
 70
     4
  9
$SKETCHINC
 40
0.1
  9
$FILLETRAD
 40
0.0
  9
$AUNITS
 70
     0
  9
$AUPREC
 70
     0
  9
$MENU
  1
acad
  9
$ELEVATION
 40
0.0
  9
$PELEVATION
 40
0.0
  9
$THICKNESS
 40
0.0
  9
$LIMCHECK
 70
     0
  9
$CHAMFERA
 40
0.0
  9
$CHAMFERB
 40
0.0
  9
$CHAMFERC
 40
0.0
  9
$CHAMFERD
 40
0.0
  9
$SKPOLY
 70
     0
  9
$TDCREATE
 40
2452902.433492674
  9
$TDUCREATE
 40
2452902.100159340
  9
$TDUPDATE
 40
2452902.437495070
  9
$TDUUPDATE
 40
2452902.104161736
  9
$TDINDWG
 40
0.0040030903
  9
$TDUSRTIMER
 40
0.0040030903
  9
$USRTIMER
 70
     1
  9
$ANGBASE
 50
0.0
  9
$ANGDIR
 70
     0
  9
$PDMODE
 70
     0
  9
$PDSIZE
 40
0.0
  9
$PLINEWID
 40
0.0
  9
$SPLFRAME
 70
     0
  9
$SPLINETYPE
 70
     6
  9
$SPLINESEGS
 70
     8
  9
$HANDSEED
  5
4FF
  9
$SURFTAB1
 70
     6
  9
$SURFTAB2
 70
     6
  9
$SURFTYPE
 70
     6
  9
$SURFU
 70
     6
  9
$SURFV
 70
     6
  9
$UCSBASE
  2

  9
$UCSNAME
  2

  9
$UCSORG
 10
0.0
 20
0.0
 30
0.0
  9
$UCSXDIR
 10
1.0
 20
0.0
 30
0.0
  9
$UCSYDIR
 10
0.0
 20
1.0
 30
0.0
  9
$UCSORTHOREF
  2

  9
$UCSORTHOVIEW
 70
     0
  9
$UCSORGTOP
 10
0.0
 20
0.0
 30
0.0
  9
$UCSORGBOTTOM
 10
0.0
 20
0.0
 30
0.0
  9
$UCSORGLEFT
 10
0.0
 20
0.0
 30
0.0
  9
$UCSORGRIGHT
 10
0.0
 20
0.0
 30
0.0
  9
$UCSORGFRONT
 10
0.0
 20
0.0
 30
0.0
  9
$UCSORGBACK
 10
0.0
 20
0.0
 30
0.0
  9
$PUCSBASE
  2

  9
$PUCSNAME
  2

  9
$PUCSORG
 10
0.0
 20
0.0
 30
0.0
  9
$PUCSXDIR
 10
1.0
 20
0.0
 30
0.0
  9
$PUCSYDIR
 10
0.0
 20
1.0
 30
0.0
  9
$PUCSORTHOREF
  2

  9
$PUCSORTHOVIEW
 70
     0
  9
$PUCSORGTOP
 10
0.0
 20
0.0
 30
0.0
  9
$PUCSORGBOTTOM
 10
0.0
 20
0.0
 30
0.0
  9
$PUCSORGLEFT
 10
0.0
 20
0.0
 30
0.0
  9
$PUCSORGRIGHT
 10
0.0
 20
0.0
 30
0.0
  9
$PUCSORGFRONT
 10
0.0
 20
0.0
 30
0.0
  9
$PUCSORGBACK
 10
0.0
 20
0.0
 30
0.0
  9
$USERI1
 70
     0
  9
$USERI2
 70
     0
  9
$USERI3
 70
     0
  9
$USERI4
 70
     0
  9
$USERI5
 70
     0
  9
$USERR1
 40
0.0
  9
$USERR2
 40
0.0
  9
$USERR3
 40
0.0
  9
$USERR4
 40
0.0
  9
$USERR5
 40
0.0
  9
$WORLDVIEW
 70
     1
  9
$SHADEDGE
 70
     3
  9
$SHADEDIF
 70
    70
  9
$TILEMODE
 70
     1
  9
$MAXACTVP
 70
    16
  9
$PINSBASE
 10
0.0
 20
0.0
 30
0.0
  9
$PLIMCHECK
 70
     0
  9
$PEXTMIN
 10
1.000000000000000E+20
 20
1.000000000000000E+20
 30
1.000000000000000E+20
  9
$PEXTMAX
 10
-1.000000000000000E+20
 20
-1.000000000000000E+20
 30
-1.000000000000000E+20
  9
$PLIMMIN
 10
0.0
 20
0.0
  9
$PLIMMAX
 10
12.0
 20
9.0
  9
$UNITMODE
 70
     0
  9
$VISRETAIN
 70
     0
  9
$PLINEGEN
 70
     1
  9
$PSLTSCALE
 70
     0
  9
$TREEDEPTH
 70
  3020
  9
$CMLSTYLE
  2
Standard
  9
$CMLJUST
 70
     0
  9
$CMLSCALE
 40
1.0
  9
$PROXYGRAPHICS
 70
     0
  9
$MEASUREMENT
 70
     0
  9
$CELWEIGHT
370
     0
  9
$ENDCAPS
280
     0
  9
$JOINSTYLE
280
     0
  9
$LWDISPLAY
290
     0
  9
$INSUNITS
 70
     0
  9
$HYPERLINKBASE
  1

  9
$STYLESHEET
  1

  9
$XEDIT
290
     1
  9
$CEPSNTYPE
380
     0
  9
$PSTYLEMODE
290
     1
  9
$FINGERPRINTGUID
  2

  9
$VERSIONGUID
  2
{6608E6CD-4286-4E0D-8012-AE25C3A0F044}
  9
$EXTNAMES
290
     1
  9
$PSVPSCALE
 40
0.0
  9
$OLESTARTUP
290
     0
  0
ENDSEC
  0
SECTION
  2
CLASSES
  0
CLASS
  1
IMAGE
  2
AcDbRasterImage
  3
ISM
 90
    32895
280
     0
281
     1
  0
CLASS
  1
DICTIONARYVAR
  2
AcDbDictionaryVar
  3
ObjectDBX Classes
 90
        0
280
     0
281
     0
  0
CLASS
  1
RASTERVARIABLES
  2
AcDbRasterVariables
  3
ISM
 90
    32768
280
     0
281
     0
  0
CLASS
  1
IMAGEDEF
  2
AcDbRasterImageDef
  3
ISM
 90
    32768
280
     0
281
     0
  0
CLASS
  1
IMAGEDEF_REACTOR
  2
AcDbRasterImageDefReactor
  3
ISM
 90
    32769
280
     0
281
     0
  0
CLASS
  1
IDBUFFER
  2
AcDbIdBuffer
  3
ObjectDBX Classes
 90
    32768
280
     0
281
     0
  0
CLASS
  1
SPATIAL_FILTER
  2
AcDbSpatialFilter
  3
ObjectDBX Classes
 90
    32768
280
     0
281
     0
  0
CLASS
  1
SORTENTSTABLE
  2
AcDbSortentsTable
  3
ObjectDBX Classes
 90
    32768
280
     0
281
     0
  0
CLASS
  1
LAYER_INDEX
  2
AcDbLayerIndex
  3
ObjectDBX Classes
 90
    32768
280
     0
281
     0
  0
CLASS
  1
SPATIAL_INDEX
  2
AcDbSpatialIndex
  3
ObjectDBX Classes
 90
    32768
280
     0
281
     0
  0
CLASS
  1
OBJECT_PTR
  2
CAseDLPNTableRecord
  3
ASE-LPNTableRecord
 90
    32769
280
     0
281
     0
  0
CLASS
  1
LAYOUT
  2
AcDbLayout
  3
ObjectDBX Classes
 90
        0
280
     0
281
     0
  0
CLASS
  1
PLOTSETTINGS
  2
AcDbPlotSettings
  3
ObjectDBX Classes
 90
    32768
280
     0
281
     0
  0
CLASS
  1
ACDBDICTIONARYWDFLT
  2
AcDbDictionaryWithDefault
  3
ObjectDBX Classes
 90
        0
280
     0
281
     0
  0
CLASS
  1
ACDBPLACEHOLDER
  2
AcDbPlaceHolder
  3
ObjectDBX Classes
 90
        0
280
     0
281
     0
  0
ENDSEC
  0
SECTION
  2
TABLES
  0
TABLE
  2
VPORT
  5
7
330
0
100
AcDbSymbolTable
 70
     4
  0
VPORT
  5
4F7
330
7
100
AcDbSymbolTableRecord
100
AcDbViewportTableRecord
  2
*Active
 70
     0
 10
0.0
 20
0.0
 11
1.0
 21
1.0
 12
-72.74069975712004
 22
124.5374849561468
 13
0.0
 23
0.0
 14
1.0
 24
1.0
 15
0.0
 25
0.0
 16
0.0
 26
0.0
 36
1.0
 17
0.0
 27
0.0
 37
0.0
 40
334.8033834998529
 41
1.356617647058823
 42
50.0
 43
0.0
 44
0.0
 50
0.0
 51
0.0
 71
     0
 72
   100
 73
     1
 74
     1
 75
     0
 76
     0
 77
     0
 78
     0
281
     0
 65
     0
110
0.0
120
0.0
130
0.0
111
1.0
121
0.0
131
0.0
112
0.0
122
1.0
132
0.0
 79
     0
146
0.0
  0
ENDTAB
  0
TABLE
  2
LTYPE
  5
4
330
0
100
AcDbSymbolTable
 70
     2
  0
LTYPE
  5
11
330
4
100
AcDbSymbolTableRecord
100
AcDbLinetypeTableRecord
  2
ByBlock
 70
     0
  3

 72
    65
 73
     0
 40
0.0
  0
LTYPE
  5
12
330
4
100
AcDbSymbolTableRecord
100
AcDbLinetypeTableRecord
  2
ByLayer
 70
     0
  3

 72
    65
 73
     0
 40
0.0
  0
LTYPE
  5
13
330
4
100
AcDbSymbolTableRecord
100
AcDbLinetypeTableRecord
  2
Continuous
 70
     0
  3
Solid line
 72
    65
 73
     0
 40
0.0
  0
LTYPE
  5
4F6
330
4
100
AcDbSymbolTableRecord
100
AcDbLinetypeTableRecord
  2
CENTER
 70
     0
  3
Center ____ _ ____ _ ____ _ ____ _ ____ _ ____
 72
    65
 73
     4
 40
2.0
 49
1.25
 74
     0
 49
-0.25
 74
     0
 49
0.25
 74
     0
 49
-0.25
 74
     0
  0
ENDTAB
  0
TABLE
  2
LAYER
  5
2
330
0
100
AcDbSymbolTable
 70
     2
  0
LAYER
  5
14
330
2
100
AcDbSymbolTableRecord
100
AcDbLayerTableRecord
  2
0
 70
     0
 62
     7
  6
Continuous
370
    -3
390
1D
  0
LAYER
  5
23
330
2
100
AcDbSymbolTableRecord
100
AcDbLayerTableRecord
  2
CURVE
 70
     0
 62
     3
  6
Continuous
370
    -3
390
1F
  0
ENDTAB
  0
TABLE
  2
STYLE
  5
3
330
0
100
AcDbSymbolTable
 70
     2
  0
STYLE
  5
17
330
3
100
AcDbSymbolTableRecord
100
AcDbTextStyleTableRecord
  2
Standard
 70
     0
 40
0.0
 41
1.0
 50
0.0
 71
     0
 42
0.0
  3
txt
  4

  0
STYLE
  5
4F5
330
3
100
AcDbSymbolTableRecord
100
AcDbTextStyleTableRecord
  2

 70
     1
 40
0.0
 41
1.0
 50
0.0
 71
     0
 42
0.2
  3
ltypeshp.shx
  4

  0
ENDTAB
  0
TABLE
  2
VIEW
  5
5
330
0
100
AcDbSymbolTable
 70
     0
  0
ENDTAB
  0
TABLE
  2
UCS
  5
6
330
0
100
AcDbSymbolTable
 70
     0
  0
ENDTAB
  0
TABLE
  2
APPID
  5
8
330
0
100
AcDbSymbolTable
 70
     2
  0
APPID
  5
16
330
8
100
AcDbSymbolTableRecord
100
AcDbRegAppTableRecord
  2
ACAD
 70
     0
  0
APPID
  5
4DF
330
8
100
AcDbSymbolTableRecord
100
AcDbRegAppTableRecord
  2
DCO15
 70
     0
  0
ENDTAB
  0
TABLE
  2
DIMSTYLE
  5
9
330
0
100
AcDbSymbolTable
 70
     1
100
AcDbDimStyleTable
 71
     0
  0
DIMSTYLE
105
18
330
9
100
AcDbSymbolTableRecord
100
AcDbDimStyleTableRecord
  2
Standard
 70
     0
289
     0
340
17
  0
ENDTAB
  0
TABLE
  2
BLOCK_RECORD
  5
1
330
0
100
AcDbSymbolTable
 70
     0
  0
BLOCK_RECORD
  5
A
330
1
100
AcDbSymbolTableRecord
100
AcDbBlockTableRecord
  2
*MODEL_SPACE
340
20
  0
BLOCK_RECORD
  5
B
330
1
100
AcDbSymbolTableRecord
100
AcDbBlockTableRecord
  2
*PAPER_SPACE
340
21
  0
ENDTAB
  0
ENDSEC
  0
SECTION
  2
BLOCKS
  0
BLOCK
  5
D
330
A
100
AcDbEntity
  8
0
370
    18
100
AcDbBlockBegin
  2
*MODEL_SPACE
 70
     0
 71
     1
 10
0.0
 20
0.0
 30
0.0
  3
*MODEL_SPACE
  1

  0
ENDBLK
  5
E
330
A
100
AcDbEntity
  8
0
370
    18
100
AcDbBlockEnd
  0
BLOCK
  5
F
330
B
100
AcDbEntity
 67
     1
  8
0
370
    18
100
AcDbBlockBegin
  2
*PAPER_SPACE
 70
     0
 71
     1
 10
0.0
 20
0.0
 30
0.0
  3
*PAPER_SPACE
  1

  0
ENDBLK
  5
10
330
B
100
AcDbEntity
 67
     1
  8
0
370
    18
100
AcDbBlockEnd
  0
ENDSEC
  0
SECTION
  2
ENTITIES
  0
LINE
  5
24
330
A
100
AcDbEntity
  8
CURVE
  6
CENTER
 62
     6
100
AcDbLine
 10
0.0000011809398757
 20
124.29647468033
 30
0.0
 11
-21.410113819054
 21
273.23597768033
 31
0.0
  0
LINE
  5
2A
330
A
100
AcDbEntity
  8
CURVE
 62
   255
100
AcDbLine
 10
-32.90702081906
 20
208.30361668033
 30
0.0
 11
-33.00906681906
 21
207.36589868033
 31
0.0
  0
ARC
  5
2B
330
A
100
AcDbEntity
  8
CURVE
 62
   255
100
AcDbCircle
 10
34.09471926509184
 20
200.1289450440613
 30
0.0
 40
67.49290040264319
100
AcDbArc
 50
173.8446030759825
 51
179.5573364788157
  0
LINE
  5
2C
330
A
100
AcDbEntity
  8
CURVE
 62
   255
100
AcDbLine
 10
-33.39616681906
 20
200.65038568033
 30
0.0
 11
-33.40527981906
 21
199.47087568033
 31
0.0
  0
LINE
  5
2D
330
A
100
AcDbEntity
  8
CURVE
 62
   255
100
AcDbLine
 10
10.64280418094
 20
6.985332680330399
 30
0.0
 11
13.50761018094
 21
7.800288680330299
 31
0.0
  0
SPLINE
  5
2E
330
A
100
AcDbEntity
  8
CURVE
 62
   255
100
AcDbSpline
210
0.0
220
0.0
230
1.0
 70
     8
 71
     3
 72
     8
 73
     4
 74
     0
 42
0.0000000001
 43
0.0000000001
 40
0.0
 40
0.0
 40
0.0
 40
0.0
 40
1.0
 40
1.0
 40
1.0
 40
1.0
 10
10.63320918094
 20
6.982664680330399
 30
0.0
 10
10.84720518094
 20
6.4052536803304
 30
0.0
 10
10.96460591186922
 20
5.74762646904316
 30
0.0
 10
10.45903818094
 20
5.2980916803304
 30
0.0
  0
ARC
  5
2F
330
A
100
AcDbEntity
  8
CURVE
 62
   255
100
AcDbCircle
 10
6.705401268513774
 20
9.407333541164911
 30
0.0000000000000142
 40
5.565578023993855
100
AcDbArc
 50
293.995587056849
 51
312.4105173093939
  0
ARC
  5
30
330
A
100
AcDbEntity
  8
CURVE
 62
   255
100
AcDbCircle
 10
4.46102547203674
 20
14.44932919517867
 30
0.0
 40
11.08454014480114
100
AcDbArc
 50
282.7435245920185
 51
293.9955870568491
  0
SPLINE
  5
31
330
A
100
AcDbEntity
  8
CURVE
 62
   255
100
AcDbSpline
210
0.0
220
0.0
230
1.0
 70
     8
 71
     3
 72
     8
 73
     4
 74
     0
 42
0.0000000001
 43
0.0000000001
 40
0.0
 40
0.0
 40
0.0
 40
0.0
 40
1.0
 40
1.0
 40
1.0
 40
1.0
 10
13.50726018094
 20
7.7999786803304
 30
0.0
 10
13.66220118094
 20
7.2127316803304
 30
0.0
 10
13.88529160957803
 20
6.62510270611204
 30
0.0
 10
14.50397518094
 20
6.4609116803304
 30
0.0
  0
SPLINE
  5
32
330
A
100
AcDbEntity
  8
CURVE
 62
   255
100
AcDbSpline
210
0.0
220
0.0
230
1.0
 70
     8
 71
     3
 72
     8
 73
     4
 74
     0
 42
0.0000000001
 43
0.0000000001
 40
1.0
 40
1.0
 40
1.0
 40
1.0
 40
2.0
 40
2.0
 40
2.0
 40
2.0
 10
14.50397518094
 20
6.4609116803304
 30
0.0
 10
15.09510651427333
 20
6.30403268033044
 30
0.0
 10
15.78487165726275
 20
6.492872917980395
 30
0.0
 10
16.45553118094
 20
6.662652680330401
 30
0.0
  0
ARC
  5
33
330
A
100
AcDbEntity
  8
CURVE
 62
   255
100
AcDbCircle
 10
13.71777440748512
 20
17.47726702667536
 30
0.0
 40
11.15576961086811
100
AcDbArc
 50
284.2061672742661
 51
294.2549508418997
  0
ARC
  5
34
330
A
100
AcDbEntity
  8
CURVE
 62
   255
100
AcDbCircle
 10
9.562997770882926
 20
7.598127040510541
 30
0.0
 40
4.76894839447414
100
AcDbArc
 50
236.1433131238448
 51
264.9003947244308
  0
SPLINE
  5
35
330
A
100
AcDbEntity
  8
CURVE
 62
   255
100
AcDbSpline
210
0.0
220
0.0
230
1.0
 70
     8
 71
     3
 72
     8
 73
     4
 74
     0
 42
0.0000000001
 43
0.0000000001
 40
1.0
 40
1.0
 40
1.0
 40
1.0
 40
2.0
 40
2.0
 40
2.0
 40
2.0
 10
9.1390981809399
 20
2.8480556803304
 30
0.0
 10
10.13182184760657
 20
2.759464346997086
 30
0.0
 10
11.23086342422006
 20
3.016903942344849
 30
0.0
 10
12.26106018094
 20
3.3208946803304
 30
0.0
  0
ARC
  5
36
330
A
100
AcDbEntity
  8
CURVE
 62
   255
100
AcDbCircle
 10
3.6657411593347
 20
32.06804736705621
 30
0.0
 40
30.00463791944666
100
AcDbArc
 50
286.646519153117
 51
292.9032085210254
  0
SPLINE
  5
37
330
A
100
AcDbEntity
  8
CURVE
 62
   255
100
AcDbSpline
210
0.0
220
0.0
230
1.0
 70
     8
 71
     3
 72
     8
 73
     4
 74
     0
 42
0.0000000001
 43
0.0000000001
 40
3.0
 40
3.0
 40
3.0
 40
3.0
 40
4.0
 40
4.0
 40
4.0
 40
4.0
 10
15.34281218094
 20
4.428866680330299
 30
0.0
 10
16.22634851427333
 20
4.802145346997033
 30
0.0
 10
17.15935929232269
 20
5.238014932269861
 30
0.0
 10
17.64738718094
 20
5.9058526803304
 30
0.0
  0
SPLINE
  5
38
330
A
100
AcDbEntity
  8
CURVE
 62
   255
100
AcDbSpline
210
0.0
220
0.0
230
1.0
 70
     8
 71
     3
 72
     8
 73
     4
 74
     0
 42
0.0000000001
 43
0.0000000001
 40
4.0
 40
4.0
 40
4.0
 40
4.0
 40
5.0
 40
5.0
 40
5.0
 40
5.0
 10
17.64738718094
 20
5.9058526803304
 30
0.0
 10
17.95307818094
 20
6.324173013663767
 30
0.0
 10
18.08417918093999
 20
6.833506680330427
 30
0.0
 10
18.30053918094
 20
7.3062566803304
 30
0.0
  0
ARC
  5
39
330
A
100
AcDbEntity
  8
CURVE
 62
   255
100
AcDbCircle
 10
-5.836401414599541
 20
35.16363803126577
 30
0.0000000000003482
 40
28.54484193657287
100
AcDbArc
 50
254.5569613512085
 51
261.4702484116032
  0
LINE
  5
3A
330
A
100
AcDbEntity
  8
CURVE
 62
   255
100
AcDbLine
 10
-17.21971498835895
 20
6.372631428326203
 30
0.0000000000000071
 11
-17.32496131779502
 21
6.435457220445714
 31
0.0
  0
ARC
  5
3B
330
A
100
AcDbEntity
  8
CURVE
 62
   255
100
AcDbCircle
 10
-17.47091074063317
 20
6.161434175846188
 30
0.0000000000008953
 40
0.3104671689509223
100
AcDbArc
 50
61.95946155919827
 51
150.5448155537509
  0
ARC
  5
3C
330
A
100
AcDbEntity
  8
CURVE
 62
   255
100
AcDbCircle
 10
-17.49191964781857
 20
6.225140392614958
 30
0.0000000000014921
 40
0.2647238690958477
100
AcDbArc
 50
160.3628477819338
 51
225.4879535107574
  0
SPLINE
  5
3D
330
A
100
AcDbEntity
  8
CURVE
 62
   255
100
AcDbSpline
210
0.0
220
0.0
230
1.0
 70
     8
 71
     3
 72
     8
 73
     4
 74
     0
 42
0.0000000001
 43
0.0000000001
 40
0.0
 40
0.0
 40
0.0
 40
0.0
 40
1.0
 40
1.0
 40
1.0
 40
1.0
 10
-10.06980381906
 20
6.9341456803304
 30
0.0
 10
-10.05119215239333
 20
6.199533346997066
 30
0.0
 10
-9.928087146848843
 20
5.428609688517165
 30
0.0
 10
-9.2526538190601
 20
4.9711726803304
 30
0.0
  0
SPLINE
  5
3E
330
A
100
AcDbEntity
  8
CURVE
 62
   255
100
AcDbSpline
210
0.0
220
0.0
230
1.0
 70
     8
 71
     3
 72
     8
 73
     4
 74
     0
 42
0.0000000001
 43
0.0000000001
 40
1.0
 40
1.0
 40
1.0
 40
1.0
 40
2.0
 40
2.0
 40
2.0
 40
2.0
 10
-9.2526538190601
 20
4.9711726803304
 30
0.0
 10
-8.552307485726766
 20
4.496863346997099
 30
0.0
 10
-7.698979278583407
 20
4.283744692560949
 30
0.0
 10
-6.851261819060099
 20
4.162680680330401
 30
0.0
  0
ARC
  5
3F
330
A
100
AcDbEntity
  8
CURVE
 62
   255
100
AcDbCircle
 10
-4.728157638908925
 20
19.02913396186913
 30
0.0
 40
15.01729018604719
100
AcDbArc
 50
261.872446575377
 51
265.8517550601967
  0
SPLINE
  5
40
330
A
100
AcDbEntity
  8
CURVE
 62
   255
100
AcDbSpline
210
0.0
220
0.0
230
1.0
 70
     8
 71
     3
 72
     8
 73
     4
 74
     0
 42
0.0000000001
 43
0.0000000001
 40
0.0
 40
0.0
 40
0.0
 40
0.0
 40
1.0
 40
1.0
 40
1.0
 40
1.0
 10
-17.29573181906
 20
6.4406976803304
 30
0.0
 10
-16.32303181906
 20
6.207201680330396
 30
0.0
 10
-15.3289248581218
 20
5.950944159816507
 30
0.0
 10
-14.47090781906
 20
6.1802636803304
 30
0.0
  0
SPLINE
  5
41
330
A
100
AcDbEntity
  8
CURVE
 62
   255
100
AcDbSpline
210
0.0
220
0.0
230
1.0
 70
     8
 71
     3
 72
     8
 73
     4
 74
     0
 42
0.0000000001
 43
0.0000000001
 40
1.0
 40
1.0
 40
1.0
 40
1.0
 40
2.0
 40
2.0
 40
2.0
 40
2.0
 10
-14.47090781906
 20
6.1802636803304
 30
0.0
 10
-14.03504881906
 20
6.296754346997063
 30
0.0
 10
-13.63728019452423
 20
6.507257327708324
 30
0.0
 10
-13.52714581906
 20
6.8745686803305
 30
0.0
  0
ARC
  5
42
330
A
100
AcDbEntity
  8
CURVE
 62
   255
100
AcDbCircle
 10
-15.66186256082085
 20
7.514640634187852
 30
0.0
 40
2.228611153536846
100
AcDbArc
 50
343.3092038095821
 51
3.466402614453512
  0
ARC
  5
43
330
A
100
AcDbEntity
  8
CURVE
 62
   255
100
AcDbCircle
 10
-13.08822162914054
 20
8.098708143690942
 30
0.0000000000000071
 40
5.044928046495649
100
AcDbArc
 50
204.3438100738541
 51
231.9293836041108
  0
SPLINE
  5
44
330
A
100
AcDbEntity
  8
CURVE
 62
   255
100
AcDbSpline
210
0.0
220
0.0
230
1.0
 70
     8
 71
     3
 72
     8
 73
     4
 74
     0
 42
0.0000000001
 43
0.0000000001
 40
1.0
 40
1.0
 40
1.0
 40
1.0
 40
2.0
 40
2.0
 40
2.0
 40
2.0
 10
-16.19908681906
 20
4.127081680330399
 30
0.0
 10
-14.63921048572666
 20
2.905273680330332
 30
0.0
 10
-12.55243840128484
 20
2.54221796871975
 30
0.0
 10
-10.51625181906
 20
2.2461286803304
 30
0.0
  0
SPLINE
  5
45
330
A
100
AcDbEntity
  8
CURVE
 62
   255
100
AcDbSpline
210
0.0
220
0.0
230
1.0
 70
     8
 71
     3
 72
     8
 73
     4
 74
     0
 42
0.0000000001
 43
0.0000000001
 40
2.0
 40
2.0
 40
2.0
 40
2.0
 40
3.0
 40
3.0
 40
3.0
 40
3.0
 10
-10.51625181906
 20
2.2461286803304
 30
0.0
 10
-9.221247152393301
 20
2.057817346997053
 30
0.0
 10
-7.920530740911901
 20
2.030907454583816
 30
0.0
 10
-6.8379118190602
 20
2.4381836803304
 30
0.0
  0
ARC
  5
46
330
A
100
AcDbEntity
  8
CURVE
 62
   255
100
AcDbCircle
 10
-7.310891089986623
 20
3.776241120376379
 30
0.0
 40
1.41919241246157
100
AcDbArc
 50
289.4675865974752
 51
345.8838124990164
  0
ARC
  5
47
330
A
100
AcDbEntity
  8
CURVE
 62
   255
100
AcDbCircle
 10
-11.47638614010184
 20
4.823792354864053
 30
0.0
 40
5.714388869133956
100
AcDbArc
 50
345.8838124990164
 51
352.2295993860199
  0
LINE
  5
48
330
A
100
AcDbEntity
  8
CURVE
  6
CENTER
 62
     6
100
AcDbLine
 10
-18.67782781906
 20
256.02489368033
 30
0.0
 11
2.350568180918799
 21
-3.755578319671399
 31
0.0
  0
LINE
  5
49
330
A
100
AcDbEntity
  8
CURVE
  6
CENTER
 62
     6
100
AcDbLine
 10
0.0000011809398757
 20
252.61207168033
 30
0.0
 11
0.0000011809398757
 21
-18.17490831967
 31
0.0
  0
ARC
  5
4A
330
A
100
AcDbEntity
  8
CURVE
 62
   255
100
AcDbCircle
 10
-24.64587181906
 20
116.68903668033
 30
0.0
 40
1.399999599649599
100
AcDbArc
 50
297.269000210426
 51
117.2689814595932
  0
ARC
  5
4B
330
A
100
AcDbEntity
  8
CURVE
 62
   255
100
AcDbCircle
 10
-24.06454681906
 20
107.01413768033
 30
0.0
 40
1.400000243457765
100
AcDbArc
 50
308.188340545083
 51
128.1883658472245
  0
ARC
  5
4C
330
A
100
AcDbEntity
  8
CURVE
 62
   255
100
AcDbCircle
 10
-25.97754781906
 20
96.27228068033
 30
0.0
 40
1.487147451393212
100
AcDbArc
 50
303.5668950836985
 51
132.5790462792029
  0
LINE
  5
4D
330
A
100
AcDbEntity
  8
CURVE
 62
   255
100
AcDbLine
 10
-3.631997819060099
 20
30.05800668033
 30
0.0
 11
3.631999180939899
 21
30.05800668033
 31
0.0
  0
LINE
  5
4E
330
A
100
AcDbEntity
  8
CURVE
 62
   255
100
AcDbLine
 10
-2.3072868190601
 20
29.08676168033
 30
0.0
 11
2.3072881809399
 21
29.08676168033
 31
0.0
  0
LINE
  5
4F
330
A
100
AcDbEntity
  8
CURVE
 62
   255
100
AcDbLine
 10
-2.552315819060099
 20
52.57438368033
 30
0.0
 11
2.552317180939899
 21
52.57438368033
 31
0.0
  0
LINE
  5
50
330
A
100
AcDbEntity
  8
CURVE
 62
   255
100
AcDbLine
 10
-3.9600678190601
 20
53.54406068033
 30
0.0
 11
3.960070180939899
 21
53.54406068033
 31
0.0
  0
LINE
  5
51
330
A
100
AcDbEntity
  8
CURVE
 62
   255
100
AcDbLine
 10
-2.5047888190601
 20
75.84198468033
 30
0.0
 11
2.504791180939899
 21
75.84198468033
 31
0.0
  0
LINE
  5
52
330
A
100
AcDbEntity
  8
CURVE
 62
   255
100
AcDbLine
 10
-3.864793819060099
 20
76.71267568032999
 30
0.0
 11
3.8647951809399
 21
76.71267568032999
 31
0.0
  0
ARC
  5
53
330
A
100
AcDbEntity
  8
CURVE
 62
   255
100
AcDbCircle
 10
4.960428413075527
 20
72.46517681776691
 30
0.0
 40
2.741203830957837
100
AcDbArc
 50
327.1247350736656
 51
5.206075790750897
  0
ARC
  5
54
330
A
100
AcDbEntity
  8
CURVE
 62
   255
100
AcDbCircle
 10
3.581862566698883
 20
73.29207832150348
 30
-0.0000000000000071
 40
4.348183414235372
100
AcDbArc
 50
287.4830155082361
 51
327.8340052099966
  0
ARC
  5
55
330
A
100
AcDbEntity
  8
CURVE
 62
   255
100
AcDbCircle
 10
1.042202625348862
 20
82.56537469260834
 30
0.0
 40
13.96081688002667
100
AcDbArc
 50
273.4597105105532
 51
285.9907436819621
  0
ARC
  5
56
330
A
100
AcDbEntity
  8
CURVE
 62
   255
100
AcDbCircle
 10
0.711849099557488
 20
88.02966210312925
 30
0.0
 40
19.4350812467503
100
AcDbArc
 50
267.9009573979631
 51
273.4597105105532
  0
SPLINE
  5
57
330
A
100
AcDbEntity
  8
CURVE
 62
   255
100
AcDbSpline
210
0.0
220
0.0
230
1.0
 70
     8
 71
     3
 72
     8
 73
     4
 74
     0
 42
0.0000000001
 43
0.0000000001
 40
0.0
 40
0.0
 40
0.0
 40
0.0
 40
1.0
 40
1.0
 40
1.0
 40
1.0
 10
8.548629180939899
 20
73.67568668033
 30
0.0
 10
8.632062180939898
 20
72.58015301366333
 30
0.0
 10
8.60876599675384
 20
71.45797532854039
 30
0.0
 10
8.0514851809399
 20
70.542050680331
 30
0.0
  0
SPLINE
  5
58
330
A
100
AcDbEntity
  8
CURVE
 62
   255
100
AcDbSpline
210
0.0
220
0.0
230
1.0
 70
     8
 71
     3
 72
     8
 73
     4
 74
     0
 42
0.0000000001
 43
0.0000000001
 40
1.0
 40
1.0
 40
1.0
 40
1.0
 40
2.0
 40
2.0
 40
2.0
 40
2.0
 10
8.0514851809399
 20
70.542050680331
 30
0.0
 10
7.160319847606601
 20
69.07736668033087
 30
0.0
 10
5.546584010693342
 20
68.23850137226499
 30
0.0
 10
3.8204351809399
 20
67.94009568033001
 30
0.0
  0
ARC
  5
59
330
A
100
AcDbEntity
  8
CURVE
 62
   255
100
AcDbCircle
 10
0.8081876728013702
 20
85.36465443249324
 30
0.0
 40
17.68301113379381
100
AcDbArc
 50
267.3804341958948
 51
279.807993695273
  0
SPLINE
  5
5A
330
A
100
AcDbEntity
  8
CURVE
 62
   255
100
AcDbSpline
210
0.0
220
0.0
230
1.0
 70
     8
 71
     3
 72
     8
 73
     4
 74
     0
 42
0.0000000001
 43
0.0000000001
 40
0.0
 40
0.0
 40
0.0
 40
0.0
 40
1.0
 40
1.0
 40
1.0
 40
1.0
 10
2.5044881809399
 20
75.84196868033
 30
0.0
 10
2.3599601809399
 20
74.88157534699666
 30
0.0
 10
2.316293729527212
 20
73.87462498342087
 30
0.0
 10
3.0371641809399
 20
73.40769168033
 30
0.0
  0
SPLINE
  5
5B
330
A
100
AcDbEntity
  8
CURVE
 62
   255
100
AcDbSpline
210
0.0
220
0.0
230
1.0
 70
     8
 71
     3
 72
     8
 73
     4
 74
     0
 42
0.0000000001
 43
0.0000000001
 40
1.0
 40
1.0
 40
1.0
 40
1.0
 40
2.0
 40
2.0
 40
2.0
 40
2.0
 10
3.0371641809399
 20
73.40769168033
 30
0.0
 10
3.571928847606533
 20
73.06130568033013
 30
0.0
 10
4.211289151846802
 20
72.92043472226355
 30
0.0
 10
4.852204180939899
 20
72.84708768033
 30
0.0
  0
ARC
  5
5C
330
A
100
AcDbEntity
  8
CURVE
 62
   255
100
AcDbCircle
 10
7.264040652560183
 20
93.92199679223233
 30
0.0
 40
21.21246683534901
100
AcDbArc
 50
263.4714083881327
 51
271.2109744458172
  0
ARC
  5
5D
330
A
100
AcDbEntity
  8
CURVE
 62
   255
100
AcDbCircle
 10
5.028171908201342
 20
74.79470319374304
 30
0.0
 40
1.723353037707598
100
AcDbArc
 50
168.0041724213518
 51
181.50982412849
  0
ARC
  5
5E
330
A
100
AcDbEntity
  8
CURVE
 62
   255
100
AcDbCircle
 10
4.332584287024168
 20
74.71129978975167
 30
0.0
 40
1.027869617958606
100
AcDbArc
 50
177.8815403874646
 51
204.2598238063447
  0
SPLINE
  5
5F
330
A
100
AcDbEntity
  8
CURVE
 62
   255
100
AcDbSpline
210
0.0
220
0.0
230
1.0
 70
     8
 71
     3
 72
     8
 73
     4
 74
     0
 42
0.0000000001
 43
0.0000000001
 40
2.0
 40
2.0
 40
2.0
 40
2.0
 40
3.0
 40
3.0
 40
3.0
 40
3.0
 10
3.3954841809399
 20
74.28897368033
 30
0.0
 10
3.49813318093992
 20
74.11190701366351
 30
0.0
 10
3.723925847606583
 20
74.06797168033017
 30
0.0
 10
3.9248951809399
 20
73.98254768033
 30
0.0
  0
ARC
  5
60
330
A
100
AcDbEntity
  8
CURVE
 62
   255
100
AcDbCircle
 10
5.875307987113068
 20
80.01218729453047
 30
0.0
 40
6.337244195359664
100
AcDbArc
 50
252.0751163690981
 51
259.1073398416901
  0
ARC
  5
61
330
A
100
AcDbEntity
  8
CURVE
 62
   255
100
AcDbCircle
 10
6.437698180318967
 20
83.78998524336976
 30
0.0
 40
10.15453840646238
100
AcDbArc
 50
260.0193653928736
 51
267.0111898925005
  0
ARC
  5
62
330
A
100
AcDbEntity
  8
CURVE
 62
   255
100
AcDbCircle
 10
7.016169278295812
 20
94.86927187995679
 30
0.0
 40
21.24891631542376
100
AcDbArc
 50
267.0111898925007
 51
274.1357298509424
  0
ARC
  5
63
330
A
100
AcDbEntity
  8
CURVE
 62
   255
100
AcDbCircle
 10
8.774886180939899
 20
74.20102468032999
 30
0.0
 40
5.515195769334241
100
AcDbArc
 50
152.9089661667362
 51
170.0616276411985
  0
SPLINE
  5
64
330
A
100
AcDbEntity
  8
CURVE
 62
   255
100
AcDbSpline
210
0.0
220
0.0
230
1.0
 70
     8
 71
     3
 72
     8
 73
     4
 74
     0
 42
0.0000000001
 43
0.0000000001
 40
0.0
 40
0.0
 40
0.0
 40
0.0
 40
1.0
 40
1.0
 40
1.0
 40
1.0
 10
9.268155180939899
 20
50.16730168032999
 30
0.0
 10
9.338575847606566
 20
49.02789234699667
 30
0.0
 10
9.358327699063103
 20
47.8639380660443
 30
0.0
 10
8.826862180939899
 20
46.88382668033
 30
0.0
  0
SPLINE
  5
65
330
A
100
AcDbEntity
  8
CURVE
 62
   255
100
AcDbSpline
210
0.0
220
0.0
230
1.0
 70
     8
 71
     3
 72
     8
 73
     4
 74
     0
 42
0.0000000001
 43
0.0000000001
 40
1.0
 40
1.0
 40
1.0
 40
1.0
 40
2.0
 40
2.0
 40
2.0
 40
2.0
 10
8.826862180939899
 20
46.88382668033
 30
0.0
 10
7.882536847606566
 20
45.14233268033
 30
0.0
 10
6.016774235563754
 20
44.14050774220892
 30
0.0
 10
4.014262180939899
 20
43.79456868033
 30
0.0
  0
ARC
  5
66
330
A
100
AcDbEntity
  8
CURVE
 62
   255
100
AcDbCircle
 10
0.7272451871256842
 20
62.82188267637176
 30
0.0
 40
19.30914701952394
100
AcDbArc
 50
267.8415478631382
 51
279.8012549321468
  0
ARC
  5
67
330
A
100
AcDbEntity
  8
CURVE
 62
   255
100
AcDbCircle
 10
5.139541402940851
 20
48.85034363236123
 30
0.0
 40
3.184410765259688
100
AcDbArc
 50
322.9271798567191
 51
4.46812860065821
  0
ARC
  5
68
330
A
100
AcDbEntity
  8
CURVE
 62
   255
100
AcDbCircle
 10
3.660101194613634
 20
49.85690957483607
 30
0.0
 40
4.972391355573854
100
AcDbArc
 50
286.8558549394552
 51
323.9497835184566
  0
ARC
  5
69
330
A
100
AcDbEntity
  8
CURVE
 62
   255
100
AcDbCircle
 10
1.236309599669977
 20
58.44451444058757
 30
0.0
 40
13.89490929264401
100
AcDbArc
 50
273.5240797616935
 51
286.15300539867
  0
ARC
  5
6A
330
A
100
AcDbEntity
  8
CURVE
 62
   255
100
AcDbCircle
 10
0.5749853512773944
 20
69.18300422517408
 30
0.0
 40
24.65374345881559
100
AcDbArc
 50
268.6636044295819
 51
273.5240797616936
  0
SPLINE
  5
6B
330
A
100
AcDbEntity
  8
CURVE
 62
   255
100
AcDbSpline
210
0.0
220
0.0
230
1.0
 70
     8
 71
     3
 72
     8
 73
     4
 74
     0
 42
0.0000000001
 43
0.0000000001
 40
0.0
 40
0.0
 40
0.0
 40
0.0
 40
1.0
 40
1.0
 40
1.0
 40
1.0
 10
2.5518671809399
 20
52.57457968033
 30
0.0
 10
2.416807514273236
 20
51.53714801366333
 30
0.0
 10
2.30957955001925
 20
50.45543773114768
 30
0.0
 10
3.0648391809399
 20
49.92417568033
 30
0.0
  0
SPLINE
  5
6C
330
A
100
AcDbEntity
  8
CURVE
 62
   255
100
AcDbSpline
210
0.0
220
0.0
230
1.0
 70
     8
 71
     3
 72
     8
 73
     4
 74
     0
 42
0.0000000001
 43
0.0000000001
 40
1.0
 40
1.0
 40
1.0
 40
1.0
 40
2.0
 40
2.0
 40
2.0
 40
2.0
 10
3.0648391809399
 20
49.92417568033
 30
0.0
 10
3.6605251809399
 20
49.50516034699673
 30
0.0
 10
4.394877771983842
 20
49.34317465384548
 30
0.0
 10
5.128751180939899
 20
49.25171068033
 30
0.0
  0
ARC
  5
6D
330
A
100
AcDbEntity
  8
CURVE
 62
   255
100
AcDbCircle
 10
7.731350642394174
 20
70.13401510592142
 30
0.0
 40
21.04386281270235
100
AcDbArc
 50
262.8957556021082
 51
271.6527334981805
  0
ARC
  5
6E
330
A
100
AcDbEntity
  8
CURVE
 62
   255
100
AcDbCircle
 10
5.22215476977453
 20
53.28766879882016
 30
0.0
 40
2.977841156950887
100
AcDbArc
 50
243.7752234644512
 51
252.8860246639057
  0
ARC
  5
6F
330
A
100
AcDbEntity
  8
CURVE
 62
   255
100
AcDbCircle
 10
6.076816874118829
 20
55.75469701166234
 30
0.0
 40
5.587875237350608
100
AcDbArc
 50
251.9545696411412
 51
268.0332039977525
  0
LINE
  5
70
330
A
100
AcDbEntity
  8
CURVE
 62
   255
100
AcDbLine
 10
5.8850391809399
 20
50.17011368032999
 30
0.0
 11
7.906672180939899
 21
50.10068968032999
 31
0.0
  0
ARC
  5
71
330
A
100
AcDbEntity
  8
CURVE
 62
   255
100
AcDbCircle
 10
7.918968740071761
 20
63.79654976462234
 30
0.0
 40
13.69586560440335
100
AcDbArc
 50
269.9485581228822
 51
275.6534043584648
  0
ARC
  5
72
330
A
100
AcDbEntity
  8
CURVE
 62
   255
100
AcDbCircle
 10
4.588427525591697
 20
51.36854133479895
 30
0.0
 40
1.158468713600333
100
AcDbArc
 50
178.2146485842841
 51
194.8936722322095
  0
LINE
  5
73
330
A
100
AcDbEntity
  8
CURVE
 62
   255
100
AcDbLine
 10
3.4688781809399
 20
51.07078468033
 30
0.0
 11
3.4787551809398
 21
51.03364768032999
 31
0.0
  0
ARC
  5
74
330
A
100
AcDbEntity
  8
CURVE
 62
   255
100
AcDbCircle
 10
4.135331403584061
 20
51.27864956455106
 30
0.0
 40
0.7007979519167975
100
AcDbArc
 50
200.463018853491
 51
250.9214048424899
  0
ARC
  5
75
330
A
100
AcDbEntity
  8
CURVE
 62
   255
100
AcDbCircle
 10
8.2250551809399
 20
51.35314468033
 30
0.0
 40
4.794810733416014
100
AcDbArc
 50
152.8105065074232
 51
179.3847184369058
  0
SPLINE
  5
76
330
A
100
AcDbEntity
  8
CURVE
 62
   255
100
AcDbSpline
210
0.0
220
0.0
230
1.0
 70
     8
 71
     3
 72
     8
 73
     4
 74
     0
 42
0.0000000001
 43
0.0000000001
 40
0.0
 40
0.0
 40
0.0
 40
0.0
 40
1.0
 40
1.0
 40
1.0
 40
1.0
 10
9.0225781809399
 20
26.67942168033
 30
0.0
 10
9.1094641809399
 20
25.51604101366334
 30
0.0
 10
9.100903813957305
 20
24.32661384680633
 30
0.0
 10
8.545807180939899
 20
23.32963068033
 30
0.0
  0
SPLINE
  5
77
330
A
100
AcDbEntity
  8
CURVE
 62
   255
100
AcDbSpline
210
0.0
220
0.0
230
1.0
 70
     8
 71
     3
 72
     8
 73
     4
 74
     0
 42
0.0000000001
 43
0.0000000001
 40
1.0
 40
1.0
 40
1.0
 40
1.0
 40
2.0
 40
2.0
 40
2.0
 40
2.0
 10
8.545807180939899
 20
23.32963068033
 30
0.0
 10
7.594502847606566
 20
21.62103734699666
 30
0.0
 10
5.746187217262269
 20
20.65028574712862
 30
0.0
 10
3.7696821809399
 20
20.30675168033
 30
0.0
  0
ARC
  5
78
330
A
100
AcDbEntity
  8
CURVE
 62
   255
100
AcDbCircle
 10
0.5126285908388054
 20
39.04603679518999
 30
0.0
 40
19.02023145770849
100
AcDbArc
 50
268.4555948152874
 51
279.86001223975
  0
ARC
  5
79
330
A
100
AcDbEntity
  8
CURVE
 62
   255
100
AcDbCircle
 10
4.92936508091736
 20
25.35651837504975
 30
0.0000000000000071
 40
3.150592562647883
100
AcDbArc
 50
324.7263836917766
 51
4.625783037540492
  0
ARC
  5
7A
330
A
100
AcDbEntity
  8
CURVE
 62
   255
100
AcDbCircle
 10
3.37821833223085
 20
26.41337408317105
 30
0.0
 40
5.027377129592312
100
AcDbArc
 50
286.403419907386
 51
325.1017741561249
  0
ARC
  5
7B
330
A
100
AcDbEntity
  8
CURVE
 62
   255
100
AcDbCircle
 10
0.9911213336283566
 20
35.03035262944273
 30
0.0000000000000284
 40
13.96846996073211
100
AcDbArc
 50
273.6002891788035
 51
285.8148497469457
  0
ARC
  5
7C
330
A
100
AcDbEntity
  8
CURVE
 62
   255
100
AcDbCircle
 10
0.2755209362302619
 20
46.40357924475518
 30
0.0
 40
25.36418703215889
100
AcDbArc
 50
269.3776094777149
 51
273.6002891788034
  0
SPLINE
  5
7D
330
A
100
AcDbEntity
  8
CURVE
 62
   255
100
AcDbSpline
210
0.0
220
0.0
230
1.0
 70
     8
 71
     3
 72
     8
 73
     4
 74
     0
 42
0.0000000001
 43
0.0000000001
 40
0.0
 40
0.0
 40
0.0
 40
0.0
 40
1.0
 40
1.0
 40
1.0
 40
1.0
 10
2.3072881809399
 20
29.08676168033
 30
0.0
 10
2.177018514273236
 20
28.28135901366334
 30
0.0
 10
2.054080759034673
 20
27.4477191701421
 30
0.0
 10
2.4725921809399
 20
26.79309068033
 30
0.0
  0
SPLINE
  5
7E
330
A
100
AcDbEntity
  8
CURVE
 62
   255
100
AcDbSpline
210
0.0
220
0.0
230
1.0
 70
     8
 71
     3
 72
     8
 73
     4
 74
     0
 42
0.0000000001
 43
0.0000000001
 40
1.0
 40
1.0
 40
1.0
 40
1.0
 40
2.0
 40
2.0
 40
2.0
 40
2.0
 10
2.4725921809399
 20
26.79309068033
 30
0.0
 10
2.853414180939866
 20
26.19741534699667
 30
0.0
 10
3.609479652954802
 20
26.02065077789323
 30
0.0
 10
4.342049180939899
 20
25.86263868033
 30
0.0
  0
SPLINE
  5
7F
330
A
100
AcDbEntity
  8
CURVE
 62
   255
100
AcDbSpline
210
0.0
220
0.0
230
1.0
 70
     8
 71
     3
 72
     8
 73
     4
 74
     0
 42
0.0000000001
 43
0.0000000001
 40
2.0
 40
2.0
 40
2.0
 40
2.0
 40
3.0
 40
3.0
 40
3.0
 40
3.0
 10
4.342049180939899
 20
25.86263868033
 30
0.0
 10
5.568656847606566
 20
25.59806468032999
 30
0.0
 10
6.83369318093991
 20
25.60958368033
 30
0.0
 10
8.093710180939899
 20
25.61108768033
 30
0.0
  0
ARC
  5
80
330
A
100
AcDbEntity
  8
CURVE
 62
   255
100
AcDbCircle
 10
6.214219362844026
 20
35.3674161353693
 30
0.0
 40
8.691549195420771
100
AcDbArc
 50
255.7683648912755
 51
260.5044995242252
  0
ARC
  5
81
330
A
100
AcDbEntity
  8
CURVE
 62
   255
100
AcDbCircle
 10
6.912258671154681
 20
40.15518260906378
 30
0.0
 40
13.52925174470353
100
AcDbArc
 50
260.9337730015403
 51
267.7695823269145
  0
ARC
  5
82
330
A
100
AcDbEntity
  8
CURVE
 62
   255
100
AcDbCircle
 10
7.313767168110773
 20
50.46406823145195
 30
0.0
 40
23.84595334204604
100
AcDbArc
 50
267.7695823269145
 51
274.1093593769664
  0
ARC
  5
83
330
A
100
AcDbEntity
  8
CURVE
 62
   255
100
AcDbCircle
 10
5.571273662094824
 20
27.9117609820466
 30
-0.0000000000000284
 40
2.374484392071067
100
AcDbArc
 50
170.7097082667596
 51
182.798074216101
  0
ARC
  5
84
330
A
100
AcDbEntity
  8
CURVE
 62
   255
100
AcDbCircle
 10
4.54257371438905
 20
27.8614838195683
 30
0.0
 40
1.344556542424924
100
AcDbArc
 50
182.7980742161011
 51
201.2311502449641
  0
LINE
  5
85
330
A
100
AcDbEntity
  8
CURVE
 62
   255
100
AcDbLine
 10
3.2892761809399
 20
27.37457768033
 30
0.0
 11
3.3199931809399
 21
27.31723568033
 31
0.0
  0
ARC
  5
86
330
A
100
AcDbEntity
  8
CURVE
 62
   255
100
AcDbCircle
 10
3.828510737177523
 20
27.73601942920087
 30
0.0
 40
0.6587647154761217
100
AcDbArc
 50
219.4727123810823
 51
245.010118480136
  0
ARC
  5
87
330
A
100
AcDbEntity
  8
CURVE
 62
   255
100
AcDbCircle
 10
5.042375157702937
 20
30.3403607693928
 30
0.0
 40
3.532100868391438
100
AcDbArc
 50
245.0101184801359
 51
254.1462368520691
  0
ARC
  5
88
330
A
100
AcDbEntity
  8
CURVE
 62
   255
100
AcDbCircle
 10
13.80081518094
 20
26.79953068033
 30
0.0
 40
10.6781311419385
100
AcDbArc
 50
162.2325620043364
 51
171.948790564456
  0
SPLINE
  5
89
330
A
100
AcDbEntity
  8
CURVE
 62
   255
100
AcDbSpline
210
0.0
220
0.0
230
1.0
 70
     8
 71
     3
 72
     8
 73
     4
 74
     0
 42
0.0000000001
 43
0.0000000001
 40
0.0
 40
0.0
 40
0.0
 40
0.0
 40
1.0
 40
1.0
 40
1.0
 40
1.0
 10
-9.022575819060099
 20
26.67942168033
 30
0.0
 10
-9.109461819060099
 20
25.51604101366334
 30
0.0
 10
-9.100901006649005
 20
24.32661409481029
 30
0.0
 10
-8.5458048190601
 20
23.32963068033
 30
0.0
  0
SPLINE
  5
8A
330
A
100
AcDbEntity
  8
CURVE
 62
   255
100
AcDbSpline
210
0.0
220
0.0
230
1.0
 70
     8
 71
     3
 72
     8
 73
     4
 74
     0
 42
0.0000000001
 43
0.0000000001
 40
1.0
 40
1.0
 40
1.0
 40
1.0
 40
2.0
 40
2.0
 40
2.0
 40
2.0
 10
-8.5458048190601
 20
23.32963068033
 30
0.0
 10
-7.594501485726766
 20
21.62103734699666
 30
0.0
 10
-5.74618585538247
 20
20.65028574712862
 30
0.0
 10
-3.769680819060099
 20
20.30675168033
 30
0.0
  0
ARC
  5
8B
330
A
100
AcDbEntity
  8
CURVE
 62
   255
100
AcDbCircle
 10
-0.5126272289590263
 20
39.04603679518979
 30
0.0
 40
19.02023145770828
100
AcDbArc
 50
260.1399877602499
 51
271.5444051847125
  0
ARC
  5
8C
330
A
100
AcDbEntity
  8
CURVE
 62
   255
100
AcDbCircle
 10
-4.929358169864079
 20
25.35651962160407
 30
-0.0000000000000071
 40
3.15059699647225
100
AcDbArc
 50
175.3742462300213
 51
215.2735870406612
  0
ARC
  5
8D
330
A
100
AcDbEntity
  8
CURVE
 62
   255
100
AcDbCircle
 10
-3.378218025295465
 20
26.41337049956732
 30
0.0
 40
5.027373393936623
100
AcDbArc
 50
214.8982057458327
 51
253.5965800926144
  0
ARC
  5
8E
330
A
100
AcDbEntity
  8
CURVE
 62
   255
100
AcDbCircle
 10
-0.9911211771112746
 20
35.03034558338554
 30
-0.0000000000000284
 40
13.96846285288953
100
AcDbArc
 50
254.1851471335455
 51
266.3997139407053
  0
ARC
  5
8F
330
A
100
AcDbEntity
  8
CURVE
 62
   255
100
AcDbCircle
 10
-0.2755183490777879
 20
46.40362070991238
 30
0.0
 40
25.36422849242266
100
AcDbArc
 50
266.3997139407054
 51
270.6223889959848
  0
SPLINE
  5
90
330
A
100
AcDbEntity
  8
CURVE
 62
   255
100
AcDbSpline
210
0.0
220
0.0
230
1.0
 70
     8
 71
     3
 72
     8
 73
     4
 74
     0
 42
0.0000000001
 43
0.0000000001
 40
0.0
 40
0.0
 40
0.0
 40
0.0
 40
1.0
 40
1.0
 40
1.0
 40
1.0
 10
-9.268153819060099
 20
50.16730168032999
 30
0.0
 10
-9.338574485726763
 20
49.02789234699667
 30
0.0
 10
-9.358326337183303
 20
47.8639380660443
 30
0.0
 10
-8.826860819060099
 20
46.88382668033
 30
0.0
  0
SPLINE
  5
91
330
A
100
AcDbEntity
  8
CURVE
 62
   255
100
AcDbSpline
210
0.0
220
0.0
230
1.0
 70
     8
 71
     3
 72
     8
 73
     4
 74
     0
 42
0.0000000001
 43
0.0000000001
 40
1.0
 40
1.0
 40
1.0
 40
1.0
 40
2.0
 40
2.0
 40
2.0
 40
2.0
 10
-8.826860819060099
 20
46.88382668033
 30
0.0
 10
-7.882535485726766
 20
45.14233268033
 30
0.0
 10
-6.016772873683953
 20
44.14050774220893
 30
0.0
 10
-4.014260819060099
 20
43.79456868033
 30
0.0
  0
ARC
  5
92
330
A
100
AcDbEntity
  8
CURVE
 62
   255
100
AcDbCircle
 10
-0.7272438252459028
 20
62.82188267637158
 30
0.0
 40
19.30914701952375
100
AcDbArc
 50
260.1987450678532
 51
272.1584521368618
  0
ARC
  5
93
330
A
100
AcDbEntity
  8
CURVE
 62
   255
100
AcDbCircle
 10
-5.139540041061078
 20
48.8503436323612
 30
0.0
 40
3.184410765259654
100
AcDbArc
 50
175.5318713993413
 51
217.0728201432809
  0
ARC
  5
94
330
A
100
AcDbEntity
  8
CURVE
 62
   255
100
AcDbCircle
 10
-3.660099832733775
 20
49.85690957483621
 30
0.0
 40
4.972391355573987
100
AcDbArc
 50
216.0502164815441
 51
253.1441450605445
  0
ARC
  5
95
330
A
100
AcDbEntity
  8
CURVE
 62
   255
100
AcDbCircle
 10
-1.236308237790286
 20
58.44451444058719
 30
0.0
 40
13.89490929264363
100
AcDbArc
 50
253.84699460133
 51
266.4759202383064
  0
ARC
  5
96
330
A
100
AcDbEntity
  8
CURVE
 62
   255
100
AcDbCircle
 10
-0.5749839893976635
 20
69.18300422517489
 30
0.0
 40
24.65374345881641
100
AcDbArc
 50
266.4759202383065
 51
271.3363955704181
  0
LINE
  5
97
330
A
100
AcDbEntity
  8
CURVE
 62
   255
100
AcDbLine
 10
-4.810547819060199
 20
125.96230068033
 30
0.0
 11
-1.055549819060199
 21
125.97606968033
 31
0.0
  0
LINE
  5
98
330
A
100
AcDbEntity
  8
CURVE
 62
   255
100
AcDbLine
 10
-3.346019819060099
 20
126.79357268033
 30
0.0
 11
-1.0723138190601
 21
126.80190968033
 31
0.0
  0
LINE
  5
99
330
A
100
AcDbEntity
  8
CURVE
 62
   255
100
AcDbLine
 10
-5.364695819060099
 20
147.95425168033
 30
0.0
 11
-6.1371838190602
 21
146.64059768033
 31
0.0
  0
ARC
  5
9A
330
A
100
AcDbEntity
  8
CURVE
 62
   255
100
AcDbCircle
 10
-5.7249478190602
 20
150.04411468033
 30
0.0
 40
4.602402288416714
100
AcDbArc
 50
111.136711427619
 51
197.3696180842018
  0
ARC
  5
9B
330
A
100
AcDbEntity
  8
CURVE
 62
   255
100
AcDbCircle
 10
-1.679503819060099
 20
139.52367568033
 30
0.0
 40
15.87383333200625
100
AcDbArc
 50
93.81604386916718
 51
111.058994521977
  0
ARC
  5
9C
330
A
100
AcDbEntity
  8
CURVE
 62
   255
100
AcDbCircle
 10
-6.1463048190601
 20
148.31376768033
 30
0.0
 40
0.860328067157981
100
AcDbArc
 50
335.2990303213731
 51
78.20174182295469
  0
ARC
  5
9D
330
A
100
AcDbEntity
  8
CURVE
 62
   255
100
AcDbCircle
 10
-7.1944428190601
 20
141.64884368033
 30
0.0
 40
7.60543747224743
100
AcDbArc
 50
80.47568072428111
 51
112.6024300458968
  0
ARC
  5
9E
330
A
100
AcDbEntity
  8
CURVE
 62
   255
100
AcDbCircle
 10
-6.1463048190601
 20
148.31376768033
 30
0.0
 40
0.860328067157981
100
AcDbArc
 50
335.2990303213731
 51
78.20174182295469
  0
ARC
  5
9F
330
A
100
AcDbEntity
  8
CURVE
 62
   255
100
AcDbCircle
 10
-6.1463048190601
 20
148.31376768033
 30
0.0
 40
1.74232795603982
100
AcDbArc
 50
335.2990402372715
 51
78.20174705188766
  0
ARC
  5
A0
330
A
100
AcDbEntity
  8
CURVE
 62
   255
100
AcDbCircle
 10
-7.1944428190601
 20
141.64884368033
 30
0.0
 40
8.487437569937441
100
AcDbArc
 50
80.47567540821686
 51
105.8435181079779
  0
ARC
  5
A1
330
A
100
AcDbEntity
  8
CURVE
 62
   255
100
AcDbCircle
 10
-1.679503819060099
 20
139.52367568033
 30
0.0
 40
14.99183370762838
100
AcDbArc
 50
93.77144505426167
 51
111.0589951516219
  0
ARC
  5
A2
330
A
100
AcDbEntity
  8
CURVE
 62
   255
100
AcDbCircle
 10
-5.7249478190602
 20
150.04411468033
 30
0.0
 40
3.720402794734117
100
AcDbArc
 50
111.1367143274139
 51
183.2376448689667
  0
ARC
  5
A3
330
A
100
AcDbEntity
  8
CURVE
 62
   255
100
AcDbCircle
 10
-0.9228938190601599
 20
86.58001568033
 30
0.0
 40
45.90262567433308
100
AcDbArc
 50
258.1740145598983
 51
262.0925555843539
  0
ARC
  5
A4
330
A
100
AcDbEntity
  8
CURVE
 62
   255
100
AcDbCircle
 10
1.7027591809399
 20
109.86860968033
 30
0.0
 40
45.9026246838414
100
AcDbArc
 50
258.1740145598987
 51
262.0925554126347
  0
ARC
  5
A5
330
A
100
AcDbEntity
  8
CURVE
 62
   255
100
AcDbCircle
 10
8.828183180939799
 20
30.57353668033
 30
0.0
 40
10.86242354128232
100
AcDbArc
 50
306.3623784325569
 51
342.6463359651042
  0
LINE
  5
AA
330
A
100
AcDbEntity
  8
CURVE
 62
   255
100
AcDbLine
 10
11.26859518094
 20
18.37887668033
 30
0.0
 11
14.17076718094
 21
19.10664268033
 31
0.0
  0
LINE
  5
AB
330
A
100
AcDbEntity
  8
CURVE
 62
   255
100
AcDbLine
 10
7.4802461809398
 20
41.16768068033
 30
0.0
 11
9.4524401809399
 21
41.65925268032999
 31
0.0
  0
LINE
  5
AC
330
A
100
AcDbEntity
  8
CURVE
 62
   255
100
AcDbLine
 10
4.877785180939899
 20
64.35106168033001
 30
0.0
 11
6.8913681809399
 21
64.62795968032999
 31
0.0
  0
ARC
  5
AD
330
A
100
AcDbEntity
  8
CURVE
 62
   255
100
AcDbCircle
 10
-18.71853981906
 20
17.26528368033
 30
0.0
 40
0.3592021037033581
100
AcDbArc
 50
44.86138154001372
 51
215.6595205958127
  0
ARC
  5
AE
330
A
100
AcDbEntity
  8
CURVE
 62
   255
100
AcDbCircle
 10
-7.6001798190601
 20
41.65603268033
 30
0.0
 40
23.478739046396
100
AcDbArc
 50
253.1879502564156
 51
261.7818372295634
  0
ARC
  5
AF
330
A
100
AcDbEntity
  8
CURVE
 62
   255
100
AcDbCircle
 10
20.04135618094
 20
29.51478768033
 30
0.0
 40
15.00000019240578
100
AcDbArc
 50
307.6833141796389
 51
345.4436722949601
  0
LINE
  5
B0
330
A
100
AcDbEntity
  8
CURVE
 62
   255
100
AcDbLine
 10
26.73174118094
 20
15.72887868033
 30
0.0
 11
29.21080518094
 21
17.64376368033
 31
0.0
  0
LINE
  5
B1
330
A
100
AcDbEntity
  8
CURVE
 62
   255
100
AcDbLine
 10
37.00313618094
 20
35.15404468033
 30
0.0
 11
34.55987118094
 21
25.74481268033
 31
0.0
  0
ARC
  5
B2
330
A
100
AcDbEntity
  8
CURVE
 62
   255
100
AcDbCircle
 10
-0.71285281906012
 20
59.40496368033
 30
0.0
 40
52.54928421902029
100
AcDbArc
 50
252.9388895174558
 51
288.0883335591795
  0
ARC
  5
B3
330
A
100
AcDbEntity
  8
CURVE
 62
   255
100
AcDbCircle
 10
-0.28479781906015
 20
65.52680468033
 30
0.0
 40
55.0672393999714
100
AcDbArc
 50
251.8677986584418
 51
289.0907889145795
  0
ARC
  5
B4
330
A
100
AcDbEntity
  8
CURVE
 62
   255
100
AcDbCircle
 10
-0.28952381906015
 20
65.55249768033
 30
0.0
 40
47.39295492577936
100
AcDbArc
 50
251.8817614539516
 51
289.0863855701826
  0
ARC
  5
B5
330
A
100
AcDbEntity
  8
CURVE
 62
   255
100
AcDbCircle
 10
-1.130840819060199
 20
68.28365068033
 30
0.0
 40
35.1270821319477
100
AcDbArc
 50
252.1621587278797
 51
291.9290528078827
  0
ARC
  5
B6
330
A
100
AcDbEntity
  8
CURVE
 62
   255
100
AcDbCircle
 10
-0.52302281906009
 20
72.33478268033
 30
0.0
 40
31.36061871407618
100
AcDbArc
 50
253.2382739153274
 51
288.5312414528528
  0
ARC
  5
B7
330
A
100
AcDbEntity
  8
CURVE
 62
   255
100
AcDbCircle
 10
-1.231360819060099
 20
100.77546268033
 30
0.0
 40
43.54075351235055
100
AcDbArc
 50
260.2696441817673
 51
282.2679735505154
  0
ARC
  5
B8
330
A
100
AcDbEntity
  8
CURVE
 62
   255
100
AcDbCircle
 10
-1.053427819060199
 20
102.73298668033
 30
0.0
 40
37.69421529685767
100
AcDbArc
 50
260.4837882309913
 51
281.4547565190788
  0
ARC
  5
B9
330
A
100
AcDbEntity
  8
CURVE
 62
   255
100
AcDbCircle
 10
-0.5372888190601099
 20
102.70215868033
 30
0.0
 40
34.48593751941071
100
AcDbArc
 50
75.64794287952868
 51
107.4998165698848
  0
ARC
  5
BA
330
A
100
AcDbEntity
  8
CURVE
 62
   255
100
AcDbCircle
 10
-0.87065481906018
 20
103.89699268033
 30
0.0
 40
40.78058386066915
100
AcDbArc
 50
74.69168706561844
 51
107.5638283022952
  0
ARC
  5
BB
330
A
100
AcDbEntity
  8
CURVE
 62
   255
100
AcDbCircle
 10
0.5605391809398301
 20
122.02899868033
 30
0.0
 40
43.71048603278071
100
AcDbArc
 50
74.8974946422406
 51
115.8075869766089
  0
ARC
  5
BC
330
A
100
AcDbEntity
  8
CURVE
 62
   255
100
AcDbCircle
 10
0.5605391809398301
 20
122.02899868033
 30
0.0
 40
36.21048616892071
100
AcDbArc
 50
74.8974956177583
 51
115.8075878347356
  0
ARC
  5
BD
330
A
100
AcDbEntity
  8
CURVE
 62
   255
100
AcDbCircle
 10
23.62208118094
 20
96.56289868032999
 30
0.0
 40
1.356681256743916
100
AcDbArc
 50
84.51307333767388
 51
252.9318667080678
  0
ARC
  5
BE
330
A
100
AcDbEntity
  8
CURVE
 62
   255
100
AcDbCircle
 10
16.89332218094
 20
78.63780368032999
 30
0.0
 40
17.79246734033581
100
AcDbArc
 50
18.29042695096792
 51
69.15751409583049
  0
ARC
  5
BF
330
A
100
AcDbEntity
  8
CURVE
 62
   255
100
AcDbCircle
 10
17.56953918094
 20
82.86580468032999
 30
0.0
 40
16.26805030960789
100
AcDbArc
 50
8.174093588073203
 51
67.6647673698247
  0
ARC
  5
C0
330
A
100
AcDbEntity
  8
CURVE
 62
   255
100
AcDbCircle
 10
23.71525718094
 20
106.77660368033
 30
0.0
 40
1.263157481283907
100
AcDbArc
 50
53.54602241367202
 51
250.1005455764639
  0
ARC
  5
C1
330
A
100
AcDbEntity
  8
CURVE
 62
   255
100
AcDbCircle
 10
8.7538561809399
 20
83.94321968033001
 30
0.0
 40
26.07100503504176
100
AcDbArc
 50
22.99350092941452
 51
56.12519478664552
  0
ARC
  5
C2
330
A
100
AcDbEntity
  8
CURVE
 62
   255
100
AcDbCircle
 10
15.44115318094
 20
90.94528768032999
 30
0.0
 40
19.11220202268328
100
AcDbArc
 50
26.05325914379419
 51
61.82327393081674
  0
ARC
  5
C3
330
A
100
AcDbEntity
  8
CURVE
 62
   255
100
AcDbCircle
 10
24.55521718094
 20
116.84383468033
 30
0.0
 40
1.252868033491464
100
AcDbArc
 50
65.67933459020136
 51
237.9242981985495
  0
ARC
  5
C4
330
A
100
AcDbEntity
  8
CURVE
 62
   255
100
AcDbCircle
 10
10.37019918094
 20
90.56618168033001
 30
0.0
 40
28.61172572490255
100
AcDbArc
 50
36.2422467853407
 51
61.80180980618189
  0
ARC
  5
C5
330
A
100
AcDbEntity
  8
CURVE
 62
   255
100
AcDbCircle
 10
10.37019918094
 20
90.56618168033001
 30
0.0
 40
31.11172542735564
100
AcDbArc
 50
40.3889048590099
 51
61.80181036841599
  0
LINE
  5
C6
330
A
100
AcDbEntity
  8
CURVE
 62
   255
100
AcDbLine
 10
26.26050418094
 20
193.47541868033
 30
0.0
 11
28.60339918094
 21
193.9260236803299
 31
0.0
  0
LINE
  5
C7
330
A
100
AcDbEntity
  8
CURVE
 62
   255
100
AcDbLine
 10
28.60339918094
 20
193.9260236803299
 30
0.0
 11
29.92316318094
 21
189.65162468033
 31
0.0
  0
LINE
  5
C8
330
A
100
AcDbEntity
  8
CURVE
 62
   255
100
AcDbLine
 10
26.26050418094
 20
193.47541868033
 30
0.0
 11
26.45517118094
 21
189.20184368033
 31
0.0
  0
ARC
  5
C9
330
A
100
AcDbEntity
  8
CURVE
 62
   255
100
AcDbCircle
 10
27.16938118094
 20
130.56503168033
 30
0.0
 40
0.4999995296649493
100
AcDbArc
 50
346.8231069610125
 51
76.47567443182108
  0
ARC
  5
CA
330
A
100
AcDbEntity
  8
CURVE
 62
   255
100
AcDbCircle
 10
25.81060018094
 20
130.89185768033
 30
0.0
 40
0.4999998631243827
100
AcDbArc
 50
76.47556301785431
 51
157.5627149455794
  0
LINE
  5
CB
330
A
100
AcDbEntity
  8
CURVE
 62
   255
100
AcDbLine
 10
25.92753018094
 20
131.37799268033
 30
0.0
 11
27.28631018094
 21
131.05116668033
 31
0.0
  0
LINE
  5
CC
330
A
100
AcDbEntity
  8
CURVE
 62
   255
100
AcDbLine
 10
27.65621618094
 20
130.45105268033
 30
0.0
 11
26.84894818094
 21
127.00298468033
 31
0.0
  0
LINE
  5
CD
330
A
100
AcDbEntity
  8
CURVE
 62
   255
100
AcDbLine
 10
25.34845118094
 20
131.08269368033
 30
0.0
 11
23.79547718094
 21
127.32184168033
 31
0.0
  0
LINE
  5
CE
330
A
100
AcDbEntity
  8
CURVE
 62
   255
100
AcDbLine
 10
21.68056918094
 20
129.98938868033
 30
0.0
 11
21.22775618094
 21
126.28200368033
 31
0.0
  0
LINE
  5
CF
330
A
100
AcDbEntity
  8
CURVE
 62
   255
100
AcDbLine
 10
20.30242818094
 20
131.45365068033
 30
0.0
 11
21.68056918094
 21
129.98938868033
 31
0.0
  0
LINE
  5
D0
330
A
100
AcDbEntity
  8
CURVE
 62
   255
100
AcDbLine
 10
20.75240018094
 20
134.42733268033
 30
0.0
 11
20.32663218094
 21
131.42793368033
 31
0.0
  0
LINE
  5
D1
330
A
100
AcDbEntity
  8
CURVE
 62
   255
100
AcDbLine
 10
30.76681718094
 20
130.48571368033
 30
0.0
 11
29.17363218094
 21
125.01844368033
 31
0.0
  0
LINE
  5
D2
330
A
100
AcDbEntity
  8
CURVE
 62
   255
100
AcDbLine
 10
27.20776918094
 20
135.57585068033
 30
0.0
 11
30.76681718094
 21
130.48571368033
 31
0.0
  0
LINE
  5
D3
330
A
100
AcDbEntity
  8
CURVE
 62
   255
100
AcDbLine
 10
28.40141418094
 20
140.21135468033
 30
0.0
 11
27.207769180939
 21
135.57585068033
 31
0.0
  0
ARC
  5
D4
330
A
100
AcDbEntity
  8
CURVE
 62
   255
100
AcDbCircle
 10
-21.76760481906
 20
82.77227268033
 30
0.0
 40
2.999999351457069
100
AcDbArc
 50
173.6791106209279
 51
214.4674575112062
  0
LINE
  5
D5
330
A
100
AcDbEntity
  8
CURVE
 62
   255
100
AcDbLine
 10
-24.37836781906
 20
86.45183768033
 30
0.0
 11
-24.74936681906
 21
83.10256268032999
 31
0.0
  0
LINE
  5
D6
330
A
100
AcDbEntity
  8
CURVE
 62
   255
100
AcDbLine
 10
-24.24094781906
 20
81.07445868033
 30
0.0
 11
-16.945743819061
 21
70.44694368032999
 31
0.0
  0
LINE
  5
D7
330
A
100
AcDbEntity
  8
CURVE
 62
   255
100
AcDbLine
 10
-23.62693481906
 20
86.00309068033
 30
0.0
 11
-16.39018781906
 21
79.27550968033
 31
0.0
  0
ARC
  5
D8
330
A
100
AcDbEntity
  8
CURVE
 62
   255
100
AcDbCircle
 10
-27.38255881906
 20
80.56775968032999
 30
0.0
 40
6.606628089194873
100
AcDbArc
 50
55.35688056253873
 51
137.7108772678589
  0
LINE
  5
D9
330
A
100
AcDbEntity
  8
CURVE
 62
   255
100
AcDbLine
 10
33.43664218094
 20
32.61117168033
 30
0.0
 11
33.59071218094
 21
28.93913368033
 31
0.0
  0
ARC
  5
DA
330
A
100
AcDbEntity
  8
CURVE
 62
   255
100
AcDbCircle
 10
31.59247018094
 20
28.85529168033
 30
0.0
 40
1.999999441562452
100
AcDbArc
 50
318.5614288949581
 51
2.402600261683025
  0
LINE
  5
DB
330
A
100
AcDbEntity
  8
CURVE
 62
   255
100
AcDbLine
 10
25.42511218094
 20
18.84729768033
 30
0.0
 11
33.091801180939
 21
27.531658680331
 31
0.0
  0
ARC
  5
DC
330
A
100
AcDbEntity
  8
CURVE
 62
   255
100
AcDbCircle
 10
31.59247018094
 20
28.85529168033
 30
0.0
 40
2.999999868084739
100
AcDbArc
 50
318.5614280560617
 51
2.402600261695178
  0
LINE
  5
DD
330
A
100
AcDbEntity
  8
CURVE
 62
   255
100
AcDbLine
 10
34.40845018094
 20
33.30406068033
 30
0.0
 11
34.58983318094
 21
28.98105468033
 31
0.0
  0
LINE
  5
DE
330
A
100
AcDbEntity
  8
CURVE
 62
   255
100
AcDbLine
 10
25.84288318094
 20
17.80953168033
 30
0.0
 11
33.84146718094
 21
26.86984168033
 31
0.0
  0
LINE
  5
DF
330
A
100
AcDbEntity
  8
CURVE
 62
   255
100
AcDbLine
 10
25.67482118094
 20
81.90543968033001
 30
0.0
 11
15.77698918094
 21
71.48278968033
 31
0.0
  0
ARC
  5
E0
330
A
100
AcDbEntity
  8
CURVE
 62
   255
100
AcDbCircle
 10
24.22456618094
 20
83.28266968033
 30
0.0
 40
2.000000509480992
100
AcDbArc
 50
316.4794399925324
 51
14.75685378191829
  0
LINE
  5
E1
330
A
100
AcDbEntity
  8
CURVE
 62
   255
100
AcDbLine
 10
25.44268318094
 20
86.51001168032999
 30
0.0
 11
26.15859618094
 21
83.79210468032999
 31
0.0
  0
ARC
  5
E2
330
A
100
AcDbEntity
  8
CURVE
 62
   255
100
AcDbCircle
 10
24.22456618094
 20
83.28266968033
 30
0.0
 40
2.99999971304333
100
AcDbArc
 50
316.4794472656577
 51
14.75685815147764
  0
LINE
  5
E3
330
A
100
AcDbEntity
  8
CURVE
 62
   255
100
AcDbLine
 10
26.35578418094
 20
86.96941268032999
 30
0.0
 11
27.12561218094
 21
84.04682268032999
 31
0.0
  0
LINE
  5
E4
330
A
100
AcDbEntity
  8
CURVE
 62
   255
100
AcDbLine
 10
26.39994818094
 20
81.21682568033
 30
0.0
 11
15.869273180939
 21
70.127775680331
 31
0.0
  0
LINE
  5
E5
330
A
100
AcDbEntity
  8
CURVE
 62
   255
100
AcDbLine
 10
30.26215418094
 20
70.20159068033
 30
0.0
 11
30.93029818094
 21
66.58508968033
 31
0.0
  0
ARC
  5
E6
330
A
100
AcDbEntity
  8
CURVE
 62
   255
100
AcDbCircle
 10
26.99686318094
 20
65.85839168033
 30
0.0
 40
3.999999729464118
100
AcDbArc
 50
312.2946188675048
 51
10.4673096142928
  0
LINE
  5
E7
330
A
100
AcDbEntity
  8
CURVE
 62
   255
100
AcDbLine
 10
29.68863518094
 20
62.89961468032999
 30
0.0
 11
17.72748418094
 21
52.01786068033
 31
0.0
  0
ARC
  5
E8
330
A
100
AcDbEntity
  8
CURVE
 62
   255
100
AcDbCircle
 10
26.99686318094
 20
65.85839168033
 30
0.0
 40
2.999999982021412
100
AcDbArc
 50
312.2946156544384
 51
10.46729762160908
  0
LINE
  5
E9
330
A
100
AcDbEntity
  8
CURVE
 62
   255
100
AcDbLine
 10
29.37185418094
 20
69.51621268033
 30
0.0
 11
29.94694018094
 21
66.40341468033
 31
0.0
  0
LINE
  5
EA
330
A
100
AcDbEntity
  8
CURVE
 62
   255
100
AcDbLine
 10
29.01569218094
 20
63.63930868033
 30
0.0
 11
17.562886180941
 21
53.22002568032999
 31
0.0
  0
ARC
  5
EB
330
A
100
AcDbEntity
  8
CURVE
 62
   255
100
AcDbCircle
 10
30.65823818094
 20
46.90871768033
 30
0.0
 40
2.000000513681646
100
AcDbArc
 50
311.232704392136
 51
4.092564608629417
  0
LINE
  5
EC
330
A
100
AcDbEntity
  8
CURVE
 62
   255
100
AcDbLine
 10
32.31932318094
 20
51.71688768033
 30
0.0
 11
32.65313818094
 21
47.05145368033
 31
0.0
  0
LINE
  5
ED
330
A
100
AcDbEntity
  8
CURVE
 62
   255
100
AcDbLine
 10
31.97647618094
 20
45.40463968033
 30
0.0
 11
20.647176180939
 21
35.475162680331
 31
0.0
  0
ARC
  5
EE
330
A
100
AcDbEntity
  8
CURVE
 62
   255
100
AcDbCircle
 10
30.65823818094
 20
46.90871768033
 30
0.0
 40
3.000000111404074
100
AcDbArc
 50
311.2326900292534
 51
4.092583658518399
  0
LINE
  5
EF
330
A
100
AcDbEntity
  8
CURVE
 62
   255
100
AcDbLine
 10
32.63559418094
 20
44.65260068033
 30
0.0
 11
20.94387118094
 21
34.40548068033101
 31
0.0
  0
LINE
  5
F0
330
A
100
AcDbEntity
  8
CURVE
 62
   255
100
AcDbLine
 10
33.27078518094
 20
52.43098068033
 30
0.0
 11
33.650588180939
 21
47.12282268033
 31
0.0
  0
LINE
  5
F1
330
A
100
AcDbEntity
  8
CURVE
 62
   255
100
AcDbLine
 10
16.24347818094
 20
65.29175068033
 30
0.0
 11
35.39380318094
 21
79.071041680331
 31
0.0
  0
ARC
  5
F2
330
A
100
AcDbEntity
  8
CURVE
 62
   255
100
AcDbCircle
 10
27.85796218094
 20
82.84656168033
 30
0.0
 40
4.387987293044696
100
AcDbArc
 50
45.05765078709343
 51
128.4472001461016
  0
LINE
  5
F3
330
A
100
AcDbEntity
  8
CURVE
 62
   255
100
AcDbLine
 10
15.27357018094
 20
80.02450268032999
 30
0.0
 11
25.90795218094
 21
86.77745168033
 31
0.0
  0
LINE
  5
F4
330
A
100
AcDbEntity
  8
CURVE
 62
   255
100
AcDbLine
 10
23.19680618094
 20
25.31027268033
 30
0.0
 11
37.725144180939
 21
35.668829680331
 31
0.0
  0
LINE
  5
F5
330
A
100
AcDbEntity
  8
CURVE
 62
   255
100
AcDbLine
 10
21.91968418094
 20
29.97938368033
 30
0.0
 11
38.216624180941
 21
41.70904568032899
 31
0.0
  0
LINE
  5
F6
330
A
100
AcDbEntity
  8
CURVE
 62
   255
100
AcDbLine
 10
19.34908518094
 20
41.98244268033
 30
0.0
 11
38.57880118094
 21
56.41476168033
 31
0.0
  0
LINE
  5
F7
330
A
100
AcDbEntity
  8
CURVE
 62
   255
100
AcDbLine
 10
16.76846418094
 20
59.81375968033
 30
0.0
 11
37.68640818094
 21
75.91699568033099
 31
0.0
  0
LINE
  5
F8
330
A
100
AcDbEntity
  8
CURVE
 62
   255
100
AcDbLine
 10
18.43187618094
 20
47.31289368032999
 30
0.0
 11
38.456162180939
 21
61.834593680331
 31
0.0
  0
ARC
  5
F9
330
A
100
AcDbEntity
  8
CURVE
 62
   255
100
AcDbCircle
 10
-28.03986881906
 20
28.11310968033
 30
0.0
 40
9.000000647621027
100
AcDbArc
 50
187.0507492964482
 51
227.035237379827
  0
LINE
  5
FA
330
A
100
AcDbEntity
  8
CURVE
 62
   255
100
AcDbLine
 10
-37.95153281906
 20
34.92956568033
 30
0.0
 11
-36.97180981906
 21
27.00837368033
 31
0.0
  0
LINE
  5
FB
330
A
100
AcDbEntity
  8
CURVE
 62
   255
100
AcDbLine
 10
-34.17380481906
 20
21.52715268033
 30
0.0
 11
-27.22964381906
 21
15.05959768033
 31
0.0
  0
ARC
  5
FC
330
A
100
AcDbEntity
  8
CURVE
 62
   255
100
AcDbCircle
 10
-31.72344681906
 20
27.96258468033
 30
0.0
 40
1.999999957666106
100
AcDbArc
 50
175.4742858059073
 51
224.0109779088383
  0
LINE
  5
FD
330
A
100
AcDbEntity
  8
CURVE
 62
   255
100
AcDbLine
 10
-33.43112481906
 20
31.73474368033
 30
0.0
 11
-33.71721081906
 21
28.12039768033
 31
0.0
  0
LINE
  5
FE
330
A
100
AcDbEntity
  8
CURVE
 62
   255
100
AcDbLine
 10
-33.16185981906
 20
26.57299268033
 30
0.0
 11
-25.62489381906
 21
18.771226680331
 31
0.0
  0
ARC
  5
FF
330
A
100
AcDbEntity
  8
CURVE
 62
   255
100
AcDbCircle
 10
-30.64650681906
 20
45.49233168033
 30
0.0
 40
1.999999573362449
100
AcDbArc
 50
176.3098636059278
 51
228.8722591787305
  0
LINE
  5
100
330
A
100
AcDbEntity
  8
CURVE
 62
   255
100
AcDbLine
 10
-32.30284981906
 20
50.88527268033
 30
0.0
 11
-32.64235981906
 21
45.62105268033
 31
0.0
  0
LINE
  5
101
330
A
100
AcDbEntity
  8
CURVE
 62
   255
100
AcDbLine
 10
-31.96198681906
 20
43.98584168032999
 30
0.0
 11
-20.986527819061
 21
34.40197768033
 31
0.0
  0
ARC
  5
102
330
A
100
AcDbEntity
  8
CURVE
 62
   255
100
AcDbCircle
 10
-27.57933281906
 20
64.43884368033
 30
0.0
 40
1.999999796053057
100
AcDbArc
 50
172.4580815350176
 51
223.4461493923722
  0
LINE
  5
103
330
A
100
AcDbEntity
  8
CURVE
 62
   255
100
AcDbLine
 10
-29.02015681906
 20
68.79414468033001
 30
0.0
 11
-29.56203081906
 21
64.70134668033001
 31
0.0
  0
LINE
  5
104
330
A
100
AcDbEntity
  8
CURVE
 62
   255
100
AcDbLine
 10
-29.03137481906
 20
63.06349868033
 30
0.0
 11
-18.42258581906
 21
51.86310068033
 31
0.0
  0
LINE
  5
105
330
A
100
AcDbEntity
  8
CURVE
 62
   255
100
AcDbLine
 10
-40.03656781905999
 20
36.40317568033
 30
0.0
 11
-23.50386381906
 21
24.71859968033
 31
0.0
  0
LINE
  5
106
330
A
100
AcDbEntity
  8
CURVE
 62
   255
100
AcDbLine
 10
-35.34827681906
 20
79.37522368033
 30
0.0
 11
-17.283468819061
 21
65.44064468032999
 31
0.0
  0
LINE
  5
107
330
A
100
AcDbEntity
  8
CURVE
 62
   255
100
AcDbLine
 10
-38.67114381906
 20
61.76564368033
 30
0.0
 11
-19.03270481906
 21
46.38775468032999
 31
0.0
  0
LINE
  5
108
330
A
100
AcDbEntity
  8
CURVE
 62
   255
100
AcDbLine
 10
-37.01501581906
 20
74.88240868033
 30
0.0
 11
-17.682948819061
 21
60.160606680329
 31
0.0
  0
LINE
  5
109
330
A
100
AcDbEntity
  8
CURVE
 62
   255
100
AcDbLine
 10
-39.99766981906
 20
43.07757968033
 30
0.0
 11
-22.31371281906
 21
28.812833680331
 31
0.0
  0
LINE
  5
10A
330
A
100
AcDbEntity
  8
CURVE
 62
   255
100
AcDbLine
 10
-39.12865081906
 20
55.82821668033
 30
0.0
 11
-19.670940819061
 21
41.73780268032899
 31
0.0
  0
LINE
  5
10B
330
A
100
AcDbEntity
  8
CURVE
 62
   255
100
AcDbLine
 10
5.1142911809399
 20
231.84099868033
 30
0.0
 11
7.0032111809398
 21
232.67280868033
 31
0.0
  0
LINE
  5
10C
330
A
100
AcDbEntity
  8
CURVE
 62
   255
100
AcDbLine
 10
5.1142911809399
 20
231.84099868033
 30
0.0
 11
6.275587180939999
 21
228.02550168033
 31
0.0
  0
LINE
  5
10D
330
A
100
AcDbEntity
  8
CURVE
 62
   255
100
AcDbLine
 10
7.0032111809398
 20
232.67280868033
 30
0.0
 11
9.7629521809401
 21
228.96512268033
 31
0.0
  0
LINE
  5
10E
330
A
100
AcDbEntity
  8
CURVE
 62
   255
100
AcDbLine
 10
2.954100180939899
 20
233.37708268033
 30
0.0
 11
5.8160901809396
 21
227.84780868033
 31
0.0
  0
LINE
  5
10F
330
A
100
AcDbEntity
  8
CURVE
 62
   255
100
AcDbLine
 10
1.0763721809399
 20
233.46818168033
 30
0.0
 11
2.954100180939899
 21
233.37708268033
 31
0.0
  0
LINE
  5
110
330
A
100
AcDbEntity
  8
CURVE
 62
   255
100
AcDbLine
 10
-0.4995458190601301
 20
236.97646368033
 30
0.0
 11
1.076372180939699
 21
233.46818168033
 31
0.0
  0
LINE
  5
111
330
A
100
AcDbEntity
  8
CURVE
 62
   255
100
AcDbLine
 10
9.772817180939899
 20
233.26508768033
 30
0.0
 11
14.00396718094
 21
228.46492068033
 31
0.0
  0
LINE
  5
112
330
A
100
AcDbEntity
  8
CURVE
 62
   255
100
AcDbLine
 10
4.0118371809399
 20
234.95120568033
 30
0.0
 11
9.772817180939899
 21
233.26508768033
 31
0.0
  0
LINE
  5
113
330
A
100
AcDbEntity
  8
CURVE
 62
   255
100
AcDbLine
 10
0.5394561809398501
 20
238.95711268033
 30
0.0
 11
4.0118371809399
 21
234.95120568033
 31
0.0
  0
LINE
  5
114
330
A
100
AcDbEntity
  8
CURVE
 62
   255
100
AcDbLine
 10
-1.606699819060199
 20
232.34819768033
 30
0.0
 11
-0.31165181905994
 21
237.76192068033
 31
0.0
  0
LINE
  5
115
330
A
100
AcDbEntity
  8
CURVE
 62
   255
100
AcDbLine
 10
1.472736180939899
 20
239.29014868033
 30
0.0
 11
15.87192418094
 21
240.45110668033
 31
0.0
  0
LINE
  5
116
330
A
100
AcDbEntity
  8
CURVE
 62
   255
100
AcDbLine
 10
2.190806180939799
 20
226.44587068033
 30
0.0
 11
8.952533180939999
 21
229.06070668033
 31
0.0
  0
LINE
  5
117
330
A
100
AcDbEntity
  8
CURVE
 62
   255
100
AcDbLine
 10
19.21892718094
 20
212.60990768033
 30
0.0
 11
21.31353918094
 21
213.26664668033
 31
0.0
  0
LINE
  5
118
330
A
100
AcDbEntity
  8
CURVE
 62
   255
100
AcDbLine
 10
19.21892718094
 20
212.60990768033
 30
0.0
 11
19.90972418094
 21
208.65146568033
 31
0.0
  0
LINE
  5
119
330
A
100
AcDbEntity
  8
CURVE
 62
   255
100
AcDbLine
 10
21.31353918094
 20
213.26664668033
 30
0.0
 11
23.33966018094
 21
209.22373368033
 31
0.0
  0
LINE
  5
11A
330
A
100
AcDbEntity
  8
CURVE
 62
   255
100
AcDbLine
 10
31.76397918094
 20
172.55237868033
 30
0.0
 11
29.19601918094
 21
172.51873468033
 31
0.0
  0
LINE
  5
11B
330
A
100
AcDbEntity
  8
CURVE
 62
   255
100
AcDbLine
 10
31.76397918094
 20
172.55237868033
 30
0.0
 11
32.45092918094
 21
168.11353668033
 31
0.0
  0
LINE
  5
11C
330
A
100
AcDbEntity
  8
CURVE
 62
   255
100
AcDbLine
 10
29.19601918094
 20
172.51873468033
 30
0.0
 11
28.89598118094
 21
168.26892468033
 31
0.0
  0
LINE
  5
11D
330
A
100
AcDbEntity
  8
CURVE
 62
   255
100
AcDbLine
 10
31.10885318094
 20
151.93756768033
 30
0.0
 11
30.87814218094
 21
147.89198968033
 31
0.0
  0
LINE
  5
11E
330
A
100
AcDbEntity
  8
CURVE
 62
   255
100
AcDbLine
 10
28.62028818094
 20
152.16590268033
 30
0.0
 11
31.10885318094
 21
151.93756768033
 31
0.0
  0
LINE
  5
11F
330
A
100
AcDbEntity
  8
CURVE
 62
   255
100
AcDbLine
 10
28.62028818094
 20
152.16590268033
 30
0.0
 11
27.30043218094
 21
147.75391468033
 31
0.0
  0
LINE
  5
120
330
A
100
AcDbEntity
  8
CURVE
 62
   255
100
AcDbLine
 10
16.41834718094
 20
211.63935468033
 30
0.0
 11
18.44811018094
 21
207.89820768033
 31
0.0
  0
LINE
  5
121
330
A
100
AcDbEntity
  8
CURVE
 62
   255
100
AcDbLine
 10
14.22628918094
 20
211.94968868033
 30
0.0
 11
16.41834718094
 21
211.63935468033
 31
0.0
  0
LINE
  5
122
330
A
100
AcDbEntity
  8
CURVE
 62
   255
100
AcDbLine
 10
12.40753518094
 20
215.40936568033
 30
0.0
 11
14.226289180939
 21
211.94968868033
 31
0.0
  0
LINE
  5
123
330
A
100
AcDbEntity
  8
CURVE
 62
   255
100
AcDbLine
 10
24.94468018094
 20
213.91550568033
 30
0.0
 11
28.25196618094
 21
208.25238268033
 31
0.0
  0
LINE
  5
124
330
A
100
AcDbEntity
  8
CURVE
 62
   255
100
AcDbLine
 10
18.44142018094
 20
216.58594168033
 30
0.0
 11
24.94468018094
 21
213.91550568033
 31
0.0
  0
LINE
  5
125
330
A
100
AcDbEntity
  8
CURVE
 62
   255
100
AcDbLine
 10
15.42937418094
 20
221.45794268033
 30
0.0
 11
18.44142018094
 21
216.58594168033
 31
0.0
  0
LINE
  5
126
330
A
100
AcDbEntity
  8
CURVE
 62
   255
100
AcDbLine
 10
30.39021218094
 20
161.13202268033
 30
0.0
 11
30.33181218094
 21
157.65921368033
 31
0.0
  0
LINE
  5
127
330
A
100
AcDbEntity
  8
CURVE
 62
   255
100
AcDbLine
 10
24.45370118094
 20
150.56096068033
 30
0.0
 11
24.33928318094
 21
146.86900668033
 31
0.0
  0
LINE
  5
128
330
A
100
AcDbEntity
  8
CURVE
 62
   255
100
AcDbLine
 10
23.04013418094
 20
151.60480368033
 30
0.0
 11
24.45370118094
 21
150.56096068033
 31
0.0
  0
LINE
  5
129
330
A
100
AcDbEntity
  8
CURVE
 62
   255
100
AcDbLine
 10
22.99042118094
 20
155.00708968033
 30
0.0
 11
23.04013418094
 21
151.60480368033
 31
0.0
  0
LINE
  5
12A
330
A
100
AcDbEntity
  8
CURVE
 62
   255
100
AcDbLine
 10
35.54675018094
 20
151.79074968033
 30
0.0
 11
34.38917318094
 21
145.16212368033
 31
0.0
  0
LINE
  5
12B
330
A
100
AcDbEntity
  8
CURVE
 62
   255
100
AcDbLine
 10
30.33181218094
 20
157.65921368033
 30
0.0
 11
35.546750180939
 21
151.79074968033
 31
0.0
  0
LINE
  5
12C
330
A
100
AcDbEntity
  8
CURVE
 62
   255
100
AcDbLine
 10
23.35586918094
 20
191.87048968033
 30
0.0
 11
24.39029418094
 21
188.0749466803299
 31
0.0
  0
LINE
  5
12D
330
A
100
AcDbEntity
  8
CURVE
 62
   255
100
AcDbLine
 10
21.28025618094
 20
193.02929368033
 30
0.0
 11
23.35586918094
 21
191.87048968033
 31
0.0
  0
LINE
  5
12E
330
A
100
AcDbEntity
  8
CURVE
 62
   255
100
AcDbLine
 10
20.24511518094
 20
196.74601968033
 30
0.0
 11
21.28025618094
 21
193.02929368033
 31
0.0
  0
LINE
  5
12F
330
A
100
AcDbEntity
  8
CURVE
 62
   255
100
AcDbLine
 10
33.89841618094
 20
193.30816968033
 30
0.0
 11
35.64201818094
 21
187.29884368033
 31
0.0
  0
LINE
  5
130
330
A
100
AcDbEntity
  8
CURVE
 62
   255
100
AcDbLine
 10
26.18989918094
 20
197.29666868033
 30
0.0
 11
33.89841618094
 21
193.30816968033
 31
0.0
  0
LINE
  5
131
330
A
100
AcDbEntity
  8
CURVE
 62
   255
100
AcDbLine
 10
24.55175818094
 20
203.17676768033
 30
0.0
 11
26.18989918094
 21
197.29666868033
 31
0.0
  0
LINE
  5
132
330
A
100
AcDbEntity
  8
CURVE
 62
   255
100
AcDbLine
 10
29.99962718094
 20
182.31828568033
 30
0.0
 11
30.06458118094
 21
177.69213268033
 31
0.0
  0
LINE
  5
133
330
A
100
AcDbEntity
  8
CURVE
 62
   255
100
AcDbLine
 10
36.82129518094
 20
172.37235668033
 30
0.0
 11
36.61580318094
 21
165.01287268033
 31
0.0
  0
LINE
  5
134
330
A
100
AcDbEntity
  8
CURVE
 62
   255
100
AcDbLine
 10
25.75890718094
 20
170.59083868033
 30
0.0
 11
25.59283818094
 21
166.85104668033
 31
0.0
  0
LINE
  5
135
330
A
100
AcDbEntity
  8
CURVE
 62
   255
100
AcDbLine
 10
23.95008418094
 20
171.89005868033
 30
0.0
 11
25.75890718094
 21
170.59083868033
 31
0.0
  0
LINE
  5
136
330
A
100
AcDbEntity
  8
CURVE
 62
   255
100
AcDbLine
 10
23.46444418094
 20
175.59902968033
 30
0.0
 11
23.95008418094
 21
171.89005868033
 31
0.0
  0
LINE
  5
137
330
A
100
AcDbEntity
  8
CURVE
 62
   255
100
AcDbLine
 10
30.06458118094
 20
177.69213268033
 30
0.0
 11
36.82129518094
 21
172.37235668033
 31
0.0
  0
ARC
  5
138
330
A
100
AcDbEntity
  8
CURVE
 62
   255
100
AcDbCircle
 10
25.23825818094
 20
125.74834468033
 30
0.0
 40
1.999999447835766
100
AcDbArc
 50
49.51321257219419
 51
112.0462584352752
  0
ARC
  5
139
330
A
100
AcDbEntity
  8
CURVE
 62
   255
100
AcDbCircle
 10
29.21143518094
 20
138.38273068033
 30
0.0
 40
2.000000452942918
100
AcDbArc
 50
48.33977693244548
 51
127.4277210942817
  0
LINE
  5
13A
330
A
100
AcDbEntity
  8
CURVE
 62
   255
100
AcDbLine
 10
26.53680318094
 20
127.26945568033
 30
0.0
 11
33.23078818094
 21
121.55492368033
 31
0.0
  0
LINE
  5
13B
330
A
100
AcDbEntity
  8
CURVE
 62
   255
100
AcDbLine
 10
14.58533218094
 20
123.59205068033
 30
0.0
 11
24.48754818094
 21
127.60210668033
 31
0.0
  0
LINE
  5
13C
330
A
100
AcDbEntity
  8
CURVE
 62
   255
100
AcDbLine
 10
30.54085918094
 20
139.87693068033
 30
0.0
 11
41.26613018094
 21
130.33441168033
 31
0.0
  0
LINE
  5
13D
330
A
100
AcDbEntity
  8
CURVE
 62
   255
100
AcDbLine
 10
15.73937318094
 20
130.59074068033
 30
0.0
 11
27.99591518094
 21
139.97097168033
 31
0.0
  0
ARC
  5
13E
330
A
100
AcDbEntity
  8
CURVE
 62
   255
100
AcDbCircle
 10
31.75678118094
 20
158.46135068033
 30
0.0
 40
3.00000030935026
100
AcDbArc
 50
51.86982220708898
 51
130.0718923062937
  0
LINE
  5
13F
330
A
100
AcDbEntity
  8
CURVE
 62
   255
100
AcDbLine
 10
33.60913218094
 20
160.82118068033
 30
0.0
 11
44.28188318094
 21
152.44359168033
 31
0.0
  0
ARC
  5
140
330
A
100
AcDbEntity
  8
CURVE
 62
   255
100
AcDbCircle
 10
29.80592218094
 20
147.45895468033
 30
0.0
 40
0.9999995533001012
100
AcDbArc
 50
52.13454910503662
 51
106.6381854003506
  0
LINE
  5
141
330
A
100
AcDbEntity
  8
CURVE
 62
   255
100
AcDbLine
 10
30.41973118094
 20
148.24840868033
 30
0.0
 11
42.78270818093999
 21
138.63605868033
 31
0.0
  0
LINE
  5
142
330
A
100
AcDbEntity
  8
CURVE
 62
   255
100
AcDbLine
 10
17.78716418094
 20
144.91097768033
 30
0.0
 11
29.51959518094
 21
148.41708668033
 31
0.0
  0
LINE
  5
143
330
A
100
AcDbEntity
  8
CURVE
 62
   255
100
AcDbLine
 10
18.56984718094
 20
151.28832668033
 30
0.0
 11
29.82553618094
 21
160.75706268033
 31
0.0
  0
LINE
  5
144
330
A
100
AcDbEntity
  8
CURVE
 62
   255
100
AcDbLine
 10
17.78751418094
 20
222.90184368033
 30
0.0
 11
29.47044118094
 21
220.62932368033
 31
0.0
  0
LINE
  5
145
330
A
100
AcDbEntity
  8
CURVE
 62
   255
100
AcDbLine
 10
10.40226318094
 20
211.39556868033
 30
0.0
 11
15.61649418094
 21
221.83248668033
 31
0.0
  0
LINE
  5
146
330
A
100
AcDbEntity
  8
CURVE
 62
   255
100
AcDbLine
 10
21.66333518094
 20
209.55520768033
 30
0.0
 11
36.14018518094
 21
206.69257868033
 31
0.0
  0
LINE
  5
147
330
A
100
AcDbEntity
  8
CURVE
 62
   255
100
AcDbLine
 10
13.15008918094
 20
205.16781668033
 30
0.0
 11
21.66333518094
 21
209.55520768033
 31
0.0
  0
LINE
  5
148
330
A
100
AcDbEntity
  8
CURVE
 62
   255
100
AcDbLine
 10
24.04285318094
 20
202.65788968033
 30
0.0
 11
17.122497180939
 21
191.88509468033
 31
0.0
  0
LINE
  5
149
330
A
100
AcDbEntity
  8
CURVE
 62
   255
100
AcDbLine
 10
26.39021318094
 20
203.46325968033
 30
0.0
 11
38.64356318094
 21
199.14580668033
 31
0.0
  0
LINE
  5
14A
330
A
100
AcDbEntity
  8
CURVE
 62
   255
100
AcDbLine
 10
28.41571418094
 20
190.27180068033
 30
0.0
 11
42.27133518093999
 21
184.57149168033
 31
0.0
  0
LINE
  5
14B
330
A
100
AcDbEntity
  8
CURVE
 62
   255
100
AcDbLine
 10
18.33100418094
 20
184.7681186803299
 30
0.0
 11
28.41571418094
 21
190.27180068033
 31
0.0
  0
LINE
  5
14C
330
A
100
AcDbEntity
  8
CURVE
 62
   255
100
AcDbLine
 10
31.68555018094
 20
182.27366768033
 30
0.0
 11
43.34500418094
 21
176.30149968033
 31
0.0
  0
LINE
  5
14D
330
A
100
AcDbEntity
  8
CURVE
 62
   255
100
AcDbLine
 10
19.33548318094
 20
171.17914668033
 30
0.0
 11
29.31227418094
 21
181.85889268033
 31
0.0
  0
ARC
  5
14E
330
A
100
AcDbEntity
  8
CURVE
 62
   255
100
AcDbCircle
 10
-11.43307381906
 20
74.35360368032999
 30
0.0
 40
24.81817758683868
100
AcDbArc
 50
123.5668711998371
 51
160.4176450616327
  0
ARC
  5
14F
330
A
100
AcDbEntity
  8
CURVE
 62
   255
100
AcDbCircle
 10
-9.9944528190601
 20
78.87804668033
 30
0.0
 40
25.10956698284223
100
AcDbArc
 50
132.5790683111106
 51
171.3102508731538
  0
ARC
  5
150
330
A
100
AcDbEntity
  8
CURVE
 62
   255
100
AcDbCircle
 10
9.2524241809399
 20
64.65810468033
 30
0.0
 40
52.48927594496418
100
AcDbArc
 50
128.1883527317024
 51
143.1325099234977
  0
ARC
  5
151
330
A
100
AcDbEntity
  8
CURVE
 62
   255
100
AcDbCircle
 10
-9.757016819060099
 20
87.80406068033
 30
0.0
 40
31.09645931100201
100
AcDbArc
 50
117.2689889893169
 51
137.9765895200468
  0
ARC
  5
152
330
A
100
AcDbEntity
  8
CURVE
 62
   255
100
AcDbCircle
 10
9.2524241809399
 20
64.65810468033
 30
0.0
 40
55.28927564589536
100
AcDbArc
 50
128.1883527552241
 51
138.9352508742008
  0
ARC
  5
153
330
A
100
AcDbEntity
  8
CURVE
 62
   255
100
AcDbCircle
 10
-9.757016819060099
 20
87.80406068033
 30
0.0
 40
33.89645939916368
100
AcDbArc
 50
117.2689891417804
 51
134.3563811070276
  0
LINE
  5
154
330
A
100
AcDbEntity
  8
CURVE
 62
   255
100
AcDbLine
 10
-31.72704081906
 20
132.68143868033
 30
0.0
 11
-29.28262081906
 21
133.52641668033
 31
0.0
  0
LINE
  5
155
330
A
100
AcDbEntity
  8
CURVE
 62
   255
100
AcDbLine
 10
-31.72704081906
 20
132.68143868033
 30
0.0
 11
-30.94041581906
 21
128.41768368033
 31
0.0
  0
LINE
  5
156
330
A
100
AcDbEntity
  8
CURVE
 62
   255
100
AcDbLine
 10
-29.28262081906
 20
133.52641668033
 30
0.0
 11
-27.91409981906
 21
129.71666168033
 31
0.0
  0
LINE
  5
157
330
A
100
AcDbEntity
  8
CURVE
 62
   255
100
AcDbLine
 10
-25.09269881906
 20
131.90269668033
 30
0.0
 11
-24.58677781906
 21
128.76791768033
 31
0.0
  0
LINE
  5
158
330
A
100
AcDbEntity
  8
CURVE
 62
   255
100
AcDbLine
 10
-23.76849981906
 20
133.30958468033
 30
0.0
 11
-25.09269881906
 21
131.90269668033
 31
0.0
  0
LINE
  5
159
330
A
100
AcDbEntity
  8
CURVE
 62
   255
100
AcDbLine
 10
-24.16537981906
 20
135.92357968033
 30
0.0
 11
-23.76849981906
 21
133.30958468033
 31
0.0
  0
LINE
  5
15A
330
A
100
AcDbEntity
  8
CURVE
 62
   255
100
AcDbLine
 10
-35.60809381906
 20
131.07050068033
 30
0.0
 11
-33.96394581906
 21
126.70496568033
 31
0.0
  0
LINE
  5
15B
330
A
100
AcDbEntity
  8
CURVE
 62
   255
100
AcDbLine
 10
-31.15635881906
 20
136.71380568033
 30
0.0
 11
-35.60809381906
 21
131.07050068033
 31
0.0
  0
LINE
  5
15C
330
A
100
AcDbEntity
  8
CURVE
 62
   255
100
AcDbLine
 10
-32.61560781906001
 20
140.20535068033
 30
0.0
 11
-31.15635881906
 21
136.71380568033
 31
0.0
  0
LINE
  5
15D
330
A
100
AcDbEntity
  8
CURVE
 62
   255
100
AcDbLine
 10
-41.78697381906
 20
226.19422368033
 30
0.0
 11
-39.14061481906
 21
225.89200668033
 31
0.0
  0
LINE
  5
15E
330
A
100
AcDbEntity
  8
CURVE
 62
   255
100
AcDbLine
 10
-39.14061481906
 20
225.89200668033
 30
0.0
 11
-39.33723481906
 21
221.67450068033
 31
0.0
  0
LINE
  5
15F
330
A
100
AcDbEntity
  8
CURVE
 62
   255
100
AcDbLine
 10
-41.78697381906
 20
226.19422368033
 30
0.0
 11
-42.91199681905999
 21
221.55016768033
 31
0.0
  0
LINE
  5
160
330
A
100
AcDbEntity
  8
CURVE
 62
   255
100
AcDbLine
 10
-36.36707381906
 20
225.64620268033
 30
0.0
 11
-36.56757981906
 21
220.40727768033
 31
0.0
  0
LINE
  5
161
330
A
100
AcDbEntity
  8
CURVE
 62
   255
100
AcDbLine
 10
-34.59441281906
 20
227.05321468033
 30
0.0
 11
-36.36707381906
 21
225.64620268033
 31
0.0
  0
LINE
  5
162
330
A
100
AcDbEntity
  8
CURVE
 62
   255
100
AcDbLine
 10
-34.57073681906
 20
231.72481168033
 30
0.0
 11
-34.59441281906
 21
227.05321468033
 31
0.0
  0
LINE
  5
163
330
A
100
AcDbEntity
  8
CURVE
 62
   255
100
AcDbLine
 10
-43.90894281906
 20
226.31351768033
 30
0.0
 11
-45.51368981906
 21
220.71701068033
 31
0.0
  0
LINE
  5
164
330
A
100
AcDbEntity
  8
CURVE
 62
   255
100
AcDbLine
 10
-43.90894281906
 20
226.31351768033
 30
0.0
 11
-39.45164981906
 21
228.85420668033
 31
0.0
  0
LINE
  5
165
330
A
100
AcDbEntity
  8
CURVE
 62
   255
100
AcDbLine
 10
-37.55277481906
 20
234.99107168033
 30
0.0
 11
-39.45164981906
 21
228.85420668033
 31
0.0
  0
LINE
  5
166
330
A
100
AcDbEntity
  8
CURVE
 62
   255
100
AcDbLine
 10
-46.00138381906
 20
207.67637868033
 30
0.0
 11
-43.64857081905999
 21
207.21372768033
 31
0.0
  0
LINE
  5
167
330
A
100
AcDbEntity
  8
CURVE
 62
   255
100
AcDbLine
 10
-46.00138381906
 20
207.67637868033
 30
0.0
 11
-47.62696081906
 21
202.54398868033
 31
0.0
  0
LINE
  5
168
330
A
100
AcDbEntity
  8
CURVE
 62
   255
100
AcDbLine
 10
-43.64857081905999
 20
207.21372768033
 30
0.0
 11
-43.88796681906
 21
202.94056968033
 31
0.0
  0
LINE
  5
169
330
A
100
AcDbEntity
  8
CURVE
 62
   255
100
AcDbLine
 10
-39.15468781906
 20
206.55237968033
 30
0.0
 11
-40.04089781905999
 21
201.66721768033
 31
0.0
  0
LINE
  5
16A
330
A
100
AcDbEntity
  8
CURVE
 62
   255
100
AcDbLine
 10
-37.67499481906
 20
207.41433668033
 30
0.0
 11
-39.15468781906
 21
206.55237968033
 31
0.0
  0
LINE
  5
16B
330
A
100
AcDbEntity
  8
CURVE
 62
   255
100
AcDbLine
 10
-36.85121381906
 20
211.76278368033
 30
0.0
 11
-37.67499481906
 21
207.41433668033
 31
0.0
  0
LINE
  5
16C
330
A
100
AcDbEntity
  8
CURVE
 62
   255
100
AcDbLine
 10
-49.07836981906
 20
207.59783168033
 30
0.0
 11
-49.71137781906
 21
201.54132968033
 31
0.0
  0
LINE
  5
16D
330
A
100
AcDbEntity
  8
CURVE
 62
   255
100
AcDbLine
 10
-49.07836981906
 20
207.59783168033
 30
0.0
 11
-43.77553381905999
 21
211.30319568033
 31
0.0
  0
LINE
  5
16E
330
A
100
AcDbEntity
  8
CURVE
 62
   255
100
AcDbLine
 10
-42.96540881906
 20
217.12510468033
 30
0.0
 11
-43.77553381905999
 21
211.30319568033
 31
0.0
  0
LINE
  5
16F
330
A
100
AcDbEntity
  8
CURVE
 62
   255
100
AcDbLine
 10
-37.33527881906
 20
149.78750568033
 30
0.0
 11
-34.91481181906
 21
150.45279968033
 31
0.0
  0
LINE
  5
170
330
A
100
AcDbEntity
  8
CURVE
 62
   255
100
AcDbLine
 10
-37.33527881906
 20
149.78750568033
 30
0.0
 11
-37.10905881906001
 21
145.28164968033
 31
0.0
  0
LINE
  5
171
330
A
100
AcDbEntity
  8
CURVE
 62
   255
100
AcDbLine
 10
-34.91481181906
 20
150.45279968033
 30
0.0
 11
-33.54540981906
 21
146.04033568033
 31
0.0
  0
LINE
  5
172
330
A
100
AcDbEntity
  8
CURVE
 62
   255
100
AcDbLine
 10
-29.54803581906
 20
148.70568868033
 30
0.0
 11
-28.38655781906
 21
144.80898868033
 31
0.0
  0
LINE
  5
173
330
A
100
AcDbEntity
  8
CURVE
 62
   255
100
AcDbLine
 10
-28.19991781906
 20
150.31217568033
 30
0.0
 11
-29.54803581906
 21
148.70568868033
 31
0.0
  0
LINE
  5
174
330
A
100
AcDbEntity
  8
CURVE
 62
   255
100
AcDbLine
 10
-29.16066081906
 20
153.96729868033
 30
0.0
 11
-28.19991781906
 21
150.31217568033
 31
0.0
  0
LINE
  5
175
330
A
100
AcDbEntity
  8
CURVE
 62
   255
100
AcDbLine
 10
-41.33067981906
 20
148.26811568033
 30
0.0
 11
-40.22690281906
 21
142.87471668033
 31
0.0
  0
LINE
  5
176
330
A
100
AcDbEntity
  8
CURVE
 62
   255
100
AcDbLine
 10
-36.89053081906
 20
154.62928568033
 30
0.0
 11
-41.33067981906
 21
148.26811568033
 31
0.0
  0
LINE
  5
177
330
A
100
AcDbEntity
  8
CURVE
 62
   255
100
AcDbLine
 10
-38.25403481906
 20
158.81296068033
 30
0.0
 11
-36.89053081906
 21
154.62928568033
 31
0.0
  0
LINE
  5
178
330
A
100
AcDbEntity
  8
CURVE
 62
   255
100
AcDbLine
 10
-43.36979581906
 20
168.16581968033
 30
0.0
 11
-41.00403581905999
 21
168.74063568033
 31
0.0
  0
LINE
  5
179
330
A
100
AcDbEntity
  8
CURVE
 62
   255
100
AcDbLine
 10
-41.00403581905999
 20
168.74063568033
 30
0.0
 11
-39.77874981906
 21
164.81228968033
 31
0.0
  0
LINE
  5
17A
330
A
100
AcDbEntity
  8
CURVE
 62
   255
100
AcDbLine
 10
-43.36302881905999
 20
168.16746368033
 30
0.0
 11
-42.81277581906
 21
163.52987168033
 31
0.0
  0
LINE
  5
17B
330
A
100
AcDbEntity
  8
CURVE
 62
   255
100
AcDbLine
 10
-35.52364581906
 20
166.93062068033
 30
0.0
 11
-34.83654081906
 21
163.60081568033
 31
0.0
  0
LINE
  5
17C
330
A
100
AcDbEntity
  8
CURVE
 62
   255
100
AcDbLine
 10
-34.39158981906
 20
168.42906568033
 30
0.0
 11
-35.52364581906
 21
166.93062068033
 31
0.0
  0
LINE
  5
17D
330
A
100
AcDbEntity
  8
CURVE
 62
   255
100
AcDbLine
 10
-34.62132981906
 20
171.94655968033
 30
0.0
 11
-34.39158981906
 21
168.42906568033
 31
0.0
  0
LINE
  5
17E
330
A
100
AcDbEntity
  8
CURVE
 62
   255
100
AcDbLine
 10
-47.35276381905999
 20
166.90805768033
 30
0.0
 11
-45.85019481906
 21
161.26652268033
 31
0.0
  0
LINE
  5
17F
330
A
100
AcDbEntity
  8
CURVE
 62
   255
100
AcDbLine
 10
-42.53757681906
 20
171.89504568033
 30
0.0
 11
-47.352763819061
 21
166.90805768033
 31
0.0
  0
LINE
  5
180
330
A
100
AcDbEntity
  8
CURVE
 62
   255
100
AcDbLine
 10
-43.88003481905999
 20
177.25376068033
 30
0.0
 11
-42.53757681906
 21
171.89504568033
 31
0.0
  0
LINE
  5
181
330
A
100
AcDbEntity
  8
CURVE
 62
   255
100
AcDbLine
 10
-46.28845581905999
 20
187.25255168033
 30
0.0
 11
-44.03395881905999
 21
187.31844868033
 31
0.0
  0
LINE
  5
182
330
A
100
AcDbEntity
  8
CURVE
 62
   255
100
AcDbLine
 10
-46.28845581905999
 20
187.25255168033
 30
0.0
 11
-46.47061581906
 21
182.47938468033
 31
0.0
  0
LINE
  5
183
330
A
100
AcDbEntity
  8
CURVE
 62
   255
100
AcDbLine
 10
-44.03395881905999
 20
187.31844868033
 30
0.0
 11
-43.15934281906
 21
182.98669568033
 31
0.0
  0
LINE
  5
184
330
A
100
AcDbEntity
  8
CURVE
 62
   255
100
AcDbLine
 10
-38.95725781906
 20
186.07156568033
 30
0.0
 11
-38.73550181906
 21
181.72592268033
 31
0.0
  0
LINE
  5
185
330
A
100
AcDbEntity
  8
CURVE
 62
   255
100
AcDbLine
 10
-37.49447581906
 20
187.55769568033
 30
0.0
 11
-38.95725781906
 21
186.07156568033
 31
0.0
  0
LINE
  5
186
330
A
100
AcDbEntity
  8
CURVE
 62
   255
100
AcDbLine
 10
-37.90049481906
 20
191.55916668033
 30
0.0
 11
-37.49447581906
 21
187.55769568033
 31
0.0
  0
LINE
  5
187
330
A
100
AcDbEntity
  8
CURVE
 62
   255
100
AcDbLine
 10
-45.20083681906
 20
196.28544968033
 30
0.0
 11
-44.99836281906
 21
190.27084468033
 31
0.0
  0
LINE
  5
188
330
A
100
AcDbEntity
  8
CURVE
 62
   255
100
AcDbLine
 10
-44.99836281906
 20
190.27084468033
 30
0.0
 11
-50.45149881906
 21
185.85176268033
 31
0.0
  0
LINE
  5
189
330
A
100
AcDbEntity
  8
CURVE
 62
   255
100
AcDbLine
 10
-50.45149881906
 20
185.85176268033
 30
0.0
 11
-49.91534581906
 21
180.52564768033
 31
0.0
  0
LINE
  5
18A
330
A
100
AcDbEntity
  8
CURVE
 62
   255
100
AcDbLine
 10
-37.23750181906
 20
234.71467968033
 30
0.0
 11
-30.59450581906
 21
227.26682568033
 31
0.0
  0
LINE
  5
18B
330
A
100
AcDbEntity
  8
CURVE
 62
   255
100
AcDbLine
 10
-39.50855681906
 20
235.22568068033
 30
0.0
 11
-51.95105381906
 21
229.96779168033
 31
0.0
  0
LINE
  5
18C
330
A
100
AcDbEntity
  8
CURVE
 62
   255
100
AcDbLine
 10
-40.64922881905999
 20
222.27478768033
 30
0.0
 11
-31.39172881906
 21
218.03912868033
 31
0.0
  0
LINE
  5
18D
330
A
100
AcDbEntity
  8
CURVE
 62
   255
100
AcDbLine
 10
-40.64922881905999
 20
222.27478768033
 30
0.0
 11
-55.60005281906
 21
217.48699268033
 31
0.0
  0
ARC
  5
18E
330
A
100
AcDbEntity
  8
CURVE
 62
   255
100
AcDbCircle
 10
-28.10418281906
 20
127.72571468033
 30
0.0
 40
1.999999899971794
100
AcDbArc
 50
73.46801745838641
 51
119.5299823211521
  0
LINE
  5
18F
330
A
100
AcDbEntity
  8
CURVE
 62
   255
100
AcDbLine
 10
-27.53508181906
 20
129.64303668033
 30
0.0
 11
-18.20182581906
 21
126.87272968033
 31
0.0
  0
ARC
  5
190
330
A
100
AcDbEntity
  8
CURVE
 62
   255
100
AcDbCircle
 10
-37.13623381906
 20
130.35609568033
 30
0.0
 40
4.740678226349656
100
AcDbArc
 50
211.9691546351395
 51
300.1566108338272
  0
LINE
  5
191
330
A
100
AcDbEntity
  8
CURVE
 62
   255
100
AcDbLine
 10
-29.08994081906
 20
129.46591068033
 30
0.0
 11
-34.75468181906001
 21
126.25704268033
 31
0.0
  0
ARC
  5
192
330
A
100
AcDbEntity
  8
CURVE
 62
   255
100
AcDbCircle
 10
-33.51959181906
 20
138.42130668033
 30
0.0
 40
2.000000016546418
100
AcDbArc
 50
63.128439635909
 51
123.0751855334826
  0
ARC
  5
193
330
A
100
AcDbEntity
  8
CURVE
 62
   255
100
AcDbCircle
 10
-9.253164819060099
 20
101.16140768033
 30
0.0
 40
46.46526195421015
100
AcDbArc
 50
123.0751779085178
 51
136.2705192240266
  0
LINE
  5
194
330
A
100
AcDbEntity
  8
CURVE
 62
   255
100
AcDbLine
 10
-32.61560781906001
 20
140.20535068033
 30
0.0
 11
-19.45633181906
 21
133.53748268033
 31
0.0
  0
LINE
  5
195
330
A
100
AcDbEntity
  8
CURVE
 62
   255
100
AcDbLine
 10
-45.40409481905999
 20
217.33195568033
 30
0.0
 11
-56.92164981906
 21
209.89229668033
 31
0.0
  0
LINE
  5
196
330
A
100
AcDbEntity
  8
CURVE
 62
   255
100
AcDbLine
 10
-43.00018081905999
 20
217.15560068033
 30
0.0
 11
-32.90702081906
 21
208.30361668033
 31
0.0
  0
LINE
  5
197
330
A
100
AcDbEntity
  8
CURVE
 62
   255
100
AcDbLine
 10
-45.61449481906
 20
203.51203868033
 30
0.0
 11
-57.94983781906
 21
197.57841468033
 31
0.0
  0
LINE
  5
198
330
A
100
AcDbEntity
  8
CURVE
 62
   255
100
AcDbLine
 10
-45.61449481906
 20
203.51203868033
 30
0.0
 11
-33.40527981906
 21
199.47087568033
 31
0.0
  0
LINE
  5
199
330
A
100
AcDbEntity
  8
CURVE
 62
   255
100
AcDbLine
 10
-57.98205281906
 20
190.02167768033
 30
0.0
 11
-47.04237381906
 21
196.22357368033
 31
0.0
  0
LINE
  5
19A
330
A
100
AcDbEntity
  8
CURVE
 62
   255
100
AcDbLine
 10
-44.96456881906
 20
196.15964568033
 30
0.0
 11
-32.65254981906
 21
188.14144268033
 31
0.0
  0
LINE
  5
19B
330
A
100
AcDbEntity
  8
CURVE
 62
   255
100
AcDbLine
 10
-44.76787881906
 20
183.44512068033
 30
0.0
 11
-56.95318381906
 21
176.53401768033
 31
0.0
  0
LINE
  5
19C
330
A
100
AcDbEntity
  8
CURVE
 62
   255
100
AcDbLine
 10
-44.76787881906
 20
183.44512068033
 30
0.0
 11
-31.59912981906
 21
179.69209168033
 31
0.0
  0
LINE
  5
19D
330
A
100
AcDbEntity
  8
CURVE
 62
   255
100
AcDbLine
 10
-45.30517781906
 20
176.93240268033
 30
0.0
 11
-55.81400981906
 21
169.65278468033
 31
0.0
  0
LINE
  5
19E
330
A
100
AcDbEntity
  8
CURVE
 62
   255
100
AcDbLine
 10
-40.76675281906
 20
165.05447668033
 30
0.0
 11
-52.43160781905999
 21
156.36234868033
 31
0.0
  0
LINE
  5
19F
330
A
100
AcDbEntity
  8
CURVE
 62
   255
100
AcDbLine
 10
-40.76675281906
 20
165.05447668033
 30
0.0
 11
-27.28624781906
 21
161.75002768033
 31
0.0
  0
LINE
  5
1A0
330
A
100
AcDbEntity
  8
CURVE
 62
   255
100
AcDbLine
 10
-43.14516681906
 20
177.00800368033
 30
0.0
 11
-29.09541381906
 21
168.66527768033
 31
0.0
  0
LINE
  5
1A1
330
A
100
AcDbEntity
  8
CURVE
 62
   255
100
AcDbLine
 10
-50.29744881906
 20
150.11624968033
 30
0.0
 11
-39.84394781906
 21
158.41003568033
 31
0.0
  0
LINE
  5
1A2
330
A
100
AcDbEntity
  8
CURVE
 62
   255
100
AcDbLine
 10
-35.51677381906
 20
146.51087268033
 30
0.0
 11
-21.47357381906
 21
143.15895468033
 31
0.0
  0
LINE
  5
1A3
330
A
100
AcDbEntity
  8
CURVE
 62
   255
100
AcDbLine
 10
-45.63402081906
 20
138.70049568033
 30
0.0
 11
-35.51677381906
 21
146.51087268033
 31
0.0
  0
LINE
  5
1A4
330
A
100
AcDbEntity
  8
CURVE
 62
   255
100
AcDbLine
 10
-37.64238481906
 20
158.59862668033
 30
0.0
 11
-23.81362081906
 21
151.04762168033
 31
0.0
  0
ARC
  5
1A5
330
A
100
AcDbEntity
  8
CURVE
 62
   255
100
AcDbCircle
 10
-0.4531348190601001
 20
43.53280268033
 30
0.0
 40
43.03995224695973
100
AcDbArc
 50
245.1587790477503
 51
295.6245933010496
  0
ARC
  5
1A6
330
A
100
AcDbEntity
  8
CURVE
 62
   255
100
AcDbCircle
 10
-0.71285281906012
 20
59.40496368033
 30
0.0
 40
51.54928436146949
100
AcDbArc
 50
252.4146293337573
 51
288.6637569611785
  0
ARC
  5
1A7
330
A
100
AcDbEntity
  8
CURVE
 62
   255
100
AcDbCircle
 10
-0.28479781906015
 20
65.52680468033
 30
0.0
 40
56.06723955137228
100
AcDbArc
 50
251.8677982669936
 51
289.0907881357202
  0
ARC
  5
1A8
330
A
100
AcDbEntity
  8
CURVE
 62
   255
100
AcDbCircle
 10
-0.28952381906015
 20
65.55249768033
 30
0.0
 40
46.39295503059334
100
AcDbArc
 50
251.8817602168777
 51
289.0863857259356
  0
ARC
  5
1A9
330
A
100
AcDbEntity
  8
CURVE
 62
   255
100
AcDbCircle
 10
-0.37893981906007
 20
89.69604368033001
 30
0.0
 40
10.46359741315504
100
AcDbArc
 50
242.4278766588685
 51
293.7557967990218
  0
ARC
  5
1AA
330
A
100
AcDbEntity
  8
CURVE
 62
   255
100
AcDbCircle
 10
-0.37893981906007
 20
89.69604368033001
 30
0.0
 40
11.76359769482382
100
AcDbArc
 50
242.4278787458771
 51
293.7557963323734
  0
LINE
  5
1AB
330
A
100
AcDbEntity
  8
CURVE
 62
   255
100
AcDbLine
 10
-21.86578381906
 20
87.73054968032999
 30
0.0
 11
-14.13072581906
 21
83.650305680331
 31
0.0
  0
ARC
  5
1AC
330
A
100
AcDbEntity
  8
CURVE
 62
   255
100
AcDbCircle
 10
-1.231360819060099
 20
100.77546268033
 30
0.0
 40
44.54075368793247
100
AcDbArc
 50
260.2696423808178
 51
282.2679734143251
  0
ARC
  5
1AD
330
A
100
AcDbEntity
  8
CURVE
 62
   255
100
AcDbCircle
 10
-1.053427819060199
 20
102.73298668033
 30
0.0
 40
36.69421510583286
100
AcDbArc
 50
260.4837887073736
 51
281.4547566898456
  0
ARC
  5
1AE
330
A
100
AcDbEntity
  8
CURVE
 62
   255
100
AcDbCircle
 10
-1.130840819060199
 20
68.28365068033
 30
0.0
 40
36.12708183510032
100
AcDbArc
 50
252.1621587041108
 51
291.9290539731147
  0
ARC
  5
1AF
330
A
100
AcDbEntity
  8
CURVE
 62
   255
100
AcDbCircle
 10
-0.52302281906009
 20
72.33478268033
 30
0.0
 40
30.36061816865982
100
AcDbArc
 50
253.238273137244
 51
288.5312430025637
  0
ARC
  5
1B0
330
A
100
AcDbEntity
  8
CURVE
 62
   255
100
AcDbCircle
 10
-0.87065481906018
 20
103.89699268033
 30
0.0
 40
41.78058437787707
100
AcDbArc
 50
74.83713778345523
 51
107.5638279536984
  0
ARC
  5
1B1
330
A
100
AcDbEntity
  8
CURVE
 62
   255
100
AcDbCircle
 10
-0.5372888190601099
 20
102.70215868033
 30
0.0
 40
33.48593727137266
100
AcDbArc
 50
75.64794395870736
 51
107.4998156857683
  0
ARC
  5
1B2
330
A
100
AcDbEntity
  8
CURVE
 62
   255
100
AcDbCircle
 10
0.5605391809398301
 20
122.02899868033
 30
0.0
 40
44.71048587364369
100
AcDbArc
 50
74.89749422267731
 51
115.8075866878791
  0
ARC
  5
1B3
330
A
100
AcDbEntity
  8
CURVE
 62
   255
100
AcDbCircle
 10
0.5605391809398301
 20
122.02899868033
 30
0.0
 40
35.21048562314235
100
AcDbArc
 50
74.89749418322296
 51
115.8075867608013
  0
SPLINE
  5
1B4
330
A
100
AcDbEntity
  8
CURVE
 62
   255
100
AcDbSpline
210
0.0
220
0.0
230
1.0
 70
     8
 71
     3
 72
     8
 73
     4
 74
     0
 42
0.0000000001
 43
0.0000000001
 40
0.0
 40
0.0
 40
0.0
 40
0.0
 40
1.0
 40
1.0
 40
1.0
 40
1.0
 10
-19.01706381906
 20
244.38330768033
 30
0.0
 10
-19.50507648572666
 20
244.21810368033
 30
0.0
 10
-20.00985581968339
 20
244.043790681178
 30
0.0
 10
-20.22342281906
 20
243.61596768033
 30
0.0
  0
SPLINE
  5
1B5
330
A
100
AcDbEntity
  8
CURVE
 62
   255
100
AcDbSpline
210
0.0
220
0.0
230
1.0
 70
     8
 71
     3
 72
     8
 73
     4
 74
     0
 42
0.0000000001
 43
0.0000000001
 40
1.0
 40
1.0
 40
1.0
 40
1.0
 40
2.0
 40
2.0
 40
2.0
 40
2.0
 10
-20.22342281906
 20
243.61596768033
 30
0.0
 10
-20.35887781906
 20
243.3446206803299
 30
0.0
 10
-20.21345448572666
 20
243.0341400136633
 30
0.0
 10
-20.01022381906
 20
242.77458968033
 30
0.0
  0
SPLINE
  5
1B6
330
A
100
AcDbEntity
  8
CURVE
 62
   255
100
AcDbSpline
210
0.0
220
0.0
230
1.0
 70
     8
 71
     3
 72
     8
 73
     4
 74
     0
 42
0.0000000001
 43
0.0000000001
 40
0.0
 40
0.0
 40
0.0
 40
0.0
 40
1.0
 40
1.0
 40
1.0
 40
1.0
 10
-23.12722881906
 20
243.03662268033
 30
0.0
 10
-22.74766881906
 20
243.1314963469967
 30
0.0
 10
-22.36881857782515
 20
243.2558604038672
 30
0.0
 10
-21.99170981906
 20
243.19042268033
 30
0.0
  0
SPLINE
  5
1B7
330
A
100
AcDbEntity
  8
CURVE
 62
   255
100
AcDbSpline
210
0.0
220
0.0
230
1.0
 70
     8
 71
     3
 72
     8
 73
     4
 74
     0
 42
0.0000000001
 43
0.0000000001
 40
1.0
 40
1.0
 40
1.0
 40
1.0
 40
2.0
 40
2.0
 40
2.0
 40
2.0
 10
-21.99170981906
 20
243.19042268033
 30
0.0
 10
-21.64338881906
 20
243.1299803469966
 30
0.0
 10
-21.44938841517577
 20
242.7750643698642
 30
0.0
 10
-21.43670181906
 20
242.39902668033
 30
0.0
  0
LINE
  5
1B8
330
A
100
AcDbEntity
  8
CURVE
 62
   255
100
AcDbLine
 10
-21.43670181906
 20
242.39902668033
 30
0.0
 11
-21.43335781906
 21
242.29990868033
 31
0.0
  0
ARC
  5
1B9
330
A
100
AcDbEntity
  8
CURVE
 62
   255
100
AcDbCircle
 10
-21.4679683638189
 20
243.3591080137176
 30
0.0
 40
1.690308270280012
100
AcDbArc
 50
150.2868959182854
 51
190.9985949496175
  0
ARC
  5
1BA
330
A
100
AcDbEntity
  8
CURVE
 62
   255
100
AcDbCircle
 10
-20.32250261132329
 20
242.0397426670049
 30
0.0
 40
3.388798638931392
100
AcDbArc
 50
108.0563252222732
 51
140.4640996605799
  0
SPLINE
  5
1BB
330
A
100
AcDbEntity
  8
CURVE
 62
   255
100
AcDbSpline
210
0.0
220
0.0
230
1.0
 70
     8
 71
     3
 72
     8
 73
     4
 74
     0
 42
0.0000000001
 43
0.0000000001
 40
2.0
 40
2.0
 40
2.0
 40
2.0
 40
3.0
 40
3.0
 40
3.0
 40
3.0
 10
-21.37286681906
 20
245.26165068033
 30
0.0
 10
-20.62983548572667
 20
245.503884013663
 30
0.0
 10
-19.80475548572666
 20
245.470694013663
 30
0.0
 10
-19.30362681906
 20
244.93870868033
 30
0.0
  0
ARC
  5
1BC
330
A
100
AcDbEntity
  8
CURVE
 62
   255
100
AcDbCircle
 10
-20.40081887557308
 20
244.0209747494744
 30
0.0
 40
1.430407626069935
100
AcDbArc
 50
14.67331767132802
 51
39.91041644781807
  0
SPLINE
  5
1BD
330
A
100
AcDbEntity
  8
CURVE
 62
   255
100
AcDbSpline
210
0.0
220
0.0
230
1.0
 70
     8
 71
     3
 72
     8
 73
     4
 74
     0
 42
0.0000000001
 43
0.0000000001
 40
0.0
 40
0.0
 40
0.0
 40
0.0
 40
1.0
 40
1.0
 40
1.0
 40
1.0
 10
-4.660921819060099
 20
38.04131268033
 30
0.0
 10
-5.3272018190601
 20
38.16034268033001
 30
0.0
 10
-6.005746029932564
 20
38.2561957817682
 30
0.0
 10
-6.580075819060099
 20
38.597003680331
 30
0.0
  0
SPLINE
  5
1BE
330
A
100
AcDbEntity
  8
CURVE
 62
   255
100
AcDbSpline
210
0.0
220
0.0
230
1.0
 70
     8
 71
     3
 72
     8
 73
     4
 74
     0
 42
0.0000000001
 43
0.0000000001
 40
1.0
 40
1.0
 40
1.0
 40
1.0
 40
2.0
 40
2.0
 40
2.0
 40
2.0
 10
-6.580075819060099
 20
38.597003680331
 30
0.0
 10
-7.060263152393432
 20
38.88194734699752
 30
0.0
 10
-7.513147152393437
 20
39.24264234699754
 30
0.0
 10
-7.585707819060099
 20
39.76520168033
 30
0.0
  0
ARC
  5
1BF
330
A
100
AcDbEntity
  8
CURVE
 62
   255
100
AcDbCircle
 10
-5.357378977519715
 20
39.90920842490164
 30
0.0
 40
2.232977243171732
100
AcDbArc
 50
147.3529201683368
 51
183.6976233646344
  0
ARC
  5
1C0
330
A
100
AcDbEntity
  8
CURVE
 62
   255
100
AcDbCircle
 10
-12.33710409771745
 20
49.98914991830881
 30
0.0000000000000284
 40
10.51962937320881
100
AcDbArc
 50
263.1888822609725
 51
273.8176608556622
  0
ARC
  5
1C1
330
A
100
AcDbEntity
  8
CURVE
 62
   255
100
AcDbCircle
 10
-11.67170561472051
 20
40.87145265085648
 30
0.0
 40
1.379033544024162
100
AcDbArc
 50
271.4549017556509
 51
336.9636319504154
  0
SPLINE
  5
1C2
330
A
100
AcDbEntity
  8
CURVE
 62
   255
100
AcDbSpline
210
0.0
220
0.0
230
1.0
 70
     8
 71
     3
 72
     8
 73
     4
 74
     0
 42
0.0000000001
 43
0.0000000001
 40
2.0
 40
2.0
 40
2.0
 40
2.0
 40
3.0
 40
3.0
 40
3.0
 40
3.0
 10
-10.40264081906
 20
40.33181568033
 30
0.0
 10
-10.22907481906
 20
40.73999101366327
 30
0.0
 10
-10.28164148572668
 20
41.20016568032994
 30
0.0
 10
-10.33015281906
 20
41.65176468032999
 30
0.0
  0
SPLINE
  5
1C3
330
A
100
AcDbEntity
  8
CURVE
 62
   255
100
AcDbSpline
210
0.0
220
0.0
230
1.0
 70
     8
 71
     3
 72
     8
 73
     4
 74
     0
 42
0.0000000001
 43
0.0000000001
 40
0.0
 40
0.0
 40
0.0
 40
0.0
 40
1.0
 40
1.0
 40
1.0
 40
1.0
 10
-13.58469681906
 20
39.54376268033
 30
0.0
 10
-13.56459781906
 20
38.86357168033
 30
0.0
 10
-13.48351216864441
 20
38.17753433716251
 30
0.0
 10
-13.13661981906
 20
37.60428868033
 30
0.0
  0
SPLINE
  5
1C4
330
A
100
AcDbEntity
  8
CURVE
 62
   255
100
AcDbSpline
210
0.0
220
0.0
230
1.0
 70
     8
 71
     3
 72
     8
 73
     4
 74
     0
 42
0.0000000001
 43
0.0000000001
 40
1.0
 40
1.0
 40
1.0
 40
1.0
 40
2.0
 40
2.0
 40
2.0
 40
2.0
 10
-13.13661981906
 20
37.60428868033
 30
0.0
 10
-12.48531615239336
 20
36.52799801366344
 30
0.0
 10
-11.28100601341291
 20
35.95750465701455
 30
0.0
 10
-10.03510881906
 20
35.59942268033
 30
0.0
  0
SPLINE
  5
1C5
330
A
100
AcDbEntity
  8
CURVE
 62
   255
100
AcDbSpline
210
0.0
220
0.0
230
1.0
 70
     8
 71
     3
 72
     8
 73
     4
 74
     0
 42
0.0000000001
 43
0.0000000001
 40
2.0
 40
2.0
 40
2.0
 40
2.0
 40
3.0
 40
3.0
 40
3.0
 40
3.0
 10
-10.03510881906
 20
35.59942268033
 30
0.0
 10
-8.467535152393333
 20
35.1488880136634
 30
0.0
 10
-6.752405045209594
 20
35.22577765424994
 30
0.0
 10
-5.5506338190601
 20
36.25247268033
 30
0.0
  0
ARC
  5
1C6
330
A
100
AcDbEntity
  8
CURVE
 62
   255
100
AcDbCircle
 10
-7.101604604256785
 20
38.1079365656156
 30
-0.0000000000000071
 40
2.418316895308132
100
AcDbArc
 50
309.8920420070525
 51
350.5187732580383
  0
LINE
  5
1C7
330
A
100
AcDbEntity
  8
CURVE
 62
   255
100
AcDbLine
 10
-4.716322819060099
 20
37.70958068033
 30
0.0
 11
-4.660921819060099
 21
38.04131168033
 31
0.0
  0
SPLINE
  5
1C8
330
A
100
AcDbEntity
  8
CURVE
 62
   255
100
AcDbSpline
210
0.0
220
0.0
230
1.0
 70
     8
 71
     3
 72
     8
 73
     4
 74
     0
 42
0.0000000001
 43
0.0000000001
 40
0.0
 40
0.0
 40
0.0
 40
0.0
 40
1.0
 40
1.0
 40
1.0
 40
1.0
 10
-2.0352688190601
 20
61.32990668032999
 30
0.0
 10
-2.7015488190601
 20
61.44893668033001
 30
0.0
 10
-3.380093029932561
 20
61.54478978176819
 30
0.0
 10
-3.954422819060099
 20
61.885597680331
 30
0.0
  0
SPLINE
  5
1C9
330
A
100
AcDbEntity
  8
CURVE
 62
   255
100
AcDbSpline
210
0.0
220
0.0
230
1.0
 70
     8
 71
     3
 72
     8
 73
     4
 74
     0
 42
0.0000000001
 43
0.0000000001
 40
1.0
 40
1.0
 40
1.0
 40
1.0
 40
2.0
 40
2.0
 40
2.0
 40
2.0
 10
-3.954422819060099
 20
61.885597680331
 30
0.0
 10
-4.434610152393433
 20
62.17054134699752
 30
0.0
 10
-4.887494152393423
 20
62.53123634699754
 30
0.0
 10
-4.9600548190601
 20
63.05379568033
 30
0.0
  0
ARC
  5
1CA
330
A
100
AcDbEntity
  8
CURVE
 62
   255
100
AcDbCircle
 10
-2.731725977520022
 20
63.1978024249017
 30
0.0
 40
2.23297724317143
100
AcDbArc
 50
147.352920168334
 51
183.6976233646366
  0
ARC
  5
1CB
330
A
100
AcDbEntity
  8
CURVE
 62
   255
100
AcDbCircle
 10
-9.711455548976935
 20
73.27757356004752
 30
0.0000000000000284
 40
10.51945968935595
100
AcDbArc
 50
263.1887962907048
 51
273.8177468259887
  0
ARC
  5
1CC
330
A
100
AcDbEntity
  8
CURVE
 62
   255
100
AcDbCircle
 10
-9.046055450382969
 20
64.1600501787262
 30
0.0
 40
1.379037142756044
100
AcDbArc
 50
271.4550158112857
 51
336.9635814014108
  0
SPLINE
  5
1CD
330
A
100
AcDbEntity
  8
CURVE
 62
   255
100
AcDbSpline
210
0.0
220
0.0
230
1.0
 70
     8
 71
     3
 72
     8
 73
     4
 74
     0
 42
0.0000000001
 43
0.0000000001
 40
2.0
 40
2.0
 40
2.0
 40
2.0
 40
3.0
 40
3.0
 40
3.0
 40
3.0
 10
-7.776987819060099
 20
63.62041068033
 30
0.0
 10
-7.603421819060106
 20
64.02858501366326
 30
0.0
 10
-7.655988485726775
 20
64.48875968032993
 30
0.0
 10
-7.704499819060099
 20
64.94035868032999
 30
0.0
  0
SPLINE
  5
1CE
330
A
100
AcDbEntity
  8
CURVE
 62
   255
100
AcDbSpline
210
0.0
220
0.0
230
1.0
 70
     8
 71
     3
 72
     8
 73
     4
 74
     0
 42
0.0000000001
 43
0.0000000001
 40
0.0
 40
0.0
 40
0.0
 40
0.0
 40
1.0
 40
1.0
 40
1.0
 40
1.0
 10
-10.95904381906
 20
62.83235668033
 30
0.0
 10
-10.93894481906
 20
62.15216568033
 30
0.0
 10
-10.8578591686444
 20
61.46612833716251
 30
0.0
 10
-10.51096681906
 20
60.89288268033
 30
0.0
  0
SPLINE
  5
1CF
330
A
100
AcDbEntity
  8
CURVE
 62
   255
100
AcDbSpline
210
0.0
220
0.0
230
1.0
 70
     8
 71
     3
 72
     8
 73
     4
 74
     0
 42
0.0000000001
 43
0.0000000001
 40
1.0
 40
1.0
 40
1.0
 40
1.0
 40
2.0
 40
2.0
 40
2.0
 40
2.0
 10
-10.51096681906
 20
60.89288268033
 30
0.0
 10
-9.859663152393366
 20
59.8165920136634
 30
0.0
 10
-8.655353013412916
 20
59.24609865701452
 30
0.0
 10
-7.4094558190601
 20
58.88801668033
 30
0.0
  0
SPLINE
  5
1D0
330
A
100
AcDbEntity
  8
CURVE
 62
   255
100
AcDbSpline
210
0.0
220
0.0
230
1.0
 70
     8
 71
     3
 72
     8
 73
     4
 74
     0
 42
0.0000000001
 43
0.0000000001
 40
2.0
 40
2.0
 40
2.0
 40
2.0
 40
3.0
 40
3.0
 40
3.0
 40
3.0
 10
-7.4094558190601
 20
58.88801668033
 30
0.0
 10
-5.841882152393433
 20
58.4374820136634
 30
0.0
 10
-4.126752045209554
 20
58.51437165424977
 30
0.0
 10
-2.924980819060099
 20
59.54106668032999
 30
0.0
  0
ARC
  5
1D1
330
A
100
AcDbEntity
  8
CURVE
 62
   255
100
AcDbCircle
 10
-4.47595160425682
 20
61.39653056561561
 30
0.0
 40
2.418316895308169
100
AcDbArc
 50
309.8920420070529
 51
350.5187732580383
  0
LINE
  5
1D2
330
A
100
AcDbEntity
  8
CURVE
 62
   255
100
AcDbLine
 10
-2.090669819060099
 20
60.99817468033
 30
0.0
 11
-2.0352688190601
 21
61.32990568033
 31
0.0
  0
SPLINE
  5
1D3
330
A
100
AcDbEntity
  8
CURVE
 62
   255
100
AcDbSpline
210
0.0
220
0.0
230
1.0
 70
     8
 71
     3
 72
     8
 73
     4
 74
     0
 42
0.0000000001
 43
0.0000000001
 40
0.0
 40
0.0
 40
0.0
 40
0.0
 40
1.0
 40
1.0
 40
1.0
 40
1.0
 10
11.25886918094
 20
18.37651268033
 30
0.0
 10
11.53343251427333
 20
17.65777801366333
 30
0.0
 10
11.71619911624394
 20
16.85487764536059
 30
0.0
 10
11.23042518094
 20
16.35191168033
 30
0.0
  0
ARC
  5
1D4
330
A
100
AcDbEntity
  8
CURVE
 62
   255
100
AcDbCircle
 10
6.872633903727439
 20
20.88974222825608
 30
0.0
 40
6.291442672189025
100
AcDbArc
 50
297.4270601700959
 51
313.8405439858012
  0
SPLINE
  5
1D5
330
A
100
AcDbEntity
  8
CURVE
 62
   255
100
AcDbSpline
210
0.0
220
0.0
230
1.0
 70
     8
 71
     3
 72
     8
 73
     4
 74
     0
 42
0.0000000001
 43
0.0000000001
 40
2.0
 40
2.0
 40
2.0
 40
2.0
 40
3.0
 40
3.0
 40
3.0
 40
3.0
 10
9.7705921809399
 20
15.30547068033
 30
0.0
 10
9.125591180939899
 20
14.97074734699667
 30
0.0
 10
8.401817180939897
 20
14.83205934699666
 30
0.0
 10
7.6899721809399
 20
14.66259368033
 30
0.0
  0
SPLINE
  5
1D6
330
A
100
AcDbEntity
  8
CURVE
 62
   255
100
AcDbSpline
210
0.0
220
0.0
230
1.0
 70
     8
 71
     3
 72
     8
 73
     4
 74
     0
 42
0.0000000001
 43
0.0000000001
 40
0.0
 40
0.0
 40
0.0
 40
0.0
 40
1.0
 40
1.0
 40
1.0
 40
1.0
 10
14.17043218094
 20
19.10629768033
 30
0.0
 10
14.38453951427333
 20
18.38099534699667
 30
0.0
 10
14.66947392277861
 20
17.64905982097771
 30
0.0
 10
15.32702018094
 20
17.39419068033
 30
0.0
  0
SPLINE
  5
1D7
330
A
100
AcDbEntity
  8
CURVE
 62
   255
100
AcDbSpline
210
0.0
220
0.0
230
1.0
 70
     8
 71
     3
 72
     8
 73
     4
 74
     0
 42
0.0000000001
 43
0.0000000001
 40
1.0
 40
1.0
 40
1.0
 40
1.0
 40
2.0
 40
2.0
 40
2.0
 40
2.0
 10
15.32702018094
 20
17.39419068033
 30
0.0
 10
15.95528551427333
 20
17.15067101366327
 30
0.0
 10
16.65338715357346
 20
17.31702057516657
 30
0.0
 10
17.33602318094
 20
17.46189168033
 30
0.0
  0
ARC
  5
1D8
330
A
100
AcDbEntity
  8
CURVE
 62
   255
100
AcDbCircle
 10
15.47377895708319
 20
26.23682990921845
 30
0.0
 40
8.970367577200832
100
AcDbArc
 50
281.9817164045122
 51
294.5043408051319
  0
ARC
  5
1D9
330
A
100
AcDbEntity
  8
CURVE
 62
   255
100
AcDbCircle
 10
11.03083282931134
 20
18.51028090301727
 30
-0.0000000000000071
 40
5.095688388603392
100
AcDbArc
 50
229.0329578880651
 51
259.2578477985654
  0
SPLINE
  5
1DA
330
A
100
AcDbEntity
  8
CURVE
 62
   255
100
AcDbSpline
210
0.0
220
0.0
230
1.0
 70
     8
 71
     3
 72
     8
 73
     4
 74
     0
 42
0.0000000001
 43
0.0000000001
 40
1.0
 40
1.0
 40
1.0
 40
1.0
 40
2.0
 40
2.0
 40
2.0
 40
2.0
 10
10.08105018094
 20
13.50388968033
 30
0.0
 10
11.12030384760666
 20
13.30672868032999
 30
0.0
 10
12.23855981161414
 20
13.51922138127152
 30
0.0
 10
13.28132318094
 20
13.79400368033
 30
0.0
  0
ARC
  5
1DB
330
A
100
AcDbEntity
  8
CURVE
 62
   255
100
AcDbCircle
 10
7.050703256719259
 20
37.02419528978783
 30
0.0
 40
24.05124584823459
100
AcDbArc
 50
285.0140568419426
 51
292.8294632904433
  0
SPLINE
  5
1DC
330
A
100
AcDbEntity
  8
CURVE
 62
   255
100
AcDbSpline
210
0.0
220
0.0
230
1.0
 70
     8
 71
     3
 72
     8
 73
     4
 74
     0
 42
0.0000000001
 43
0.0000000001
 40
3.0
 40
3.0
 40
3.0
 40
3.0
 40
4.0
 40
4.0
 40
4.0
 40
4.0
 10
16.38233618094
 20
14.85703368033
 30
0.0
 10
17.26635818094
 20
15.22917734699663
 30
0.0
 10
18.19610914893158
 20
15.67265236568604
 30
0.0
 10
18.64261818094
 20
16.43736668033
 30
0.0
  0
SPLINE
  5
1DD
330
A
100
AcDbEntity
  8
CURVE
 62
   255
100
AcDbSpline
210
0.0
220
0.0
230
1.0
 70
     8
 71
     3
 72
     8
 73
     4
 74
     0
 42
0.0000000001
 43
0.0000000001
 40
4.0
 40
4.0
 40
4.0
 40
4.0
 40
5.0
 40
5.0
 40
5.0
 40
5.0
 10
18.64261818094
 20
16.43736668033
 30
0.0
 10
18.92230284760667
 20
16.9163690136633
 30
0.0
 10
19.01238618094
 20
17.52141068032997
 30
0.0
 10
19.19434718094
 20
18.07442468033
 30
0.0
  0
SPLINE
  5
1DE
330
A
100
AcDbEntity
  8
CURVE
 62
   255
100
AcDbSpline
210
0.0
220
0.0
230
1.0
 70
     8
 71
     3
 72
     8
 73
     4
 74
     0
 42
0.0000000001
 43
0.0000000001
 40
0.0
 40
0.0
 40
0.0
 40
0.0
 40
1.0
 40
1.0
 40
1.0
 40
1.0
 10
9.452667180939899
 20
41.65927268033
 30
0.0
 10
9.605464180939899
 20
40.88808101366333
 30
0.0
 10
9.805716006137126
 20
40.09513216930708
 30
0.0
 10
10.47400818094
 20
39.87437068033
 30
0.0
  0
SPLINE
  5
1DF
330
A
100
AcDbEntity
  8
CURVE
 62
   255
100
AcDbSpline
210
0.0
220
0.0
230
1.0
 70
     8
 71
     3
 72
     8
 73
     4
 74
     0
 42
0.0000000001
 43
0.0000000001
 40
1.0
 40
1.0
 40
1.0
 40
1.0
 40
2.0
 40
2.0
 40
2.0
 40
2.0
 10
10.47400818094
 20
39.87437068033
 30
0.0
 10
11.25661251427333
 20
39.61584768032998
 30
0.0
 10
12.11896568713933
 20
39.83854776415242
 30
0.0
 10
12.79543318094
 20
40.34456368033
 30
0.0
  0
LINE
  5
1E0
330
A
100
AcDbEntity
  8
CURVE
 62
   255
100
AcDbLine
 10
12.79543318094
 20
40.34456368033
 30
0.0
 11
13.16782618094
 21
40.62312368033
 31
0.0
  0
ARC
  5
1E1
330
A
100
AcDbEntity
  8
CURVE
 62
   255
100
AcDbCircle
 10
7.74330304012752
 20
39.95620699183787
 30
0.0
 40
3.637147622318519
100
AcDbArc
 50
219.8567344035964
 51
257.1897051164737
  0
ARC
  5
1E2
330
A
100
AcDbEntity
  8
CURVE
 62
   255
100
AcDbCircle
 10
8.363238490024377
 20
41.25986189605035
 30
0.0
 40
5.055659481656165
100
AcDbArc
 50
253.6123443311861
 51
291.6460731036505
  0
SPLINE
  5
1E3
330
A
100
AcDbEntity
  8
CURVE
 62
   255
100
AcDbSpline
210
0.0
220
0.0
230
1.0
 70
     8
 71
     3
 72
     8
 73
     4
 74
     0
 42
0.0000000001
 43
0.0000000001
 40
2.0
 40
2.0
 40
2.0
 40
2.0
 40
3.0
 40
3.0
 40
3.0
 40
3.0
 10
10.22813018094
 20
36.560726680331
 30
0.0
 10
11.52362051427333
 20
37.07485301366423
 30
0.0
 10
12.72838158095896
 20
38.16777467276988
 30
0.0
 10
13.01336018094
 20
39.47746968033
 30
0.0
  0
ARC
  5
1E4
330
A
100
AcDbEntity
  8
CURVE
 62
   255
100
AcDbCircle
 10
5.966386391727304
 20
41.01083180888703
 30
0.0
 40
7.211867927461209
100
AcDbArc
 50
347.7242698527338
 51
356.918300340633
  0
ARC
  5
1E5
330
A
100
AcDbEntity
  8
CURVE
 62
   255
100
AcDbCircle
 10
4.649245871440301
 20
40.81088103808878
 30
0.0
 40
3.199896633343004
100
AcDbArc
 50
275.4155833108182
 51
303.3332771960079
  0
SPLINE
  5
1E6
330
A
100
AcDbEntity
  8
CURVE
 62
   255
100
AcDbSpline
210
0.0
220
0.0
230
1.0
 70
     8
 71
     3
 72
     8
 73
     4
 74
     0
 42
0.0000000001
 43
0.0000000001
 40
1.0
 40
1.0
 40
1.0
 40
1.0
 40
2.0
 40
2.0
 40
2.0
 40
2.0
 10
6.4076151809399
 20
38.137404680331
 30
0.0
 10
7.0182241809399
 20
38.53900768033087
 30
0.0
 10
7.596803157642375
 20
39.06173995177779
 30
0.0
 10
7.6414571809399
 20
39.75838068033
 30
0.0
  0
ARC
  5
1E7
330
A
100
AcDbEntity
  8
CURVE
 62
   255
100
AcDbCircle
 10
3.635066094355183
 20
40.01518662575779
 30
0.0
 40
4.014613160974856
100
AcDbArc
 50
356.3324112838111
 51
16.68746526272377
  0
SPLINE
  5
1E8
330
A
100
AcDbEntity
  8
CURVE
 62
   255
100
AcDbSpline
210
0.0
220
0.0
230
1.0
 70
     8
 71
     3
 72
     8
 73
     4
 74
     0
 42
0.0000000001
 43
0.0000000001
 40
0.0
 40
0.0
 40
0.0
 40
0.0
 40
1.0
 40
1.0
 40
1.0
 40
1.0
 10
6.8916541809399
 20
64.62799568033
 30
0.0
 10
6.961078514273233
 20
63.83353534699667
 30
0.0
 10
7.096464399995385
 20
63.01522017789997
 30
0.0
 10
7.751515180939899
 20
62.72683368033
 30
0.0
  0
SPLINE
  5
1E9
330
A
100
AcDbEntity
  8
CURVE
 62
   255
100
AcDbSpline
210
0.0
220
0.0
230
1.0
 70
     8
 71
     3
 72
     8
 73
     4
 74
     0
 42
0.0000000001
 43
0.0000000001
 40
1.0
 40
1.0
 40
1.0
 40
1.0
 40
2.0
 40
2.0
 40
2.0
 40
2.0
 10
7.751515180939899
 20
62.72683368033
 30
0.0
 10
8.5255591809399
 20
62.3860603469967
 30
0.0
 10
9.415363849069521
 20
62.56407929765515
 30
0.0
 10
10.16012018094
 20
63.01079468033
 30
0.0
  0
LINE
  5
1EA
330
A
100
AcDbEntity
  8
CURVE
 62
   255
100
AcDbLine
 10
10.16012018094
 20
63.01079468033
 30
0.0
 11
10.47434418094
 21
63.19927068033
 31
0.0
  0
ARC
  5
1EB
330
A
100
AcDbEntity
  8
CURVE
 62
   255
100
AcDbCircle
 10
4.686202770486761
 20
62.31745587491514
 30
0.0
 40
2.964495022888189
100
AcDbArc
 50
204.2243151260365
 51
244.3954449789559
  0
SPLINE
  5
1EC
330
A
100
AcDbEntity
  8
CURVE
 62
   255
100
AcDbSpline
210
0.0
220
0.0
230
1.0
 70
     8
 71
     3
 72
     8
 73
     4
 74
     0
 42
0.0000000001
 43
0.0000000001
 40
1.0
 40
1.0
 40
1.0
 40
1.0
 40
2.0
 40
2.0
 40
2.0
 40
2.0
 10
3.405074180939899
 20
59.64407968033
 30
0.0
 10
4.371944180939899
 20
59.18073868033004
 30
0.0
 10
5.479701209998041
 20
59.15550551776843
 30
0.0
 10
6.548710180939799
 20
59.34659268033
 30
0.0
  0
SPLINE
  5
1ED
330
A
100
AcDbEntity
  8
CURVE
 62
   255
100
AcDbSpline
210
0.0
220
0.0
230
1.0
 70
     8
 71
     3
 72
     8
 73
     4
 74
     0
 42
0.0000000001
 43
0.0000000001
 40
2.0
 40
2.0
 40
2.0
 40
2.0
 40
3.0
 40
3.0
 40
3.0
 40
3.0
 10
6.548710180939799
 20
59.34659268033
 30
0.0
 10
8.033440180939832
 20
59.61199068033003
 30
0.0
 10
9.488647830448629
 20
60.33080271775826
 30
0.0
 10
10.04389418094
 20
61.68143268032999
 30
0.0
  0
ARC
  5
1EE
330
A
100
AcDbEntity
  8
CURVE
 62
   255
100
AcDbCircle
 10
3.613247323522224
 20
64.3250829012101
 30
0.0
 40
6.952848732366935
100
AcDbArc
 50
337.6523501249494
 51
350.6815760885211
  0
ARC
  5
1EF
330
A
100
AcDbEntity
  8
CURVE
 62
   255
100
AcDbCircle
 10
2.052846963613194
 20
64.20368802688031
 30
0.0
 40
3.103386250467553
100
AcDbArc
 50
268.7056098615407
 51
299.3686044854268
  0
SPLINE
  5
1F0
330
A
100
AcDbEntity
  8
CURVE
 62
   255
100
AcDbSpline
210
0.0
220
0.0
230
1.0
 70
     8
 71
     3
 72
     8
 73
     4
 74
     0
 42
0.0000000001
 43
0.0000000001
 40
1.0
 40
1.0
 40
1.0
 40
1.0
 40
2.0
 40
2.0
 40
2.0
 40
2.0
 10
3.5748291809399
 20
61.49914068033
 30
0.0
 10
4.180944514273233
 20
61.84023168033007
 30
0.0
 10
4.773385492941593
 20
62.27846447672893
 30
0.0
 10
4.886744180939899
 20
62.93244268032999
 30
0.0
  0
ARC
  5
1F1
330
A
100
AcDbEntity
  8
CURVE
 62
   255
100
AcDbCircle
 10
0.940506505787283
 20
63.61647209128216
 30
0.0
 40
4.00508277365668
100
AcDbArc
 50
350.1662262851143
 51
10.56344517295735
  0
SPLINE
  5
1F2
330
A
100
AcDbEntity
  8
CURVE
 62
   255
100
AcDbSpline
210
0.0
220
0.0
230
1.0
 70
     8
 71
     3
 72
     8
 73
     4
 74
     0
 42
0.0000000001
 43
0.0000000001
 40
0.0
 40
0.0
 40
0.0
 40
0.0
 40
1.0
 40
1.0
 40
1.0
 40
1.0
 10
-10.95588181906
 20
18.41794668033
 30
0.0
 10
-11.04782948572667
 20
17.53160501366333
 30
0.0
 10
-11.0366576215004
 20
16.60494485956204
 30
0.0
 10
-10.40383381906
 20
16.07543068033
 30
0.0
  0
SPLINE
  5
1F3
330
A
100
AcDbEntity
  8
CURVE
 62
   255
100
AcDbSpline
210
0.0
220
0.0
230
1.0
 70
     8
 71
     3
 72
     8
 73
     4
 74
     0
 42
0.0000000001
 43
0.0000000001
 40
1.0
 40
1.0
 40
1.0
 40
1.0
 40
2.0
 40
2.0
 40
2.0
 40
2.0
 10
-10.40383381906
 20
16.07543068033
 30
0.0
 10
-9.747667485726633
 20
15.52638468032997
 30
0.0
 10
-8.892051279278392
 20
15.2975622953714
 30
0.0
 10
-8.030028819060099
 20
15.18029468033
 30
0.0
  0
ARC
  5
1F4
330
A
100
AcDbEntity
  8
CURVE
 62
   255
100
AcDbCircle
 10
-6.301843742082811
 20
27.884009608297
 30
0.0
 40
12.82072527711823
100
AcDbArc
 50
262.2531645806969
 51
267.016440787875
  0
SPLINE
  5
1F5
330
A
100
AcDbEntity
  8
CURVE
 62
   255
100
AcDbSpline
210
0.0
220
0.0
230
1.0
 70
     8
 71
     3
 72
     8
 73
     4
 74
     0
 42
0.0000000001
 43
0.0000000001
 40
0.0
 40
0.0
 40
0.0
 40
0.0
 40
1.0
 40
1.0
 40
1.0
 40
1.0
 10
-18.54212281906
 20
17.57831868033
 30
0.0
 10
-17.56635848572666
 20
17.32921968033
 30
0.0
 10
-16.57178951782306
 20
17.05336077758103
 30
0.0
 10
-15.64512281906
 20
17.35919468033
 30
0.0
  0
SPLINE
  5
1F6
330
A
100
AcDbEntity
  8
CURVE
 62
   255
100
AcDbSpline
210
0.0
220
0.0
230
1.0
 70
     8
 71
     3
 72
     8
 73
     4
 74
     0
 42
0.0000000001
 43
0.0000000001
 40
1.0
 40
1.0
 40
1.0
 40
1.0
 40
2.0
 40
2.0
 40
2.0
 40
2.0
 10
-15.64512281906
 20
17.35919468033
 30
0.0
 10
-15.17439115239333
 20
17.51455334699663
 30
0.0
 10
-14.72646732559625
 20
17.78079232041311
 30
0.0
 10
-14.55887681906
 20
18.22934568033
 30
0.0
  0
ARC
  5
1F7
330
A
100
AcDbEntity
  8
CURVE
 62
   255
100
AcDbCircle
 10
-17.93776957353723
 20
19.49178265852905
 30
0.0
 40
3.607029715733307
100
AcDbArc
 50
339.5130820571344
 51
357.9391805528509
  0
SPLINE
  5
1F8
330
A
100
AcDbEntity
  8
CURVE
 62
   255
100
AcDbSpline
210
0.0
220
0.0
230
1.0
 70
     8
 71
     3
 72
     8
 73
     4
 74
     0
 42
0.0000000001
 43
0.0000000001
 40
0.0
 40
0.0
 40
0.0
 40
0.0
 40
1.0
 40
1.0
 40
1.0
 40
1.0
 10
-19.01022181906
 20
17.05619968033
 30
0.0
 10
-18.73134315239333
 20
16.23071534699667
 30
0.0
 10
-18.36522811094017
 20
15.42853805551989
 30
0.0
 10
-17.75265481906
 20
14.82186868033
 30
0.0
  0
SPLINE
  5
1F9
330
A
100
AcDbEntity
  8
CURVE
 62
   255
100
AcDbSpline
210
0.0
220
0.0
230
1.0
 70
     8
 71
     3
 72
     8
 73
     4
 74
     0
 42
0.0000000001
 43
0.0000000001
 40
1.0
 40
1.0
 40
1.0
 40
1.0
 40
2.0
 40
2.0
 40
2.0
 40
2.0
 10
-17.75265481906
 20
14.82186868033
 30
0.0
 10
-16.31624148572667
 20
13.3992993469967
 30
0.0
 10
-14.20200685784713
 20
13.03136979342584
 30
0.0
 10
-12.13021281906
 20
12.74258068033
 30
0.0
  0
SPLINE
  5
1FA
330
A
100
AcDbEntity
  8
CURVE
 62
   255
100
AcDbSpline
210
0.0
220
0.0
230
1.0
 70
     8
 71
     3
 72
     8
 73
     4
 74
     0
 42
0.0000000001
 43
0.0000000001
 40
2.0
 40
2.0
 40
2.0
 40
2.0
 40
3.0
 40
3.0
 40
3.0
 40
3.0
 10
-12.13021281906
 20
12.74258068033
 30
0.0
 10
-10.81256048572666
 20
12.55891201366332
 30
0.0
 10
-9.454898759105409
 20
12.53128207225517
 30
0.0
 10
-8.2774148190601
 20
13.09859068033
 30
0.0
  0
ARC
  5
1FB
330
A
100
AcDbEntity
  8
CURVE
 62
   255
100
AcDbCircle
 10
-9.193196401288812
 20
15.00804959647219
 30
0.0
 40
2.117708492400269
100
AcDbArc
 50
295.6225002756901
 51
341.2328037016838
  0
ARC
  5
1FC
330
A
100
AcDbEntity
  8
CURVE
 62
   255
100
AcDbCircle
 10
-15.46032452925858
 20
17.13755085218921
 30
0.0
 40
8.736746985300142
100
AcDbArc
 50
341.2328037016837
 51
346.3830637420558
  0
SPLINE
  5
1FD
330
A
100
AcDbEntity
  8
CURVE
 62
   255
100
AcDbSpline
210
0.0
220
0.0
230
1.0
 70
     8
 71
     3
 72
     8
 73
     4
 74
     0
 42
0.0000000001
 43
0.0000000001
 40
0.0
 40
0.0
 40
0.0
 40
0.0
 40
1.0
 40
1.0
 40
1.0
 40
1.0
 10
36.83690118094001
 20
122.18037668033
 30
0.0
 10
35.41752284760667
 20
116.65632768033
 30
0.0
 10
33.92858153872881
 20
111.1409614968571
 30
0.0
 10
33.13336318094
 20
105.49956768033
 30
0.0
  0
ARC
  5
1FE
330
A
100
AcDbEntity
  8
CURVE
 62
   255
100
AcDbCircle
 10
88.32010733630648
 20
97.96607049770001
 30
-0.0000000000000284
 40
55.69856650103815
100
AcDbArc
 50
172.2266473480292
 51
183.745033501813
  0
SPLINE
  5
1FF
330
A
100
AcDbEntity
  8
CURVE
 62
   255
100
AcDbSpline
210
0.0
220
0.0
230
1.0
 70
     8
 71
     3
 72
     8
 73
     4
 74
     0
 42
0.0000000001
 43
0.0000000001
 40
2.0
 40
2.0
 40
2.0
 40
2.0
 40
3.0
 40
3.0
 40
3.0
 40
3.0
 10
32.74048018094
 20
94.32802768032999
 30
0.0
 10
33.00254818094
 20
90.32432501366333
 30
0.0
 10
33.54198884760666
 20
86.34513001366329
 30
0.0
 10
34.01106018094
 20
82.35885568032999
 30
0.0
  0
SPLINE
  5
200
330
A
100
AcDbEntity
  8
CURVE
 62
   255
100
AcDbSpline
210
0.0
220
0.0
230
1.0
 70
     8
 71
     3
 72
     8
 73
     4
 74
     0
 42
0.0000000001
 43
0.0000000001
 40
0.0
 40
0.0
 40
0.0
 40
0.0
 40
1.0
 40
1.0
 40
1.0
 40
1.0
 10
39.03331418094
 20
124.14562968033
 30
0.0
 10
37.76821251427334
 20
118.9659003469967
 30
0.0
 10
36.56201044277988
 20
113.7687852652294
 30
0.0
 10
35.79870818094
 20
108.49485668033
 30
0.0
  0
SPLINE
  5
201
330
A
100
AcDbEntity
  8
CURVE
 62
   255
100
AcDbSpline
210
0.0
220
0.0
230
1.0
 70
     8
 71
     3
 72
     8
 73
     4
 74
     0
 42
0.0000000001
 43
0.0000000001
 40
1.0
 40
1.0
 40
1.0
 40
1.0
 40
2.0
 40
2.0
 40
2.0
 40
2.0
 10
35.79870818094
 20
108.49485668033
 30
0.0
 10
34.85564284760666
 20
101.97888068033
 30
0.0
 10
34.25909956697068
 20
95.40071176988394
 30
0.0
 10
34.86887118094
 20
88.86232468033099
 30
0.0
  0
SPLINE
  5
202
330
A
100
AcDbEntity
  8
CURVE
 62
   255
100
AcDbSpline
210
0.0
220
0.0
230
1.0
 70
     8
 71
     3
 72
     8
 73
     4
 74
     0
 42
0.0000000001
 43
0.0000000001
 40
2.0
 40
2.0
 40
2.0
 40
2.0
 40
3.0
 40
3.0
 40
3.0
 40
3.0
 10
34.86887118094
 20
88.86232468033099
 30
0.0
 10
35.21684951427333
 20
85.13106368033099
 30
0.0
 10
36.05219847946879
 20
81.46571571605822
 30
0.0
 10
37.07255818094
 20
77.85492468033
 30
0.0
  0
LINE
  5
203
330
A
100
AcDbEntity
  8
CURVE
 62
   255
100
AcDbLine
 10
37.07255818094
 20
77.85492468033
 30
0.0
 11
37.70434518094
 21
75.61919268033
 31
0.0
  0
ARC
  5
204
330
A
100
AcDbEntity
  8
CURVE
 62
   255
100
AcDbCircle
 10
93.27228444248305
 20
45.84629065186104
 30
0.0000000000000568
 40
73.0230449417336
100
AcDbArc
 50
196.3333703331341
 51
202.0776211010998
  0
ARC
  5
205
330
A
100
AcDbEntity
  8
CURVE
 62
   255
100
AcDbCircle
 10
119.3339091275819
 20
56.41696324064636
 30
0.0
 40
101.1468320303575
100
AcDbArc
 50
202.0776211010999
 51
203.7200090181989
  0
ARC
  5
206
330
A
100
AcDbEntity
  8
CURVE
 62
   255
100
AcDbCircle
 10
434.9205325215948
 20
121.6620624598895
 30
0.0
 40
423.1408493342711
100
AcDbArc
 50
190.8539013458738
 51
191.81084559857
  0
ARC
  5
207
330
A
100
AcDbEntity
  8
CURVE
 62
   255
100
AcDbCircle
 10
133.1579014618622
 20
58.56094793450068
 30
0.0
 40
114.8513163325188
100
AcDbArc
 50
191.8108455985704
 51
194.4101062157661
  0
ARC
  5
208
330
A
100
AcDbEntity
  8
CURVE
 62
   255
100
AcDbCircle
 10
231.0178476909127
 20
82.01624805309563
 30
0.0
 40
215.3967321565219
100
AcDbArc
 50
185.9164501398272
 51
188.9464365062839
  0
LINE
  5
209
330
A
100
AcDbEntity
  8
CURVE
 62
   255
100
AcDbLine
 10
18.24159918094
 20
48.51967668033
 30
0.0
 11
18.43153618094
 21
47.31316268033
 31
0.0
  0
ARC
  5
20A
330
A
100
AcDbEntity
  8
CURVE
 62
   255
100
AcDbCircle
 10
359.4754908722994
 20
95.4296277242472
 30
0.0
 40
344.5467015486366
100
AcDbArc
 50
182.5626597330463
 51
184.6788877738659
  0
LINE
  5
20B
330
A
100
AcDbEntity
  8
CURVE
 62
   255
100
AcDbLine
 10
16.07698718094
 20
67.32451768033
 30
0.0
 11
16.24338718094
 21
65.29138168033
 31
0.0
  0
ARC
  5
20C
330
A
100
AcDbEntity
  8
CURVE
 62
   255
100
AcDbCircle
 10
-129.1863488344775
 20
57.1700814898191
 30
0.0
 40
110.5712737554441
100
AcDbArc
 50
345.1395496469669
 51
349.5908203062053
  0
ARC
  5
20D
330
A
100
AcDbEntity
  8
CURVE
 62
   255
100
AcDbCircle
 10
-169.7123410973118
 20
64.61470473615875
 30
0.0
 40
151.7753811255504
100
AcDbArc
 50
349.5908203062054
 51
351.3309036588451
  0
ARC
  5
20E
330
A
100
AcDbEntity
  8
CURVE
 62
   255
100
AcDbCircle
 10
-266.2566895872449
 20
76.98440604366942
 30
0.0
 40
249.1099506325221
100
AcDbArc
 50
352.944826342724
 51
355.1998042852903
  0
LINE
  5
20F
330
A
100
AcDbEntity
  8
CURVE
 62
   255
100
AcDbLine
 10
-18.02047381906
 20
56.13857468033
 30
0.0
 11
-17.68273781906
 21
60.16040068032999
 31
0.0
  0
ARC
  5
210
330
A
100
AcDbEntity
  8
CURVE
 62
   255
100
AcDbCircle
 10
-741.8126618752848
 20
117.8614445171242
 30
0.0
 40
726.4232916957314
100
AcDbArc
 50
355.8617877296889
 51
356.4824962594578
  0
LINE
  5
211
330
A
100
AcDbEntity
  8
CURVE
 62
   255
100
AcDbLine
 10
-16.75787781906
 20
73.29285868033
 30
0.0
 11
-16.39015581906
 21
79.27506768033
 31
0.0
  0
ARC
  5
212
330
A
100
AcDbEntity
  8
CURVE
 62
   255
100
AcDbCircle
 10
-92.32965737847917
 20
45.40637625339286
 30
0.0
 40
71.82575259055115
100
AcDbArc
 50
335.0071257713651
 51
338.2166215452819
  0
ARC
  5
213
330
A
100
AcDbEntity
  8
CURVE
 62
   255
100
AcDbCircle
 10
-100.623765734365
 20
48.85227752179076
 30
0.0
 40
80.80646851456917
100
AcDbArc
 50
338.1301807938062
 51
342.3272596086698
  0
LINE
  5
214
330
A
100
AcDbEntity
  8
CURVE
 62
   255
100
AcDbLine
 10
-23.63087581906
 20
24.32106768033
 30
0.0
 11
-23.50408681906
 21
24.71900368033
 31
0.0
  0
ARC
  5
215
330
A
100
AcDbEntity
  8
CURVE
 62
   255
100
AcDbCircle
 10
-0.2089270987771314
 20
103.4028152122036
 30
0.0000000000000284
 40
21.2323107932853
100
AcDbArc
 50
66.42151247802154
 51
77.44837885475073
  0
ARC
  5
216
330
A
100
AcDbEntity
  8
CURVE
 62
   255
100
AcDbCircle
 10
26.25547878633198
 20
164.0394946651005
 30
0.0
 40
44.9278862584554
100
AcDbArc
 50
246.4215124780213
 51
251.3379056299681
  0
ARC
  5
217
330
A
100
AcDbEntity
  8
CURVE
 62
   255
100
AcDbCircle
 10
-17.95685205437428
 20
162.5610537943505
 30
0.0
 40
40.79255578943331
100
AcDbArc
 50
244.2000626178841
 51
247.7047497518022
  0
ARC
  5
218
330
A
100
AcDbEntity
  8
CURVE
 62
   255
100
AcDbCircle
 10
-29.78171519835393
 20
132.8277067666599
 30
0.0
 40
8.802473252409601
100
AcDbArc
 50
245.4952184525114
 51
267.6548904050144
  0
ARC
  5
219
330
A
100
AcDbEntity
  8
CURVE
 62
   255
100
AcDbCircle
 10
-29.29366230657143
 20
166.0630862524549
 30
0.0
 40
42.03903902689606
100
AcDbArc
 50
268.843844396396
 51
274.3166759049629
  0
SPLINE
  5
21A
330
A
100
AcDbEntity
  8
CURVE
 62
   255
100
AcDbSpline
210
0.0
220
0.0
230
1.0
 70
     8
 71
     3
 72
     8
 73
     4
 74
     0
 42
0.0000000001
 43
0.0000000001
 40
3.0
 40
3.0
 40
3.0
 40
3.0
 40
4.0
 40
4.0
 40
4.0
 40
4.0
 10
-26.12942781906
 20
124.14330068033
 30
0.0
 10
-24.06152948572667
 20
124.2993920136633
 30
0.0
 10
-21.97397244308182
 20
124.4586254042961
 30
0.0
 10
-19.96737881906
 20
123.99439968033
 30
0.0
  0
ARC
  5
21B
330
A
100
AcDbEntity
  8
CURVE
 62
   255
100
AcDbCircle
 10
-23.49118018374865
 20
108.762935791827
 30
0.0
 40
15.63376692433885
100
AcDbArc
 50
67.91804013397637
 51
76.97378624646056
  0
SPLINE
  5
21C
330
A
100
AcDbEntity
  8
CURVE
 62
   255
100
AcDbSpline
210
0.0
220
0.0
230
1.0
 70
     8
 71
     3
 72
     8
 73
     4
 74
     0
 42
0.0000000001
 43
0.0000000001
 40
0.0
 40
0.0
 40
0.0
 40
0.0
 40
1.0
 40
1.0
 40
1.0
 40
1.0
 10
-37.14747581906
 20
125.10680268033
 30
0.0
 10
-34.89212048572666
 20
123.9707393469966
 30
0.0
 10
-32.58270479239893
 20
122.8799767783748
 30
0.0
 10
-30.09339781906
 20
122.72612668033
 30
0.0
  0
SPLINE
  5
21D
330
A
100
AcDbEntity
  8
CURVE
 62
   255
100
AcDbSpline
210
0.0
220
0.0
230
1.0
 70
     8
 71
     3
 72
     8
 73
     4
 74
     0
 42
0.0000000001
 43
0.0000000001
 40
1.0
 40
1.0
 40
1.0
 40
1.0
 40
2.0
 40
2.0
 40
2.0
 40
2.0
 10
-30.09339781906
 20
122.72612668033
 30
0.0
 10
-26.51895915239334
 20
122.50521068033
 30
0.0
 10
-22.92045010644172
 20
123.5143075083205
 30
0.0
 10
-19.53269181906
 20
122.54933468033
 30
0.0
  0
SPLINE
  5
21E
330
A
100
AcDbEntity
  8
CURVE
 62
   255
100
AcDbSpline
210
0.0
220
0.0
230
1.0
 70
     8
 71
     3
 72
     8
 73
     4
 74
     0
 42
0.0000000001
 43
0.0000000001
 40
2.0
 40
2.0
 40
2.0
 40
2.0
 40
3.0
 40
3.0
 40
3.0
 40
3.0
 10
-19.53269181906
 20
122.54933468033
 30
0.0
 10
-17.99173915239333
 20
122.1104080136633
 30
0.0
 10
-16.5729021518341
 20
121.2520717701314
 30
0.0
 10
-15.00068781906
 20
121.24228068033
 30
0.0
  0
SPLINE
  5
21F
330
A
100
AcDbEntity
  8
CURVE
 62
   255
100
AcDbSpline
210
0.0
220
0.0
230
1.0
 70
     8
 71
     3
 72
     8
 73
     4
 74
     0
 42
0.0000000001
 43
0.0000000001
 40
3.0
 40
3.0
 40
3.0
 40
3.0
 40
4.0
 40
4.0
 40
4.0
 40
4.0
 10
-15.00068781906
 20
121.24228068033
 30
0.0
 10
-13.19281581906
 20
121.2310220136632
 30
0.0
 10
-11.47612686606383
 20
121.9496680383123
 30
0.0
 10
-9.695694819060099
 20
122.36717468033
 30
0.0
  0
ARC
  5
220
330
A
100
AcDbEntity
  8
CURVE
 62
   255
100
AcDbCircle
 10
-0.769554986249446
 20
82.27686912241779
 30
0.0
 40
41.07199255017529
100
AcDbArc
 50
89.25264182008655
 51
102.5522073921673
  0
ARC
  5
221
330
A
100
AcDbEntity
  8
CURVE
 62
   255
100
AcDbCircle
 10
-0.3211556569995881
 20
103.1392592784786
 30
0.0000000000000142
 40
20.20629708841759
100
AcDbArc
 50
69.50351323564212
 51
89.75239176081592
  0
SPLINE
  5
222
330
A
100
AcDbEntity
  8
CURVE
 62
   255
100
AcDbSpline
210
0.0
220
0.0
230
1.0
 70
     8
 71
     3
 72
     8
 73
     4
 74
     0
 42
0.0000000001
 43
0.0000000001
 40
6.0
 40
6.0
 40
6.0
 40
6.0
 40
7.0
 40
7.0
 40
7.0
 40
7.0
 10
6.7540781809399
 20
122.06636968033
 30
0.0
 10
9.067455514273234
 20
121.2015950136634
 30
0.0
 10
11.26144351204156
 20
119.9649883145042
 30
0.0
 10
13.68887218094
 20
119.79826568033
 30
0.0
  0
SPLINE
  5
223
330
A
100
AcDbEntity
  8
CURVE
 62
   255
100
AcDbSpline
210
0.0
220
0.0
230
1.0
 70
     8
 71
     3
 72
     8
 73
     4
 74
     0
 42
0.0000000001
 43
0.0000000001
 40
7.0
 40
7.0
 40
7.0
 40
7.0
 40
8.0
 40
8.0
 40
8.0
 40
8.0
 10
13.68887218094
 20
119.79826568033
 30
0.0
 10
15.9692048476067
 20
119.6416460136632
 30
0.0
 10
18.17428792154832
 20
120.5628933206023
 30
0.0
 10
20.47598218094
 20
120.73337268033
 30
0.0
  0
ARC
  5
224
330
A
100
AcDbEntity
  8
CURVE
 62
   255
100
AcDbCircle
 10
21.32398913023378
 20
108.5649734563618
 30
0.0
 40
12.19791193032321
100
AcDbArc
 50
74.4758998669976
 51
93.98645627523812
  0
SPLINE
  5
225
330
A
100
AcDbEntity
  8
CURVE
 62
   255
100
AcDbSpline
210
0.0
220
0.0
230
1.0
 70
     8
 71
     3
 72
     8
 73
     4
 74
     0
 42
0.0000000001
 43
0.0000000001
 40
9.0
 40
9.0
 40
9.0
 40
9.0
 40
10.0
 40
10.0
 40
10.0
 40
10.0
 10
24.58868318094
 20
120.31788068033
 30
0.0
 10
26.13009151427333
 20
119.8897120136634
 30
0.0
 10
27.66212584623177
 20
119.3818229403457
 30
0.0
 10
29.24783218094
 20
119.39020768033
 30
0.0
  0
SPLINE
  5
226
330
A
100
AcDbEntity
  8
CURVE
 62
   255
100
AcDbSpline
210
0.0
220
0.0
230
1.0
 70
     8
 71
     3
 72
     8
 73
     4
 74
     0
 42
0.0000000001
 43
0.0000000001
 40
10.0
 40
10.0
 40
10.0
 40
10.0
 40
11.0
 40
11.0
 40
11.0
 40
11.0
 10
29.24783218094
 20
119.39020768033
 30
0.0
 10
32.54365684760667
 20
119.4076350136633
 30
0.0
 10
35.6309860099722
 20
120.9369936909226
 30
0.0
 10
38.06793418094
 20
123.22091968033
 30
0.0
  0
ARC
  5
227
330
A
100
AcDbEntity
  8
CURVE
 62
   255
100
AcDbCircle
 10
2.840086081047616
 20
160.8090203422257
 30
0.0
 40
51.51569268793631
100
AcDbArc
 50
313.1434674518156
 51
316.7021056241354
  0
SPLINE
  5
228
330
A
100
AcDbEntity
  8
CURVE
 62
   255
100
AcDbSpline
210
0.0
220
0.0
230
1.0
 70
     8
 71
     3
 72
     8
 73
     4
 74
     0
 42
0.0000000001
 43
0.0000000001
 40
0.0
 40
0.0
 40
0.0
 40
0.0
 40
1.0
 40
1.0
 40
1.0
 40
1.0
 10
-37.31419381906
 20
125.61906268033
 30
0.0
 10
-34.87243381906
 20
118.1537180136633
 30
0.0
 10
-32.50304980694334
 20
110.6078196769213
 30
0.0
 10
-32.42031381906
 20
102.81123968033
 30
0.0
  0
SPLINE
  5
229
330
A
100
AcDbEntity
  8
CURVE
 62
   255
100
AcDbSpline
210
0.0
220
0.0
230
1.0
 70
     8
 71
     3
 72
     8
 73
     4
 74
     0
 42
0.0000000001
 43
0.0000000001
 40
1.0
 40
1.0
 40
1.0
 40
1.0
 40
2.0
 40
2.0
 40
2.0
 40
2.0
 10
-32.42031381906
 20
102.81123968033
 30
0.0
 10
-32.35767115239337
 20
96.90814268033001
 30
0.0
 10
-33.27737101164781
 20
91.04730745626573
 30
0.0
 10
-34.34223081905998
 20
85.22630768033
 30
0.0
  0
ARC
  5
22A
330
A
100
AcDbEntity
  8
CURVE
 62
   255
100
AcDbCircle
 10
-582.3523973633391
 20
185.4760968692406
 30
0.0
 40
557.104265706438
100
AcDbArc
 50
349.0876493328932
 51
349.6332699954288
  0
SPLINE
  5
22B
330
A
100
AcDbEntity
  8
CURVE
 62
   255
100
AcDbSpline
210
0.0
220
0.0
230
1.0
 70
     8
 71
     3
 72
     8
 73
     4
 74
     0
 42
0.0000000001
 43
0.0000000001
 40
0.0
 40
0.0
 40
0.0
 40
0.0
 40
1.0
 40
1.0
 40
1.0
 40
1.0
 10
-21.86596681906
 20
87.73095668032999
 30
0.0
 10
-23.10999215239333
 20
88.23808768033
 30
0.0
 10
-24.38893182828235
 20
88.69327953605083
 30
0.0
 10
-25.71738681906
 20
88.66982668033001
 30
0.0
  0
SPLINE
  5
22C
330
A
100
AcDbEntity
  8
CURVE
 62
   255
100
AcDbSpline
210
0.0
220
0.0
230
1.0
 70
     8
 71
     3
 72
     8
 73
     4
 74
     0
 42
0.0000000001
 43
0.0000000001
 40
1.0
 40
1.0
 40
1.0
 40
1.0
 40
2.0
 40
2.0
 40
2.0
 40
2.0
 10
-25.71738681906
 20
88.66982668033001
 30
0.0
 10
-27.83187481906
 20
88.63249701366333
 30
0.0
 10
-29.80995547210657
 20
87.66305666698359
 30
0.0
 10
-31.30098681906
 20
86.14144568032999
 30
0.0
  0
SPLINE
  5
22D
330
A
100
AcDbEntity
  8
CURVE
 62
   255
100
AcDbSpline
210
0.0
220
0.0
230
1.0
 70
     8
 71
     3
 72
     8
 73
     4
 74
     0
 42
0.0000000001
 43
0.0000000001
 40
2.0
 40
2.0
 40
2.0
 40
2.0
 40
3.0
 40
3.0
 40
3.0
 40
3.0
 10
-31.30098681906
 20
86.14144568032999
 30
0.0
 10
-32.87596615239327
 20
84.5341650136633
 30
0.0
 10
-33.9290002344977
 20
82.50371144354271
 30
0.0
 10
-34.86756981906
 20
80.43859468033099
 30
0.0
  0
ARC
  5
22E
330
A
100
AcDbEntity
  8
CURVE
 62
   255
100
AcDbCircle
 10
40.27848160640359
 20
46.2856598321317
 30
0.0
 40
82.54303122362156
100
AcDbArc
 50
155.558801160391
 51
159.2966119924134
  0
ARC
  5
22F
330
A
100
AcDbEntity
  8
CURVE
 62
   255
100
AcDbCircle
 10
-7.324707021303545
 20
111.325428348547
 30
0.0
 40
4.507703680954059
100
AcDbArc
 50
108.0183207509419
 51
121.9706097299026
  0
SPLINE
  5
230
330
A
100
AcDbEntity
  8
CURVE
 62
   255
100
AcDbSpline
210
0.0
220
0.0
230
1.0
 70
     8
 71
     3
 72
     8
 73
     4
 74
     0
 42
0.0000000001
 43
0.0000000001
 40
0.0
 40
0.0
 40
0.0
 40
0.0
 40
1.0
 40
1.0
 40
1.0
 40
1.0
 10
-9.711464819060099
 20
115.14940268033
 30
0.0
 10
-11.6110198190601
 20
113.9523900136633
 30
0.0
 10
-12.25735054190678
 20
111.5744953192173
 30
0.0
 10
-12.30877381906
 20
109.21031168033
 30
0.0
  0
SPLINE
  5
231
330
A
100
AcDbEntity
  8
CURVE
 62
   255
100
AcDbSpline
210
0.0
220
0.0
230
1.0
 70
     8
 71
     3
 72
     8
 73
     4
 74
     0
 42
0.0000000001
 43
0.0000000001
 40
1.0
 40
1.0
 40
1.0
 40
1.0
 40
2.0
 40
2.0
 40
2.0
 40
2.0
 10
-12.30877381906
 20
109.21031168033
 30
0.0
 10
-12.36934181906002
 20
106.42569968033
 30
0.0
 10
-11.63546478875182
 20
103.6913662904473
 30
0.0
 10
-10.53838881906
 20
101.11318168033
 30
0.0
  0
ARC
  5
232
330
A
100
AcDbEntity
  8
CURVE
 62
   255
100
AcDbCircle
 10
17.7042888853685
 20
113.4691133015538
 30
0.0
 40
30.82722644262019
100
AcDbArc
 50
203.6289692774976
 51
218.8601596662458
  0
ARC
  5
233
330
A
100
AcDbEntity
  8
CURVE
 62
   255
100
AcDbCircle
 10
11.43741908224247
 20
108.3347199822846
 30
0.0
 40
22.72600867649208
100
AcDbArc
 50
218.6935692992084
 51
234.9864941849573
  0
SPLINE
  5
234
330
A
100
AcDbEntity
  8
CURVE
 62
   255
100
AcDbSpline
210
0.0
220
0.0
230
1.0
 70
     8
 71
     3
 72
     8
 73
     4
 74
     0
 42
0.0000000001
 43
0.0000000001
 40
4.0
 40
4.0
 40
4.0
 40
4.0
 40
5.0
 40
5.0
 40
5.0
 40
5.0
 10
-1.6020718190601
 20
89.72173668032999
 30
0.0
 10
-0.0308591523934332
 20
88.62100968032995
 30
0.0
 10
1.706191177518896
 20
87.75808099232637
 30
0.0
 10
3.5890611809399
 20
87.45619668032999
 30
0.0
  0
SPLINE
  5
235
330
A
100
AcDbEntity
  8
CURVE
 62
   255
100
AcDbSpline
210
0.0
220
0.0
230
1.0
 70
     8
 71
     3
 72
     8
 73
     4
 74
     0
 42
0.0000000001
 43
0.0000000001
 40
5.0
 40
5.0
 40
5.0
 40
5.0
 40
6.0
 40
6.0
 40
6.0
 40
6.0
 10
3.5890611809399
 20
87.45619668032999
 30
0.0
 10
4.992116514273233
 20
87.23124201366337
 30
0.0
 10
6.441485198472918
 20
87.45307023801577
 30
0.0
 10
7.5955331809399
 20
88.25607468033
 30
0.0
  0
SPLINE
  5
236
330
A
100
AcDbEntity
  8
CURVE
 62
   255
100
AcDbSpline
210
0.0
220
0.0
230
1.0
 70
     8
 71
     3
 72
     8
 73
     4
 74
     0
 42
0.0000000001
 43
0.0000000001
 40
6.0
 40
6.0
 40
6.0
 40
6.0
 40
7.0
 40
7.0
 40
7.0
 40
7.0
 10
7.5955331809399
 20
88.25607468033
 30
0.0
 10
8.760642847606566
 20
89.06677601366331
 30
0.0
 10
9.370898179294837
 20
90.43043993841058
 30
0.0
 10
9.692636180939899
 20
91.84855168033001
 30
0.0
  0
SPLINE
  5
237
330
A
100
AcDbEntity
  8
CURVE
 62
   255
100
AcDbSpline
210
0.0
220
0.0
230
1.0
 70
     8
 71
     3
 72
     8
 73
     4
 74
     0
 42
0.0000000001
 43
0.0000000001
 40
7.0
 40
7.0
 40
7.0
 40
7.0
 40
8.0
 40
8.0
 40
8.0
 40
8.0
 10
9.692636180939899
 20
91.84855168033001
 30
0.0
 10
10.06809851427323
 20
93.50346201366344
 30
0.0
 10
9.986857599162677
 20
95.22563466097457
 30
0.0
 10
9.7114601809399
 20
96.91103168033
 30
0.0
  0
ARC
  5
238
330
A
100
AcDbEntity
  8
CURVE
 62
   255
100
AcDbCircle
 10
-13.79848860396187
 20
92.76187656862658
 30
0.0
 40
23.87327334090738
100
AcDbArc
 50
10.00878484969961
 51
22.83552463070637
  0
ARC
  5
239
330
A
100
AcDbEntity
  8
CURVE
 62
   255
100
AcDbCircle
 10
-18.89854850514086
 20
90.47305506231456
 30
0.0
 40
29.46215394818203
100
AcDbArc
 50
23.0886556476303
 51
40.18808987672084
  0
ARC
  5
23A
330
A
100
AcDbEntity
  8
CURVE
 62
   255
100
AcDbCircle
 10
-14.59150124096152
 20
94.04049613251464
 30
0.0
 40
23.8698659409116
100
AcDbArc
 50
40.31784504044782
 51
55.65858979162972
  0
ARC
  5
23B
330
A
100
AcDbEntity
  8
CURVE
 62
   255
100
AcDbCircle
 10
-9.172598644186047
 20
101.6249466979473
 30
0.0
 40
14.55184456939903
100
AcDbArc
 50
56.42944986152331
 51
73.94608134266867
  0
ARC
  5
23C
330
A
100
AcDbEntity
  8
CURVE
 62
   255
100
AcDbCircle
 10
-6.941093086039412
 20
109.3795818047138
 30
0.0
 40
6.482521010690105
100
AcDbArc
 50
73.94608134266873
 51
105.6365290670896
  0
ARC
  5
23D
330
A
100
AcDbEntity
  8
CURVE
 62
   255
100
AcDbCircle
 10
-6.771735309189649
 20
110.8297787945712
 30
0.0
 40
6.524046603336141
100
AcDbArc
 50
123.830717411521
 51
152.3144042949527
  0
SPLINE
  5
23E
330
A
100
AcDbEntity
  8
CURVE
 62
   255
100
AcDbSpline
210
0.0
220
0.0
230
1.0
 70
     8
 71
     3
 72
     8
 73
     4
 74
     0
 42
0.0000000001
 43
0.0000000001
 40
1.0
 40
1.0
 40
1.0
 40
1.0
 40
2.0
 40
2.0
 40
2.0
 40
2.0
 10
-12.54884681906
 20
113.86097768033
 30
0.0
 10
-13.7198901523933
 20
111.6291056803298
 30
0.0
 10
-13.79023841122587
 20
109.0155483578377
 30
0.0
 10
-13.42130281906
 20
106.48024068033
 30
0.0
  0
SPLINE
  5
23F
330
A
100
AcDbEntity
  8
CURVE
 62
   255
100
AcDbSpline
210
0.0
220
0.0
230
1.0
 70
     8
 71
     3
 72
     8
 73
     4
 74
     0
 42
0.0000000001
 43
0.0000000001
 40
2.0
 40
2.0
 40
2.0
 40
2.0
 40
3.0
 40
3.0
 40
3.0
 40
3.0
 10
-13.42130281906
 20
106.48024068033
 30
0.0
 10
-12.83456715239336
 20
102.4482213469966
 30
0.0
 10
-11.1373786760689
 20
98.67395365217701
 30
0.0
 10
-8.8137228190601
 20
95.30773568033
 30
0.0
  0
SPLINE
  5
240
330
A
100
AcDbEntity
  8
CURVE
 62
   255
100
AcDbSpline
210
0.0
220
0.0
230
1.0
 70
     8
 71
     3
 72
     8
 73
     4
 74
     0
 42
0.0000000001
 43
0.0000000001
 40
3.0
 40
3.0
 40
3.0
 40
3.0
 40
4.0
 40
4.0
 40
4.0
 40
4.0
 10
-8.8137228190601
 20
95.30773568033
 30
0.0
 10
-6.701431152393467
 20
92.24771534699673
 30
0.0
 10
-4.086962320996575
 20
89.54554604783817
 30
0.0
 10
-0.8635968190601499
 20
87.72888568033
 30
0.0
  0
SPLINE
  5
241
330
A
100
AcDbEntity
  8
CURVE
 62
   255
100
AcDbSpline
210
0.0
220
0.0
230
1.0
 70
     8
 71
     3
 72
     8
 73
     4
 74
     0
 42
0.0000000001
 43
0.0000000001
 40
4.0
 40
4.0
 40
4.0
 40
4.0
 40
5.0
 40
5.0
 40
5.0
 40
5.0
 10
-0.8635968190601499
 20
87.72888568033
 30
0.0
 10
2.287062847606549
 20
85.95320168033017
 30
0.0
 10
6.03544554095585
 20
85.27481964810677
 30
0.0
 10
8.6164091809399
 20
87.41199168033
 30
0.0
  0
SPLINE
  5
242
330
A
100
AcDbEntity
  8
CURVE
 62
   255
100
AcDbSpline
210
0.0
220
0.0
230
1.0
 70
     8
 71
     3
 72
     8
 73
     4
 74
     0
 42
0.0000000001
 43
0.0000000001
 40
5.0
 40
5.0
 40
5.0
 40
5.0
 40
6.0
 40
6.0
 40
6.0
 40
6.0
 10
8.6164091809399
 20
87.41199168033
 30
0.0
 10
10.8336721809399
 20
89.24800068032997
 30
0.0
 10
11.39749002680418
 20
92.32571335884129
 30
0.0
 10
11.19909418094
 20
95.32724968032999
 30
0.0
  0
SPLINE
  5
243
330
A
100
AcDbEntity
  8
CURVE
 62
   255
100
AcDbSpline
210
0.0
220
0.0
230
1.0
 70
     8
 71
     3
 72
     8
 73
     4
 74
     0
 42
0.0000000001
 43
0.0000000001
 40
6.0
 40
6.0
 40
6.0
 40
6.0
 40
7.0
 40
7.0
 40
7.0
 40
7.0
 10
11.19909418094
 20
95.32724968032999
 30
0.0
 10
10.95505684760667
 20
99.01929734699667
 30
0.0
 10
9.644728367272739
 20
102.544006168781
 30
0.0
 10
7.7968561809399
 20
105.77101168033
 30
0.0
  0
SPLINE
  5
244
330
A
100
AcDbEntity
  8
CURVE
 62
   255
100
AcDbSpline
210
0.0
220
0.0
230
1.0
 70
     8
 71
     3
 72
     8
 73
     4
 74
     0
 42
0.0000000001
 43
0.0000000001
 40
7.0
 40
7.0
 40
7.0
 40
7.0
 40
8.0
 40
8.0
 40
8.0
 40
8.0
 10
7.7968561809399
 20
105.77101168033
 30
0.0
 10
5.764304847606567
 20
109.3205290136633
 30
0.0
 10
3.091611260986875
 20
112.4799061328614
 30
0.0
 10
-0.2910678190601
 20
114.75153068033
 30
0.0
  0
SPLINE
  5
245
330
A
100
AcDbEntity
  8
CURVE
 62
   255
100
AcDbSpline
210
0.0
220
0.0
230
1.0
 70
     8
 71
     3
 72
     8
 73
     4
 74
     0
 42
0.0000000001
 43
0.0000000001
 40
8.0
 40
8.0
 40
8.0
 40
8.0
 40
9.0
 40
9.0
 40
9.0
 40
9.0
 10
-0.2910678190601
 20
114.75153068033
 30
0.0
 10
-2.417777485726799
 20
116.1797140136634
 30
0.0
 10
-4.806513168758741
 20
117.2627678078407
 30
0.0
 10
-7.3243878190601
 20
117.15196468033
 30
0.0
  0
ARC
  5
246
330
A
100
AcDbEntity
  8
CURVE
 62
   255
100
AcDbCircle
 10
-7.029035540577766
 20
110.4404211381384
 30
0.0
 40
6.71803912515686
100
AcDbArc
 50
92.51976727863654
 51
120.1565568825575
  0
SPLINE
  5
247
330
A
100
AcDbEntity
  8
CURVE
 62
   255
100
AcDbSpline
210
0.0
220
0.0
230
1.0
 70
     8
 71
     3
 72
     8
 73
     4
 74
     0
 42
0.0000000001
 43
0.0000000001
 40
0.0
 40
0.0
 40
0.0
 40
0.0
 40
1.0
 40
1.0
 40
1.0
 40
1.0
 10
12.51355218094
 20
119.19712268033
 30
0.0
 10
11.98493418094
 20
115.5047053469966
 30
0.0
 10
11.42736179774261
 20
111.8068463456623
 30
0.0
 10
11.52687718094
 20
108.08783068033
 30
0.0
  0
SPLINE
  5
248
330
A
100
AcDbEntity
  8
CURVE
 62
   255
100
AcDbSpline
210
0.0
220
0.0
230
1.0
 70
     8
 71
     3
 72
     8
 73
     4
 74
     0
 42
0.0000000001
 43
0.0000000001
 40
1.0
 40
1.0
 40
1.0
 40
1.0
 40
2.0
 40
2.0
 40
2.0
 40
2.0
 10
11.52687718094
 20
108.08783068033
 30
0.0
 10
11.60498151427332
 20
105.1689730136633
 30
0.0
 10
12.14057270691349
 20
102.2854876451608
 30
0.0
 10
12.84991918094
 20
99.44776168033001
 30
0.0
  0
SPLINE
  5
249
330
A
100
AcDbEntity
  8
CURVE
 62
   255
100
AcDbSpline
210
0.0
220
0.0
230
1.0
 70
     8
 71
     3
 72
     8
 73
     4
 74
     0
 42
0.0000000001
 43
0.0000000001
 40
2.0
 40
2.0
 40
2.0
 40
2.0
 40
3.0
 40
3.0
 40
3.0
 40
3.0
 10
12.84991918094
 20
99.44776168033001
 30
0.0
 10
13.37556384760667
 20
97.34493101366325
 30
0.0
 10
13.84861570155584
 20
95.2137373844571
 30
0.0
 10
13.68100718094
 20
93.06884568033
 30
0.0
  0
SPLINE
  5
24A
330
A
100
AcDbEntity
  8
CURVE
 62
   255
100
AcDbSpline
210
0.0
220
0.0
230
1.0
 70
     8
 71
     3
 72
     8
 73
     4
 74
     0
 42
0.0000000001
 43
0.0000000001
 40
3.0
 40
3.0
 40
3.0
 40
3.0
 40
4.0
 40
4.0
 40
4.0
 40
4.0
 10
13.68100718094
 20
93.06884568033
 30
0.0
 10
13.48577384760667
 20
90.57043834699683
 30
0.0
 10
12.71238119969731
 20
88.14245573935128
 30
0.0
 10
12.64637018094
 20
85.64152468032999
 30
0.0
  0
LINE
  5
24B
330
A
100
AcDbEntity
  8
CURVE
 62
   255
100
AcDbLine
 10
12.64637018094
 20
85.64152468032999
 30
0.0
 11
12.62706318094
 21
84.91004868033
 31
0.0
  0
SPLINE
  5
24C
330
A
100
AcDbEntity
  8
CURVE
 62
   255
100
AcDbSpline
210
0.0
220
0.0
230
1.0
 70
     8
 71
     3
 72
     8
 73
     4
 74
     0
 42
0.0000000001
 43
0.0000000001
 40
0.0
 40
0.0
 40
0.0
 40
0.0
 40
1.0
 40
1.0
 40
1.0
 40
1.0
 10
-16.34528181906
 20
121.01479068033
 30
0.0
 10
-16.15804515239333
 20
118.65498068033
 30
0.0
 10
-15.99518168084886
 20
116.2821833808174
 30
0.0
 10
-16.39750181906
 20
113.96107868033
 30
0.0
  0
SPLINE
  5
24D
330
A
100
AcDbEntity
  8
CURVE
 62
   255
100
AcDbSpline
210
0.0
220
0.0
230
1.0
 70
     8
 71
     3
 72
     8
 73
     4
 74
     0
 42
0.0000000001
 43
0.0000000001
 40
1.0
 40
1.0
 40
1.0
 40
1.0
 40
2.0
 40
2.0
 40
2.0
 40
2.0
 10
-16.39750181906
 20
113.96107868033
 30
0.0
 10
-16.86856081906
 20
111.2433990136634
 30
0.0
 10
-17.81296416489574
 20
108.5892783455625
 30
0.0
 10
-17.50342881906
 20
105.89093068033
 30
0.0
  0
SPLINE
  5
24E
330
A
100
AcDbEntity
  8
CURVE
 62
   255
100
AcDbSpline
210
0.0
220
0.0
230
1.0
 70
     8
 71
     3
 72
     8
 73
     4
 74
     0
 42
0.0000000001
 43
0.0000000001
 40
2.0
 40
2.0
 40
2.0
 40
2.0
 40
3.0
 40
3.0
 40
3.0
 40
3.0
 10
-17.50342881906
 20
105.89093068033
 30
0.0
 10
-17.24493315239335
 20
103.6375170136633
 30
0.0
 10
-15.88988701921157
 20
101.6794554810892
 30
0.0
 10
-15.25598381906
 20
99.47407368032999
 30
0.0
  0
SPLINE
  5
24F
330
A
100
AcDbEntity
  8
CURVE
 62
   255
100
AcDbSpline
210
0.0
220
0.0
230
1.0
 70
     8
 71
     3
 72
     8
 73
     4
 74
     0
 42
0.0000000001
 43
0.0000000001
 40
3.0
 40
3.0
 40
3.0
 40
3.0
 40
4.0
 40
4.0
 40
4.0
 40
4.0
 10
-15.25598381906
 20
99.47407368032999
 30
0.0
 10
-14.46896315239333
 20
96.73598834699669
 30
0.0
 10
-14.3079826868586
 20
93.86595747681768
 30
0.0
 10
-14.22140481906001
 20
91.00562568033
 30
0.0
  0
ARC
  5
250
330
A
100
AcDbEntity
  8
CURVE
 62
   255
100
AcDbCircle
 10
-178.9474528340442
 20
86.01962020168693
 30
0.0
 40
164.8014901184693
100
AcDbArc
 50
359.7296854741394
 51
1.733726256556008
  0
LINE
  5
251
330
A
100
AcDbEntity
  8
CURVE
 62
   255
100
AcDbLine
 10
8.9525331809399
 20
229.06070668033
 30
0.0
 11
26.03627318094
 21
227.04578168033
 31
0.0
  0
ARC
  5
252
330
A
100
AcDbEntity
  8
CURVE
 62
   255
100
AcDbCircle
 10
-16.83627081906
 20
158.00387068033
 30
0.0
 40
3.750000823266508
100
AcDbArc
 50
115.8075863851795
 51
295.8075792818629
  0
ARC
  5
253
330
A
100
AcDbEntity
  8
CURVE
 62
   255
100
AcDbCircle
 10
-16.83627131018924
 20
158.0038711846197
 30
0.0
 40
4.749999900770783
100
AcDbArc
 50
115.8075811068562
 51
295.8075808691441
  0
ARC
  5
254
330
A
100
AcDbEntity
  8
CURVE
 62
   255
100
AcDbCircle
 10
10.97211318094
 20
160.60929868033
 30
0.0
 40
3.749999579471077
100
AcDbArc
 50
254.8974805663652
 51
74.89749929837879
  0
ARC
  5
255
330
A
100
AcDbEntity
  8
CURVE
 62
   255
100
AcDbCircle
 10
10.9721129960087
 20
160.6092992302369
 30
0.0
 40
4.750000607982213
100
AcDbArc
 50
254.8974982507941
 51
74.89749362981061
  0
ARC
  5
256
330
A
100
AcDbEntity
  8
CURVE
 62
   255
100
AcDbCircle
 10
-12.04011181906
 20
139.18486268033
 30
0.0
 40
3.767200777671841
100
AcDbArc
 50
107.5638299651522
 51
287.4998023954802
  0
ARC
  5
257
330
A
100
AcDbEntity
  8
CURVE
 62
   255
100
AcDbCircle
 10
-12.04011188406787
 20
139.1848629118477
 30
0.0
 40
4.76720111920241
100
AcDbArc
 50
107.5638266559884
 51
287.4998114874628
  0
ARC
  5
258
330
A
100
AcDbEntity
  8
CURVE
 62
   255
100
AcDbCircle
 10
8.923802180939899
 20
139.67909868033
 30
0.0
 40
3.682194929974456
100
AcDbArc
 50
255.6479429262767
 51
74.69168987900956
  0
ARC
  5
259
330
A
100
AcDbEntity
  8
CURVE
 62
   255
100
AcDbCircle
 10
8.923802180939899
 20
139.67909868033
 30
0.0
 40
4.682195178017202
100
AcDbArc
 50
255.6479351982653
 51
74.69168879623793
  0
ARC
  5
25A
330
A
100
AcDbEntity
  8
CURVE
 62
   255
100
AcDbCircle
 10
-14.38947874866976
 20
157.9216683678814
 30
0.0000000000000071
 40
3.826309700991454
100
AcDbArc
 50
32.85467008822054
 51
63.26864705280735
  0
ARC
  5
25B
330
A
100
AcDbEntity
  8
CURVE
 62
   255
100
AcDbCircle
 10
-14.40154087804961
 20
158.1558538866813
 30
0.0
 40
3.624438643989464
100
AcDbArc
 50
61.43282196414179
 51
97.71520625860476
  0
ARC
  5
25C
330
A
100
AcDbEntity
  8
CURVE
 62
   255
100
AcDbCircle
 10
-13.74433938257026
 20
154.6292109169616
 30
0.0
 40
7.209578649026901
100
AcDbArc
 50
99.12838336012876
 51
112.7660585293456
  0
LINE
  5
25D
330
A
100
AcDbEntity
  8
CURVE
 62
   255
100
AcDbLine
 10
-16.53422581906
 20
161.27710968033
 30
0.0
 11
-16.57111481906
 21
161.26162868033
 31
0.0
  0
ARC
  5
25E
330
A
100
AcDbEntity
  8
CURVE
 62
   255
100
AcDbCircle
 10
-14.93521457187424
 20
156.6464038797236
 30
0.0
 40
4.896577333084233
100
AcDbArc
 50
109.5172446627242
 51
129.6530565204366
  0
ARC
  5
25F
330
A
100
AcDbEntity
  8
CURVE
 62
   255
100
AcDbCircle
 10
-15.59973606813011
 20
157.3924914446941
 30
0.0000000000000071
 40
3.898253581010736
100
AcDbArc
 50
129.1309257530584
 51
162.7857633409784
  0
ARC
  5
260
330
A
100
AcDbEntity
  8
CURVE
 62
   255
100
AcDbCircle
 10
-15.54154335880697
 20
157.3744619457539
 30
0.0
 40
3.959175286915916
100
AcDbArc
 50
162.7857633409774
 51
192.1557093053901
  0
ARC
  5
261
330
A
100
AcDbEntity
  8
CURVE
 62
   255
100
AcDbCircle
 10
-16.82931333960991
 20
150.6866298991157
 30
0.0000000000000142
 40
6.398524515135153
100
AcDbArc
 50
96.28772817133356
 51
113.805304631567
  0
ARC
  5
262
330
A
100
AcDbEntity
  8
CURVE
 62
   255
100
AcDbCircle
 10
-17.30018927081646
 20
155.1440487918078
 30
0.0
 40
1.916454334522208
100
AcDbArc
 50
83.39982991129815
 51
96.88984485306901
  0
ARC
  5
263
330
A
100
AcDbEntity
  8
CURVE
 62
   255
100
AcDbCircle
 10
-17.25873278397606
 20
155.5023374225372
 30
0.0
 40
1.55577527606282
100
AcDbArc
 50
42.27590665700395
 51
83.39982991129815
  0
ARC
  5
264
330
A
100
AcDbEntity
  8
CURVE
 62
   255
100
AcDbCircle
 10
-17.98043824019127
 20
155.1857474456776
 30
0.0
 40
2.316411286761255
100
AcDbArc
 50
2.337144791377216
 51
36.0492343520275
  0
ARC
  5
265
330
A
100
AcDbEntity
  8
CURVE
 62
   255
100
AcDbCircle
 10
-8.806475755099789
 20
154.0534021541546
 30
0.0
 40
6.398661106355459
100
AcDbArc
 50
111.7272749097976
 51
129.2444740790047
  0
ARC
  5
266
330
A
100
AcDbEntity
  8
CURVE
 62
   255
100
AcDbCircle
 10
-11.65774098474566
 20
157.5120280443227
 30
0.0
 40
1.916423707121857
100
AcDbArc
 50
128.642329832252
 51
142.1325422566942
  0
ARC
  5
267
330
A
100
AcDbEntity
  8
CURVE
 62
   255
100
AcDbCircle
 10
-11.94244867131298
 20
157.7334073425328
 30
0.0
 40
1.555775318152053
100
AcDbArc
 50
142.1325422566959
 51
183.2564708559145
  0
ARC
  5
268
330
A
100
AcDbEntity
  8
CURVE
 62
   255
100
AcDbCircle
 10
-11.21097028740931
 20
158.0266734526622
 30
0.0
 40
2.316397002269463
100
AcDbArc
 50
189.4831221974031
 51
223.1953824014186
  0
LINE
  5
269
330
A
100
AcDbEntity
  8
CURVE
 62
   255
100
AcDbLine
 10
-15.66595381906
 20
155.28021068033
 30
0.0
 11
-12.89967881906
 21
156.44112568033
 31
0.0
  0
ARC
  5
26A
330
A
100
AcDbEntity
  8
CURVE
 62
   255
100
AcDbCircle
 10
-9.733857503873204
 20
138.6783351876741
 30
-0.0000000000000071
 40
3.826281235058058
100
AcDbArc
 50
22.65687039650652
 51
53.07108196188963
  0
ARC
  5
26B
330
A
100
AcDbEntity
  8
CURVE
 62
   255
100
AcDbCircle
 10
-9.704290555089581
 20
138.9109340754313
 30
0.0
 40
3.624441925272212
100
AcDbArc
 50
51.23519209744597
 51
87.51758265603699
  0
ARC
  5
26C
330
A
100
AcDbEntity
  8
CURVE
 62
   255
100
AcDbCircle
 10
-9.681775027295309
 20
135.3229905925768
 30
0.0
 40
7.210238106015745
100
AcDbArc
 50
88.93138552630466
 51
102.5677989015023
  0
LINE
  5
26D
330
A
100
AcDbEntity
  8
CURVE
 62
   255
100
AcDbLine
 10
-11.25068481906
 20
142.36046568033
 30
0.0
 11
-11.28973181906
 21
142.35176068033
 31
0.0
  0
ARC
  5
26E
330
A
100
AcDbEntity
  8
CURVE
 62
   255
100
AcDbCircle
 10
-10.49678068463114
 20
137.5198362937495
 30
0.0
 40
4.896556420508517
100
AcDbArc
 50
99.31955178507244
 51
119.4554474972319
  0
ARC
  5
26F
330
A
100
AcDbEntity
  8
CURVE
 62
   255
100
AcDbCircle
 10
-11.01872183553934
 20
138.3717811546819
 30
0.0
 40
3.898234515851285
100
AcDbArc
 50
118.9331782965912
 51
152.5881982202118
  0
ARC
  5
270
330
A
100
AcDbEntity
  8
CURVE
 62
   255
100
AcDbCircle
 10
-10.96460986901381
 20
138.3437180331202
 30
0.0
 40
3.959190596048827
100
AcDbArc
 50
152.5881982202111
 51
181.9580159399976
  0
ARC
  5
271
330
A
100
AcDbEntity
  8
CURVE
 62
   255
100
AcDbCircle
 10
-13.41609913256064
 20
131.989585824343
 30
0.0000000000000142
 40
6.398467874514097
100
AcDbArc
 50
86.09001336821345
 51
103.6077429486275
  0
ARC
  5
272
330
A
100
AcDbEntity
  8
CURVE
 62
   255
100
AcDbCircle
 10
-13.09035079316856
 20
136.4599903271396
 30
0.0
 40
1.916362143741507
100
AcDbArc
 50
73.20201814363821
 51
86.69267915880533
  0
ARC
  5
273
330
A
100
AcDbEntity
  8
CURVE
 62
   255
100
AcDbCircle
 10
-12.98614460375552
 20
136.8051818204405
 30
0.0
 40
1.555784694419835
100
AcDbArc
 50
32.07826932252945
 51
73.20201814363828
  0
ARC
  5
274
330
A
100
AcDbEntity
  8
CURVE
 62
   255
100
AcDbCircle
 10
-13.7524857554567
 20
136.6213737199902
 30
0.0
 40
2.316405146351601
100
AcDbArc
 50
352.1394588753862
 51
25.8516172619619
  0
ARC
  5
275
330
A
100
AcDbEntity
  8
CURVE
 62
   255
100
AcDbCircle
 10
-4.92406074944377
 20
133.8830666384505
 30
0.0000000000000142
 40
6.398291834480832
100
AcDbArc
 50
101.5290781677497
 51
119.0472888056783
  0
ARC
  5
276
330
A
100
AcDbEntity
  8
CURVE
 62
   255
100
AcDbCircle
 10
-7.117791258370697
 20
137.7914745608882
 30
0.0
 40
1.916467333973296
100
AcDbArc
 50
118.4449504892945
 51
131.9348454523931
  0
ARC
  5
277
330
A
100
AcDbEntity
  8
CURVE
 62
   255
100
AcDbCircle
 10
-7.358834310843573
 20
138.0597929682589
 30
0.0
 40
1.555778380885756
100
AcDbArc
 50
131.9348454523942
 51
173.0587686859811
  0
ARC
  5
278
330
A
100
AcDbEntity
  8
CURVE
 62
   255
100
AcDbCircle
 10
-6.58697397302214
 20
138.2189285914469
 30
0.0
 40
2.316415910308299
100
AcDbArc
 50
179.2855925962484
 51
212.9975929862265
  0
LINE
  5
279
330
A
100
AcDbEntity
  8
CURVE
 62
   255
100
AcDbLine
 10
-11.45784681906
 20
136.30457768033
 30
0.0
 11
-8.5297368190602
 21
136.95739968033
 31
0.0
  0
ARC
  5
27A
330
A
100
AcDbEntity
  8
CURVE
 62
   255
100
AcDbCircle
 10
7.856752593074622
 20
138.9612570367434
 30
-0.0000000000000071
 40
3.826271349915047
100
AcDbArc
 50
357.6482326575822
 51
28.062531617834
  0
ARC
  5
27B
330
A
100
AcDbEntity
  8
CURVE
 62
   255
100
AcDbCircle
 10
7.981855605816498
 20
139.1595313587905
 30
0.0
 40
3.624461264602996
100
AcDbArc
 50
26.22672036952187
 51
62.50889959788696
  0
ARC
  5
27C
330
A
100
AcDbEntity
  8
CURVE
 62
   255
100
AcDbCircle
 10
6.486140438827263
 20
135.900450371932
 30
0.0
 40
7.208161797385169
100
AcDbArc
 50
63.92077200321736
 51
77.56113727629837
  0
LINE
  5
27D
330
A
100
AcDbEntity
  8
CURVE
 62
   255
100
AcDbLine
 10
8.038762180939899
 20
142.93941068033
 30
0.0
 11
7.999696180939899
 21
142.94802768033
 31
0.0
  0
ARC
  5
27E
330
A
100
AcDbEntity
  8
CURVE
 62
   255
100
AcDbCircle
 10
6.675583975813623
 20
138.2338810073493
 30
0.0000000000000142
 40
4.896575536652016
100
AcDbArc
 50
74.31097924062244
 51
94.44679530786416
  0
ARC
  5
27F
330
A
100
AcDbEntity
  8
CURVE
 62
   255
100
AcDbCircle
 10
6.562744980508091
 20
139.2266220341058
 30
0.0
 40
3.898236024513702
100
AcDbArc
 50
93.9245901601885
 51
127.5795769154144
  0
ARC
  5
280
330
A
100
AcDbEntity
  8
CURVE
 62
   255
100
AcDbCircle
 10
6.59991273477628
 20
139.1783231174318
 30
0.0
 40
3.959180485371282
100
AcDbArc
 50
127.5795769154144
 51
156.9494854778712
  0
ARC
  5
281
330
A
100
AcDbEntity
  8
CURVE
 62
   255
100
AcDbCircle
 10
1.691942767406111
 20
134.4560505524419
 30
0.0000000000000142
 40
6.398726536148862
100
AcDbArc
 50
61.08175570918414
 51
78.59877465908899
  0
ARC
  5
282
330
A
100
AcDbEntity
  8
CURVE
 62
   255
100
AcDbCircle
 10
3.877102912835173
 20
138.3698336523139
 30
0.0
 40
1.916398058932137
100
AcDbArc
 50
48.19355329219605
 51
61.68391902554761
  0
ARC
  5
283
330
A
100
AcDbEntity
  8
CURVE
 62
   255
100
AcDbCircle
 10
4.117494641348687
 20
138.6386362944805
 30
0.0
 40
1.555783245629249
100
AcDbArc
 50
7.069802029635009
 51
48.19355329219691
  0
ARC
  5
284
330
A
100
AcDbEntity
  8
CURVE
 62
   255
100
AcDbCircle
 10
3.345284929097609
 20
138.7960435386846
 30
0.0
 40
2.316414907770538
100
AcDbArc
 50
327.1308543576815
 51
0.8428928330984115
  0
ARC
  5
285
330
A
100
AcDbEntity
  8
CURVE
 62
   255
100
AcDbCircle
 10
10.18835875562731
 20
132.5820295988511
 30
0.0
 40
6.398468438736407
100
AcDbArc
 50
76.52072285956909
 51
94.03845593471535
  0
ARC
  5
286
330
A
100
AcDbEntity
  8
CURVE
 62
   255
100
AcDbCircle
 10
9.85259567205577
 20
137.0516598873383
 30
0.0
 40
1.916395710767172
100
AcDbArc
 50
93.43597143180671
 51
106.9263761151091
  0
ARC
  5
287
330
A
100
AcDbEntity
  8
CURVE
 62
   255
100
AcDbCircle
 10
9.747604590252791
 20
137.3966551618032
 30
0.0
 40
1.555778369723765
100
AcDbArc
 50
106.9263761151089
 51
148.0502484764372
  0
ARC
  5
288
330
A
100
AcDbEntity
  8
CURVE
 62
   255
100
AcDbCircle
 10
10.51435448391385
 20
137.2145611917405
 30
0.0
 40
2.31639968863065
100
AcDbArc
 50
154.2767824588698
 51
187.9890344306666
  0
LINE
  5
289
330
A
100
AcDbEntity
  8
CURVE
 62
   255
100
AcDbLine
 10
5.290871180939899
 20
137.53887468033
 30
0.0
 11
8.220437180939899
 21
136.89261968033
 31
0.0
  0
ARC
  5
28A
330
A
100
AcDbEntity
  8
CURVE
 62
   255
100
AcDbCircle
 10
9.794355885891485
 20
159.7966832409591
 30
0.0
 40
3.826310357552811
100
AcDbArc
 50
358.648733007473
 51
29.06270445470559
  0
ARC
  5
28B
330
A
100
AcDbEntity
  8
CURVE
 62
   255
100
AcDbCircle
 10
9.916039152067096
 20
159.997149929143
 30
0.0
 40
3.624428880894088
100
AcDbArc
 50
27.22680282100924
 51
63.50931234788625
  0
ARC
  5
28C
330
A
100
AcDbEntity
  8
CURVE
 62
   255
100
AcDbCircle
 10
8.477881551106207
 20
156.7137897232923
 30
0.0
 40
7.20673590748266
100
AcDbArc
 50
64.91975706140761
 51
78.5628330353383
  0
LINE
  5
28D
330
A
100
AcDbEntity
  8
CURVE
 62
   255
100
AcDbLine
 10
9.9069281809399
 20
163.77741968033
 30
0.0
 11
9.867716180939899
 21
163.78535268033
 31
0.0
  0
ARC
  5
28E
330
A
100
AcDbEntity
  8
CURVE
 62
   255
100
AcDbCircle
 10
8.626105267187174
 20
159.0488711610493
 30
0.0
 40
4.896514560750005
100
AcDbArc
 50
75.31111178552253
 51
95.44718462784521
  0
ARC
  5
28F
330
A
100
AcDbEntity
  8
CURVE
 62
   255
100
AcDbCircle
 10
8.495969331466124
 20
160.0393971616091
 30
0.0
 40
3.898269909227517
100
AcDbArc
 50
94.92512150486
 51
128.5797874713793
  0
ARC
  5
290
330
A
100
AcDbEntity
  8
CURVE
 62
   255
100
AcDbCircle
 10
8.533950170076648
 20
159.9917849476484
 30
0.0
 40
3.959175303239889
100
AcDbArc
 50
128.5797874713799
 51
157.9497396473
  0
ARC
  5
291
330
A
100
AcDbEntity
  8
CURVE
 62
   255
100
AcDbCircle
 10
3.709337498569286
 20
155.1850029213794
 30
0.0
 40
6.398253142975153
100
AcDbArc
 50
62.08145280258693
 51
79.59977699558691
  0
ARC
  5
292
330
A
100
AcDbEntity
  8
CURVE
 62
   255
100
AcDbCircle
 10
5.825622839743193
 20
159.1358180777897
 30
0.0
 40
1.916484615918321
100
AcDbArc
 50
49.19392540688804
 51
62.68373125082807
  0
ARC
  5
293
330
A
100
AcDbEntity
  8
CURVE
 62
   255
100
AcDbCircle
 10
6.061348076608092
 20
159.408849865412
 30
0.0
 40
1.555773173977177
100
AcDbArc
 50
8.069924205046405
 51
49.19392540688896
  0
ARC
  5
294
330
A
100
AcDbEntity
  8
CURVE
 62
   255
100
AcDbCircle
 10
5.286513380383797
 20
159.5527380664495
 30
0.0
 40
2.316400581927
100
AcDbArc
 50
328.1311540805718
 51
1.843399738991601
  0
ARC
  5
295
330
A
100
AcDbEntity
  8
CURVE
 62
   255
100
AcDbCircle
 10
12.23701449891792
 20
153.4591378242684
 30
-0.0000000000000142
 40
6.398474749080257
100
AcDbArc
 50
77.52105553890423
 51
95.03876535961815
  0
ARC
  5
296
330
A
100
AcDbEntity
  8
CURVE
 62
   255
100
AcDbCircle
 10
11.82328748425529
 20
157.9221715925419
 30
0.0
 40
1.916456673448452
100
AcDbArc
 50
94.43660101043688
 51
107.9265705844964
  0
ARC
  5
297
330
A
100
AcDbEntity
  8
CURVE
 62
   255
100
AcDbCircle
 10
11.71227106228639
 20
158.2653408516607
 30
0.0
 40
1.555777056127358
100
AcDbArc
 50
107.9265705844956
 51
149.0504953193823
  0
ARC
  5
298
330
A
100
AcDbEntity
  8
CURVE
 62
   255
100
AcDbCircle
 10
12.48210483513207
 20
158.0966625646403
 30
0.0
 40
2.316417069203618
100
AcDbArc
 50
155.2773273841452
 51
188.9893173066377
  0
LINE
  5
299
330
A
100
AcDbEntity
  8
CURVE
 62
   255
100
AcDbLine
 10
7.253737180939899
 20
158.32973368033
 30
0.0
 11
10.19413818094
 21
157.73472168033
 31
0.0
  0
ARC
  5
29A
330
A
100
AcDbEntity
  8
CURVE
 62
     4
100
AcDbCircle
 10
-96.00670328232139
 20
55.73580683229488
 30
0.0
 40
134.5897953743683
100
AcDbArc
 50
359.0111797455857
 51
1.631275570996955
  0
ARC
  5
29B
330
A
100
AcDbEntity
  8
CURVE
 62
     4
100
AcDbCircle
 10
-278.0417114238505
 20
50.12726324912136
 30
0.0
 40
316.7109733577717
100
AcDbArc
 50
1.708022216830987
 51
2.974458390479337
  0
SPLINE
  5
29C
330
A
100
AcDbEntity
  8
CURVE
 62
     4
100
AcDbSpline
210
0.0
220
0.0
230
1.0
 70
     8
 71
     3
 72
     8
 73
     4
 74
     0
 42
0.0000000001
 43
0.0000000001
 40
2.0
 40
2.0
 40
2.0
 40
2.0
 40
3.0
 40
3.0
 40
3.0
 40
3.0
 10
38.24257818094
 20
66.56164168033
 30
0.0
 10
37.69038418094
 20
77.18877234699667
 30
0.0
 10
36.67935347964178
 20
87.7985560501564
 30
0.0
 10
36.96282718094
 20
98.42473968033001
 30
0.0
  0
SPLINE
  5
29D
330
A
100
AcDbEntity
  8
CURVE
 62
     4
100
AcDbSpline
210
0.0
220
0.0
230
1.0
 70
     8
 71
     3
 72
     8
 73
     4
 74
     0
 42
0.0000000001
 43
0.0000000001
 40
3.0
 40
3.0
 40
3.0
 40
3.0
 40
4.0
 40
4.0
 40
4.0
 40
4.0
 10
36.96282718094
 20
98.42473968033001
 30
0.0
 10
37.24169218094001
 20
108.8781633469966
 30
0.0
 10
39.11886933416775
 20
119.2070740484186
 30
0.0
 10
41.10412918094
 20
129.49490368033
 30
0.0
  0
SPLINE
  5
29E
330
A
100
AcDbEntity
  8
CURVE
 62
     4
100
AcDbSpline
210
0.0
220
0.0
230
1.0
 70
     8
 71
     3
 72
     8
 73
     4
 74
     0
 42
0.0000000001
 43
0.0000000001
 40
4.0
 40
4.0
 40
4.0
 40
4.0
 40
5.0
 40
5.0
 40
5.0
 40
5.0
 10
41.10412918094
 20
129.49490368033
 30
0.0
 10
42.37750451427333
 20
136.0936713469963
 30
0.0
 10
43.67130432002367
 20
142.6957451576456
 30
0.0
 10
44.11840618093999
 20
149.39134468033
 30
0.0
  0
ARC
  5
29F
330
A
100
AcDbEntity
  8
CURVE
 62
     4
100
AcDbCircle
 10
-96.3627887148867
 20
158.7830140183267
 30
0.0
 40
140.7947782139434
100
AcDbArc
 50
356.1752639336735
 51
8.451019212081261
  0
ARC
  5
2A0
330
A
100
AcDbEntity
  8
CURVE
 62
     4
100
AcDbCircle
 10
-101.2569923457628
 20
158.5636686402765
 30
0.0
 40
145.668941796903
100
AcDbArc
 50
8.253446883378831
 51
15.69724886950345
  0
ARC
  5
2A1
330
A
100
AcDbEntity
  8
CURVE
 62
     4
100
AcDbCircle
 10
-70.7030962253705
 20
167.0578617647352
 30
0.0
 40
113.956456240212
100
AcDbArc
 50
15.74203991306139
 51
21.84890281678601
  0
ARC
  5
2A2
330
A
100
AcDbEntity
  8
CURVE
 62
     4
100
AcDbCircle
 10
-58.43110555014479
 20
172.0313754536437
 30
0.0
 40
100.7150490500744
100
AcDbArc
 50
21.82096313835993
 51
27.81414686009153
  0
SPLINE
  5
2A3
330
A
100
AcDbEntity
  8
CURVE
 62
     4
100
AcDbSpline
210
0.0
220
0.0
230
1.0
 70
     8
 71
     3
 72
     8
 73
     4
 74
     0
 42
0.0000000001
 43
0.0000000001
 40
9.0
 40
9.0
 40
9.0
 40
9.0
 40
10.0
 40
10.0
 40
10.0
 40
10.0
 10
30.64791018094
 20
219.02552468033
 30
0.0
 10
25.33742084760667
 20
229.0917386803303
 30
0.0
 10
18.74824890453629
 20
238.4605643657974
 30
0.0
 10
10.22386418094
 20
245.93349268033
 30
0.0
  0
ARC
  5
2A4
330
A
100
AcDbEntity
  8
CURVE
 62
     4
100
AcDbCircle
 10
-17.85152201285466
 20
214.1992179888226
 30
0.0
 40
42.37088033221354
100
AcDbArc
 50
48.50073768030899
 51
61.51197284534823
  0
SPLINE
  5
2A5
330
A
100
AcDbEntity
  8
CURVE
 62
     4
100
AcDbSpline
210
0.0
220
0.0
230
1.0
 70
     8
 71
     3
 72
     8
 73
     4
 74
     0
 42
0.0000000001
 43
0.0000000001
 40
11.0
 40
11.0
 40
11.0
 40
11.0
 40
12.0
 40
12.0
 40
12.0
 40
12.0
 10
2.358333180939899
 20
251.43969668033
 30
0.0
 10
-3.328053485726765
 20
254.5256143469969
 30
0.0
 10
-9.723837920760024
 20
256.0336619368472
 30
0.0
 10
-16.20396381906
 20
256.07766168033
 30
0.0
  0
ARC
  5
2A6
330
A
100
AcDbEntity
  8
CURVE
 62
     4
100
AcDbCircle
 10
-16.17101755823856
 20
208.2041032059612
 30
0.0000000000000284
 40
47.8735698110649
100
AcDbArc
 50
90.03943056371731
 51
102.1741342105607
  0
ARC
  5
2A7
330
A
100
AcDbEntity
  8
CURVE
 62
     4
100
AcDbCircle
 10
-19.57046605093615
 20
222.6037289404483
 30
-0.0000000000000142
 40
33.08212610297786
100
AcDbArc
 50
101.6781823092777
 51
119.3455108648457
  0
SPLINE
  5
2A8
330
A
100
AcDbEntity
  8
CURVE
 62
     4
100
AcDbSpline
210
0.0
220
0.0
230
1.0
 70
     8
 71
     3
 72
     8
 73
     4
 74
     0
 42
0.0000000001
 43
0.0000000001
 40
14.0
 40
14.0
 40
14.0
 40
14.0
 40
15.0
 40
15.0
 40
15.0
 40
15.0
 10
-35.78318881906
 20
251.44076568033
 30
0.0
 10
-41.45890548572666
 20
248.2497713469967
 30
0.0
 10
-45.73939846579998
 20
243.118453833568
 30
0.0
 10
-48.71871381906
 20
237.27447668033
 30
0.0
  0
SPLINE
  5
2A9
330
A
100
AcDbEntity
  8
CURVE
 62
     4
100
AcDbSpline
210
0.0
220
0.0
230
1.0
 70
     8
 71
     3
 72
     8
 73
     4
 74
     0
 42
0.0000000001
 43
0.0000000001
 40
15.0
 40
15.0
 40
15.0
 40
15.0
 40
16.0
 40
16.0
 40
16.0
 40
16.0
 10
-48.71871381906
 20
237.27447668033
 30
0.0
 10
-54.68019148572667
 20
225.5809380136637
 30
0.0
 10
-57.27575192611994
 20
212.513100914726
 30
0.0
 10
-57.87798681906
 20
199.33721368033
 30
0.0
  0
ARC
  5
2AA
330
A
100
AcDbEntity
  8
CURVE
 62
     4
100
AcDbCircle
 10
86.59091746232787
 20
193.1125451754492
 30
0.0
 40
144.6029418866036
100
AcDbArc
 50
177.5328477640297
 51
182.4608943596246
  0
SPLINE
  5
2AB
330
A
100
AcDbEntity
  8
CURVE
 62
     4
100
AcDbSpline
210
0.0
220
0.0
230
1.0
 70
     8
 71
     3
 72
     8
 73
     4
 74
     0
 42
0.0000000001
 43
0.0000000001
 40
17.0
 40
17.0
 40
17.0
 40
17.0
 40
18.0
 40
18.0
 40
18.0
 40
18.0
 10
-57.87866581906
 20
186.90365568033
 30
0.0
 10
-57.3288604857267
 20
174.1106840136633
 30
0.0
 10
-54.59365682095736
 20
161.5119945147406
 30
0.0
 10
-50.07542881905999
 20
149.52063868033
 30
0.0
  0
ARC
  5
2AC
330
A
100
AcDbEntity
  8
CURVE
 62
     4
100
AcDbCircle
 10
143.1911109982137
 20
222.5931508323497
 30
0.0000000000001137
 40
206.6193297955177
100
AcDbArc
 50
200.7111989018271
 51
203.6792363535447
  0
SPLINE
  5
2AD
330
A
100
AcDbEntity
  8
CURVE
 62
     4
100
AcDbSpline
210
0.0
220
0.0
230
1.0
 70
     8
 71
     3
 72
     8
 73
     4
 74
     0
 42
0.0000000001
 43
0.0000000001
 40
19.0
 40
19.0
 40
19.0
 40
19.0
 40
20.0
 40
20.0
 40
20.0
 40
20.0
 10
-46.03256481906
 20
139.61153868033
 30
0.0
 10
-40.94663515239333
 20
128.0140500136633
 30
0.0
 10
-36.20144998161411
 20
116.1734938056298
 30
0.0
 10
-35.15802381906
 20
103.64808468033
 30
0.0
  0
SPLINE
  5
2AE
330
A
100
AcDbEntity
  8
CURVE
 62
     4
100
AcDbSpline
210
0.0
220
0.0
230
1.0
 70
     8
 71
     3
 72
     8
 73
     4
 74
     0
 42
0.0000000001
 43
0.0000000001
 40
20.0
 40
20.0
 40
20.0
 40
20.0
 40
21.0
 40
21.0
 40
21.0
 40
21.0
 10
-35.15802381906
 20
103.64808468033
 30
0.0
 10
-34.05552715239337
 20
90.41358634699667
 30
0.0
 10
-37.06431717889859
 20
77.24822114565185
 30
0.0
 10
-38.44478581906
 20
63.95071568033
 30
0.0
  0
ARC
  5
2AF
330
A
100
AcDbEntity
  8
CURVE
 62
     4
100
AcDbCircle
 10
990.9857822925623
 20
-27.17031438423874
 30
0.0
 40
1033.45553202963
100
AcDbArc
 50
174.9415928554966
 51
175.3734272049162
  0
ARC
  5
2B0
330
A
100
AcDbEntity
  8
CURVE
 62
     4
100
AcDbCircle
 10
285.5061165854493
 20
27.31475827272288
 30
0.0
 40
325.890136586797
100
AcDbArc
 50
174.9167823875725
 51
176.9656423475549
  0
SPLINE
  5
2B1
330
A
100
AcDbEntity
  8
CURVE
 62
     4
100
AcDbSpline
210
0.0
220
0.0
230
1.0
 70
     8
 71
     3
 72
     8
 73
     4
 74
     0
 42
0.0000000001
 43
0.0000000001
 40
23.0
 40
23.0
 40
23.0
 40
23.0
 40
24.0
 40
24.0
 40
24.0
 40
24.0
 10
-39.92711281906
 20
44.56568068032999
 30
0.0
 10
-40.2948024857267
 20
37.62933068033
 30
0.0
 10
-40.03999527824692
 20
30.66067496176877
 30
0.0
 10
-38.42725081906
 20
23.92579568033
 30
0.0
  0
ARC
  5
2B2
330
A
100
AcDbEntity
  8
CURVE
 62
     4
100
AcDbCircle
 10
3.799369061607606
 20
33.86208985247717
 30
0.0
 40
43.37991895361076
100
AcDbArc
 50
193.2413156304096
 51
205.880473664529
  0
SPLINE
  5
2B3
330
A
100
AcDbEntity
  8
CURVE
 62
     4
100
AcDbSpline
210
0.0
220
0.0
230
1.0
 70
     8
 71
     3
 72
     8
 73
     4
 74
     0
 42
0.0000000001
 43
0.0000000001
 40
25.0
 40
25.0
 40
25.0
 40
25.0
 40
26.0
 40
26.0
 40
26.0
 40
26.0
 10
-35.22982981906
 20
14.92696368033
 30
0.0
 10
-32.71676615239333
 20
9.747021346996666
 30
0.0
 10
-28.70791336415934
 20
5.452093737343659
 30
0.0
 10
-23.82366481906
 20
2.381887680330399
 30
0.0
  0
SPLINE
  5
2B4
330
A
100
AcDbEntity
  8
CURVE
 62
     4
100
AcDbSpline
210
0.0
220
0.0
230
1.0
 70
     8
 71
     3
 72
     8
 73
     4
 74
     0
 42
0.0000000001
 43
0.0000000001
 40
26.0
 40
26.0
 40
26.0
 40
26.0
 40
27.0
 40
27.0
 40
27.0
 40
27.0
 10
-23.82366481906
 20
2.381887680330399
 30
0.0
 10
-17.87186181906
 20
-1.359375986336266
 30
0.0
 10
-10.98198691171072
 20
-3.281889399954502
 30
0.0
 10
-3.941707819060099
 20
-3.743320319669699
 30
0.0
  0
SPLINE
  5
2B5
330
A
100
AcDbEntity
  8
CURVE
 62
     4
100
AcDbSpline
210
0.0
220
0.0
230
1.0
 70
     8
 71
     3
 72
     8
 73
     4
 74
     0
 42
0.0000000001
 43
0.0000000001
 40
27.0
 40
27.0
 40
27.0
 40
27.0
 40
28.0
 40
28.0
 40
28.0
 40
28.0
 10
-3.941707819060099
 20
-3.743320319669699
 30
0.0
 10
3.740175514273232
 20
-4.246802986336299
 30
0.0
 10
11.44441342557161
 20
-2.968064212224134
 30
0.0
 10
18.25980718094
 20
0.5297466803303799
 30
0.0
  0
ARC
  5
2B6
330
A
100
AcDbEntity
  8
CURVE
 62
     4
100
AcDbCircle
 10
5.016440236433464
 20
26.79648162374566
 30
0.0
 40
29.41646023257186
100
AcDbArc
 50
296.7566834398246
 51
326.1368411419927
  0
SPLINE
  5
2B7
330
A
100
AcDbEntity
  8
CURVE
 62
     4
100
AcDbSpline
210
0.0
220
0.0
230
1.0
 70
     8
 71
     3
 72
     8
 73
     4
 74
     0
 42
0.0000000001
 43
0.0000000001
 40
29.0
 40
29.0
 40
29.0
 40
29.0
 40
30.0
 40
30.0
 40
30.0
 40
30.0
 10
29.44300818094
 20
10.40529768033
 30
0.0
 10
33.65842951427334
 20
16.68722801366333
 30
0.0
 10
35.97739047527524
 20
24.01023930017085
 30
0.0
 10
37.17207918094
 20
31.51976068033
 30
0.0
  0
SPLINE
  5
2B8
330
A
100
AcDbEntity
  8
CURVE
 62
     4
100
AcDbSpline
210
0.0
220
0.0
230
1.0
 70
     8
 71
     3
 72
     8
 73
     4
 74
     0
 42
0.0000000001
 43
0.0000000001
 40
30.0
 40
30.0
 40
30.0
 40
30.0
 40
31.0
 40
31.0
 40
31.0
 40
31.0
 10
37.17207918094
 20
31.51976068033
 30
0.0
 10
38.15325751427334
 20
37.68720801366333
 30
0.0
 10
38.41609183539609
 20
43.94237688797135
 30
0.0
 10
38.51309618094001
 20
50.19389168033
 30
0.0
  0
LINE
  5
2B9
330
A
100
AcDbEntity
  8
CURVE
 62
     4
100
AcDbLine
 10
38.51309618094001
 20
50.19389168033
 30
0.0
 11
38.56304918094
 21
53.41314868033
 31
0.0
  0
SPLINE
  5
2BA
330
A
100
AcDbEntity
  8
CURVE
 62
   255
100
AcDbSpline
210
0.0
220
0.0
230
1.0
 70
     8
 71
     3
 72
     8
 73
     4
 74
     0
 42
0.0000000001
 43
0.0000000001
 40
0.0
 40
0.0
 40
0.0
 40
0.0
 40
1.0
 40
1.0
 40
1.0
 40
1.0
 10
-36.93417981906
 20
75.46710968033
 30
0.0
 10
-35.79178815239333
 20
79.04695434699667
 30
0.0
 10
-34.68387469414369
 20
82.66950543507066
 30
0.0
 10
-32.53574981906
 20
85.71329868033
 30
0.0
  0
SPLINE
  5
2BB
330
A
100
AcDbEntity
  8
CURVE
 62
   255
100
AcDbSpline
210
0.0
220
0.0
230
1.0
 70
     8
 71
     3
 72
     8
 73
     4
 74
     0
 42
0.0000000001
 43
0.0000000001
 40
1.0
 40
1.0
 40
1.0
 40
1.0
 40
2.0
 40
2.0
 40
2.0
 40
2.0
 10
-32.53574981906
 20
85.71329868033
 30
0.0
 10
-31.25432181905997
 20
87.52902268032993
 30
0.0
 10
-29.60933998624747
 20
89.10397413287972
 30
0.0
 10
-27.51333081906
 20
89.72311868033001
 30
0.0
  0
ARC
  5
2BC
330
A
100
AcDbEntity
  8
CURVE
 62
   255
100
AcDbCircle
 10
-25.63451698375767
 20
83.3627121509507
 30
0.0
 40
6.632097152989718
100
AcDbArc
 50
88.78397941577656
 51
106.4567240920031
  0
LINE
  5
2BD
330
A
100
AcDbEntity
  8
CURVE
 62
   255
100
AcDbLine
 10
-17.39340281906
 20
86.84114868032999
 30
0.0
 11
-5.217358819060099
 21
80.418282680331
 31
0.0
  0
SPLINE
  5
2BE
330
A
100
AcDbEntity
  8
CURVE
 62
   255
100
AcDbSpline
210
0.0
220
0.0
230
1.0
 70
     8
 71
     3
 72
     8
 73
     4
 74
     0
 42
0.0000000001
 43
0.0000000001
 40
0.0
 40
0.0
 40
0.0
 40
0.0
 40
1.0
 40
1.0
 40
1.0
 40
1.0
 10
-17.39340281906
 20
86.84114868032999
 30
0.0
 10
-20.03888015239333
 20
88.23663868032999
 30
0.0
 10
-22.58727415239333
 20
89.94856434699668
 30
0.0
 10
-25.49376981906
 20
89.99331668032999
 30
0.0
  0
LINE
  5
2BF
330
A
100
AcDbEntity
  8
CURVE
 62
   255
100
AcDbLine
 10
19.58593918094
 20
87.21835768033001
 30
0.0
 11
13.08165418094
 21
83.67736768032999
 31
0.0
  0
ARC
  5
2C0
330
A
100
AcDbEntity
  8
CURVE
 62
   255
100
AcDbCircle
 10
25.73532687981201
 20
83.86677621150381
 30
0.0000000000000071
 40
5.492659056618055
100
AcDbArc
 50
69.70761789910182
 51
99.19370032739919
  0
SPLINE
  5
2C1
330
A
100
AcDbEntity
  8
CURVE
 62
   255
100
AcDbSpline
210
0.0
220
0.0
230
1.0
 70
     8
 71
     3
 72
     8
 73
     4
 74
     0
 42
0.0000000001
 43
0.0000000001
 40
1.0
 40
1.0
 40
1.0
 40
1.0
 40
2.0
 40
2.0
 40
2.0
 40
2.0
 10
27.64024118094
 20
89.01853368033
 30
0.0
 10
29.82897118094
 20
88.2092286803301
 30
0.0
 10
30.9567148942156
 20
85.91423143467986
 30
0.0
 10
32.28383718094
 20
83.84322968033002
 30
0.0
  0
ARC
  5
2C2
330
A
100
AcDbEntity
  8
CURVE
 62
   255
100
AcDbCircle
 10
354.7034471384661
 20
290.4535085721262
 30
0.0
 40
382.9389144875578
100
AcDbArc
 50
212.652226534612
 51
214.1259918963402
  0
SPLINE
  5
2C3
330
A
100
AcDbEntity
  8
CURVE
 62
   255
100
AcDbSpline
210
0.0
220
0.0
230
1.0
 70
     8
 71
     3
 72
     8
 73
     4
 74
     0
 42
0.0000000001
 43
0.0000000001
 40
0.0
 40
0.0
 40
0.0
 40
0.0
 40
1.0
 40
1.0
 40
1.0
 40
1.0
 10
24.85775018094
 20
89.28887568032999
 30
0.0
 10
22.97443651427333
 20
89.07644701366335
 30
0.0
 10
21.27285318094
 20
88.13672868033005
 30
0.0
 10
19.58593918094
 20
87.21835768033001
 30
0.0
  0
LINE
  5
2C4
330
A
100
AcDbEntity
  8
CURVE
 62
   255
100
AcDbLine
 10
17.43141618094
 20
87.52558068033
 30
0.0
 11
3.738312180939399
 21
80.070932680331
 31
0.0
  0
ARC
  5
2C5
330
A
100
AcDbEntity
  8
CURVE
 62
   255
100
AcDbCircle
 10
25.40084956574319
 20
83.68024206787486
 30
0.0
 40
6.89061882108164
100
AcDbArc
 50
85.88275202199623
 51
102.3574020305604
  0
ARC
  5
2C6
330
A
100
AcDbEntity
  8
CURVE
 62
   255
100
AcDbCircle
 10
25.47510954257638
 20
84.05117599030901
 30
0.0
 40
6.515483185798554
100
AcDbArc
 50
40.73812029074708
 51
86.2998989333691
  0
SPLINE
  5
2C7
330
A
100
AcDbEntity
  8
CURVE
 62
   255
100
AcDbSpline
210
0.0
220
0.0
230
1.0
 70
     8
 71
     3
 72
     8
 73
     4
 74
     0
 42
0.0000000001
 43
0.0000000001
 40
2.0
 40
2.0
 40
2.0
 40
2.0
 40
3.0
 40
3.0
 40
3.0
 40
3.0
 10
30.41189318094
 20
88.30319768033
 30
0.0
 10
31.55067618094
 20
86.98102068033007
 30
0.0
 10
32.3165084086277
 20
85.38980051846451
 30
0.0
 10
33.17711318094001
 20
83.86065868033
 30
0.0
  0
ARC
  5
2C8
330
A
100
AcDbEntity
  8
CURVE
 62
   255
100
AcDbCircle
 10
-364.7982879122287
 20
-140.1208719417907
 30
0.0
 40
456.6750988778526
100
AcDbArc
 50
28.19115939485691
 51
29.37091577666887
  0
ARC
  5
2C9
330
A
100
AcDbEntity
  8
CURVE
 62
   255
100
AcDbCircle
 10
26.67067529915133
 20
76.89415121731451
 30
0.0
 40
13.79286900320831
100
AcDbArc
 50
101.4772170086024
 51
114.167529714227
  0
SPLINE
  5
2CA
330
A
100
AcDbEntity
  8
CURVE
 62
   255
100
AcDbSpline
210
0.0
220
0.0
230
1.0
 70
     8
 71
     3
 72
     8
 73
     4
 74
     0
 42
0.0000000001
 43
0.0000000001
 40
1.0
 40
1.0
 40
1.0
 40
1.0
 40
2.0
 40
2.0
 40
2.0
 40
2.0
 10
21.02379118094
 20
89.47810668033
 30
0.0
 10
19.78034518094
 20
88.92012668033
 30
0.0
 10
18.63016084760667
 20
88.17818734699661
 30
0.0
 10
17.43141718094
 20
87.52558068033
 30
0.0
  0
LINE
  5
2CB
330
A
100
AcDbEntity
  8
CURVE
 62
   255
100
AcDbLine
 10
13.08165418094
 20
83.67736768032999
 30
0.0
 11
13.13413618094
 21
82.58311168033001
 31
0.0
  0
ARC
  5
2CC
330
A
100
AcDbEntity
  8
CURVE
 62
   255
100
AcDbCircle
 10
732.2787835045318
 20
118.5343291401759
 30
0.0
 40
720.0427166571565
100
AcDbArc
 50
182.861927200629
 51
183.8807860757319
  0
ARC
  5
2CD
330
A
100
AcDbEntity
  8
CURVE
 62
   255
100
AcDbCircle
 10
284.1378411085393
 20
88.45278279619959
 30
0.0
 40
270.8935933031091
100
AcDbArc
 50
183.9480303961449
 51
187.5313290737235
  0
ARC
  5
2CE
330
A
100
AcDbEntity
  8
CURVE
 62
   255
100
AcDbCircle
 10
234.0267309425719
 20
81.68848272160488
 30
-0.0000000000000568
 40
220.3282324975222
100
AcDbArc
 50
187.4954505322838
 51
193.0614664788498
  0
SPLINE
  5
2CF
330
A
100
AcDbEntity
  8
CURVE
 62
   255
100
AcDbSpline
210
0.0
220
0.0
230
1.0
 70
     8
 71
     3
 72
     8
 73
     4
 74
     0
 42
0.0000000001
 43
0.0000000001
 40
4.0
 40
4.0
 40
4.0
 40
4.0
 40
5.0
 40
5.0
 40
5.0
 40
5.0
 10
19.39879118094
 20
31.89513468033
 30
0.0
 10
20.5521458476067
 20
26.92374501366333
 30
0.0
 10
21.93095590674682
 20
21.99890661435192
 30
0.0
 10
23.89356518094002
 20
17.29255568032999
 30
0.0
  0
ARC
  5
2D0
330
A
100
AcDbEntity
  8
CURVE
 62
   255
100
AcDbCircle
 10
180.8252269564895
 20
82.73509048766062
 30
0.0
 40
170.0302085796643
100
AcDbArc
 50
202.6367683168201
 51
205.9417346583958
  0
LINE
  5
2D1
330
A
100
AcDbEntity
  8
CURVE
 62
   255
100
AcDbLine
 10
11.81023818094
 20
82.98519768033001
 30
0.0
 11
11.83540518094
 21
82.51409468033001
 31
0.0
  0
SPLINE
  5
2D2
330
A
100
AcDbEntity
  8
CURVE
 62
   255
100
AcDbSpline
210
0.0
220
0.0
230
1.0
 70
     8
 71
     3
 72
     8
 73
     4
 74
     0
 42
0.0000000001
 43
0.0000000001
 40
1.0
 40
1.0
 40
1.0
 40
1.0
 40
2.0
 40
2.0
 40
2.0
 40
2.0
 10
11.83540518094
 20
82.51409468033001
 30
0.0
 10
12.33416051427333
 20
73.17773101366333
 30
0.0
 10
12.9160480010522
 20
63.84461892098085
 30
0.0
 10
14.05927918093999
 20
54.56869168033
 30
0.0
  0
ARC
  5
2D3
330
A
100
AcDbEntity
  8
CURVE
 62
   255
100
AcDbCircle
 10
193.2110677927696
 20
74.32300890737
 30
0.0
 40
180.2376109804061
100
AcDbArc
 50
186.2923458134816
 51
194.4994682260682
  0
LINE
  5
2D4
330
A
100
AcDbEntity
  8
CURVE
 62
   255
100
AcDbLine
 10
18.71403118094
 20
29.19673468033
 30
0.0
 11
19.19599418094
 21
27.33305068033
 31
0.0
  0
SPLINE
  5
2D5
330
A
100
AcDbEntity
  8
CURVE
 62
   255
100
AcDbSpline
210
0.0
220
0.0
230
1.0
 70
     8
 71
     3
 72
     8
 73
     4
 74
     0
 42
0.0000000001
 43
0.0000000001
 40
0.0
 40
0.0
 40
0.0
 40
0.0
 40
1.0
 40
1.0
 40
1.0
 40
1.0
 10
-29.25183881906
 20
6.484838680330399
 30
0.0
 10
-27.00003515239334
 20
10.86285534699706
 30
0.0
 10
-24.74475428965476
 20
15.24825976990257
 30
0.0
 10
-23.05702781906
 20
19.86718668033
 30
0.0
  0
ARC
  5
2D6
330
A
100
AcDbEntity
  8
CURVE
 62
   255
100
AcDbCircle
 10
-121.1589659265276
 20
55.55689089015555
 30
-0.0000000000000284
 40
104.3922662222937
100
AcDbArc
 50
340.0085001886075
 51
350.5548666920097
  0
ARC
  5
2D7
330
A
100
AcDbEntity
  8
CURVE
 62
   255
100
AcDbCircle
 10
-223.7907752264189
 20
72.36474725715618
 30
0.0
 40
208.3911021626891
100
AcDbArc
 50
350.6269564108656
 51
354.7174863963423
  0
ARC
  5
2D8
330
A
100
AcDbEntity
  8
CURVE
 62
   255
100
AcDbCircle
 10
-894.4919180815881
 20
130.1473827246427
 30
0.0
 40
881.5735902298317
100
AcDbArc
 50
354.9912371772129
 51
356.291348670962
  0
ARC
  5
2D9
330
A
100
AcDbEntity
  8
CURVE
 62
   255
100
AcDbCircle
 10
-703.0703421087759
 20
119.8148668609156
 30
0.0
 40
689.8876473303378
100
AcDbArc
 50
356.1193632234016
 51
356.9254208064899
  0
LINE
  5
2DA
330
A
100
AcDbEntity
  8
CURVE
 62
   255
100
AcDbLine
 10
-14.17574281906
 20
82.81220468033
 30
0.0
 11
-14.13072581906
 21
83.65030568033001
 31
0.0
  0
SPLINE
  5
2DB
330
A
100
AcDbEntity
  8
CURVE
 62
   255
100
AcDbSpline
210
0.0
220
0.0
230
1.0
 70
     8
 71
     3
 72
     8
 73
     4
 74
     0
 42
0.0000000001
 43
0.0000000001
 40
0.0
 40
0.0
 40
0.0
 40
0.0
 40
1.0
 40
1.0
 40
1.0
 40
1.0
 10
-28.09636781906
 20
5.8894276803304
 30
0.0
 10
-25.62849548572667
 20
10.6736846803304
 30
0.0
 10
-23.21853880113125
 20
15.49520684537765
 30
0.0
 10
-21.41954981906
 20
20.56199968033
 30
0.0
  0
ARC
  5
2DC
330
A
100
AcDbEntity
  8
CURVE
 62
   255
100
AcDbCircle
 10
-108.1269396769672
 20
51.34787234172908
 30
0.0
 40
92.01055054446191
100
AcDbArc
 50
340.4523506725213
 51
343.3617419294096
  0
LINE
  5
2DD
330
A
100
AcDbEntity
  8
CURVE
 62
   255
100
AcDbLine
 10
-12.86347781906
 20
82.98183268033
 30
0.0
 11
-5.8238948190602
 21
79.26845068033
 31
0.0
  0
LINE
  5
2DE
330
A
100
AcDbEntity
  8
CURVE
 62
   255
100
AcDbLine
 10
11.81023818094
 20
82.98519768033001
 30
0.0
 11
4.359899180939799
 21
78.929167680331
 31
0.0
  0
ARC
  5
2DF
330
A
100
AcDbEntity
  8
CURVE
 62
   255
100
AcDbCircle
 10
14.21565945862598
 20
127.1843902725924
 30
0.0
 40
6.106134878440967
100
AcDbArc
 50
259.9118525988179
 51
275.9256839196512
  0
SPLINE
  5
2E0
330
A
100
AcDbEntity
  8
CURVE
 62
   255
100
AcDbSpline
210
0.0
220
0.0
230
1.0
 70
     8
 71
     3
 72
     8
 73
     4
 74
     0
 42
0.0000000001
 43
0.0000000001
 40
1.0
 40
1.0
 40
1.0
 40
1.0
 40
2.0
 40
2.0
 40
2.0
 40
2.0
 10
14.84604718094
 20
121.11088268033
 30
0.0
 10
16.51449584760667
 20
121.2840560136634
 30
0.0
 10
18.13385812320559
 20
121.7638134123277
 30
0.0
 10
19.79769418094
 20
121.97357368033
 30
0.0
  0
ARC
  5
2E1
330
A
100
AcDbEntity
  8
CURVE
 62
   255
100
AcDbCircle
 10
21.50471437981097
 20
112.1906490923115
 30
-0.0000000000000142
 40
9.93073670249138
100
AcDbArc
 50
75.85467029824521
 51
99.89787735936527
  0
ARC
  5
2E2
330
A
100
AcDbEntity
  8
CURVE
 62
   255
100
AcDbCircle
 10
-41.86775497755547
 20
-126.0343025842448
 30
0.0
 40
256.439950908534
100
AcDbArc
 50
74.43050483092829
 51
75.13230931371777
  0
ARC
  5
2E3
330
A
100
AcDbEntity
  8
CURVE
 62
   255
100
AcDbCircle
 10
29.21488019296603
 20
129.0812085596632
 30
0.0000000000000142
 40
8.393326940323591
100
AcDbArc
 50
254.4338110926658
 51
277.5028228418234
  0
ARC
  5
2E4
330
A
100
AcDbEntity
  8
CURVE
 62
   255
100
AcDbCircle
 10
28.80677495453516
 20
132.1798958847819
 30
0.0
 40
11.51877299240728
100
AcDbArc
 50
277.5028228418234
 51
292.6299416366962
  0
ARC
  5
2E5
330
A
100
AcDbEntity
  8
CURVE
 62
   255
100
AcDbCircle
 10
-15.00635423095868
 20
126.6934429694997
 30
-0.0000000000000142
 40
4.150627469582103
100
AcDbArc
 50
248.3994550132408
 51
269.1895937150765
  0
SPLINE
  5
2E6
330
A
100
AcDbEntity
  8
CURVE
 62
   255
100
AcDbSpline
210
0.0
220
0.0
230
1.0
 70
     8
 71
     3
 72
     8
 73
     4
 74
     0
 42
0.0000000001
 43
0.0000000001
 40
1.0
 40
1.0
 40
1.0
 40
1.0
 40
2.0
 40
2.0
 40
2.0
 40
2.0
 10
-15.06505981906
 20
122.54323068033
 30
0.0
 10
-13.71456648572663
 20
122.5241276803299
 30
0.0
 10
-12.41503142034162
 20
122.9949204953434
 30
0.0
 10
-11.09711281906
 20
123.35199968033
 30
0.0
  0
ARC
  5
2E7
330
A
100
AcDbEntity
  8
CURVE
 62
   255
100
AcDbCircle
 10
-2.247825778703045
 20
91.02424300172117
 30
0.0
 40
33.51706629456055
100
AcDbArc
 50
98.88232171325846
 51
105.3089262561251
  0
ARC
  5
2E8
330
A
100
AcDbEntity
  8
CURVE
 62
   255
100
AcDbCircle
 10
-0.1896106701857647
 20
75.92190953546992
 30
0.0
 40
48.75699851428625
100
AcDbArc
 50
93.45040482759532
 51
98.53171730821545
  0
ARC
  5
2E9
330
A
100
AcDbEntity
  8
CURVE
 62
   255
100
AcDbCircle
 10
-1.006787114797461
 20
98.34945039766523
 30
-0.0000000000000284
 40
26.32634968445335
100
AcDbArc
 50
84.47471446901149
 51
94.61287295395916
  0
ARC
  5
2EA
330
A
100
AcDbEntity
  8
CURVE
 62
   255
100
AcDbCircle
 10
-1.266875000796256
 20
95.66077206426001
 30
0.0
 40
29.02757845835717
100
AcDbArc
 50
78.78924216007124
 51
84.47471446901154
  0
ARC
  5
2EB
330
A
100
AcDbEntity
  8
CURVE
 62
   255
100
AcDbCircle
 10
32.32525018094
 20
131.56209368033
 30
0.0
 40
10.05572736086514
100
AcDbArc
 50
275.2132478829153
 51
307.8517915717533
  0
ARC
  5
2EC
330
A
100
AcDbEntity
  8
CURVE
 62
   255
100
AcDbCircle
 10
-7.9305788190601
 20
61.70806568033
 30
0.0
 40
3.903132562507138
100
AcDbArc
 50
80.48378673464267
 51
260.2696526142049
  0
ARC
  5
2ED
330
A
100
AcDbEntity
  8
CURVE
 62
   255
100
AcDbCircle
 10
-7.930577721560394
 20
61.70806524477587
 30
0.0
 40
4.90313300164676
100
AcDbArc
 50
80.48379696451801
 51
170.3767217631613
  0
ARC
  5
2EE
330
A
100
AcDbEntity
  8
CURVE
 62
   255
100
AcDbCircle
 10
-7.930578666338024
 20
61.7080654049679
 30
0.0
 40
4.903132043384661
100
AcDbArc
 50
170.3767217631613
 51
260.2696322315079
  0
ARC
  5
2EF
330
A
100
AcDbEntity
  8
CURVE
 62
   255
100
AcDbCircle
 10
7.199563180939899
 20
62.00364268033
 30
0.0
 40
4.862869068915843
100
AcDbArc
 50
282.2679744487924
 51
101.454755678597
  0
ARC
  5
2F0
330
A
100
AcDbEntity
  8
CURVE
 62
   255
100
AcDbCircle
 10
7.199563180939899
 20
62.00364268033
 30
0.0
 40
3.862869602339942
100
AcDbArc
 50
282.2679762516702
 51
101.4547570831696
  0
ARC
  5
2F1
330
A
100
AcDbEntity
  8
CURVE
 62
   255
100
AcDbCircle
 10
-10.69411081906
 20
38.56500068033
 30
0.0
 40
4.907628278126428
100
AcDbArc
 50
73.23828488764021
 51
252.1621544267883
  0
ARC
  5
2F2
330
A
100
AcDbEntity
  8
CURVE
 62
   255
100
AcDbCircle
 10
-10.69411081906
 20
38.56500068033
 30
0.0
 40
3.90762773271004
100
AcDbArc
 50
73.23828165018371
 51
252.1621535458504
  0
ARC
  5
2F3
330
A
100
AcDbEntity
  8
CURVE
 62
   255
100
AcDbCircle
 10
10.61350018094
 20
39.11143568033
 30
0.0
 40
3.679543131263233
100
AcDbArc
 50
291.9290596728469
 51
108.5312302069711
  0
ARC
  5
2F4
330
A
100
AcDbEntity
  8
CURVE
 62
   255
100
AcDbCircle
 10
10.61350139507274
 20
39.11143571968331
 30
0.0
 40
4.679543004985839
100
AcDbArc
 50
291.9290532316097
 51
20.23014239005575
  0
ARC
  5
2F5
330
A
100
AcDbEntity
  8
CURVE
 62
   255
100
AcDbCircle
 10
10.61349965626202
 20
39.11143507888674
 30
0.0
 40
4.67954485811372
100
AcDbArc
 50
20.23014239005569
 51
108.531210232922
  0
ARC
  5
2F6
330
A
100
AcDbEntity
  8
CURVE
 62
   255
100
AcDbCircle
 10
-16.22457581906
 20
16.85164768033
 30
0.0
 40
3.848616800361025
100
AcDbArc
 50
71.88176058756934
 51
251.8677971504494
  0
ARC
  5
2F7
330
A
100
AcDbEntity
  8
CURVE
 62
   255
100
AcDbCircle
 10
-16.23250459042631
 20
16.83691474349792
 30
0.0
 40
4.865085703558756
100
AcDbArc
 50
71.84698346501952
 51
84.52378098339861
  0
ARC
  5
2F8
330
A
100
AcDbEntity
  8
CURVE
 62
   255
100
AcDbCircle
 10
16.46660018094
 20
17.12648868033
 30
0.0
 40
4.850055687829234
100
AcDbArc
 50
289.0907861339819
 51
79.50937525289106
  0
ARC
  5
2F9
330
A
100
AcDbEntity
  8
CURVE
 62
   255
100
AcDbCircle
 10
16.46660046185627
 20
17.12648865638945
 30
0.0
 40
3.850055426213298
100
AcDbArc
 50
289.0907977873035
 51
109.0863815286434
  0
ARC
  5
2FA
330
A
100
AcDbEntity
  8
CURVE
 62
   255
100
AcDbCircle
 10
-9.4307248190602
 20
29.74143968033
 30
0.0
 40
10.25445793922991
100
AcDbArc
 50
194.7116100528399
 51
231.8280897848508
  0
ARC
  5
2FB
330
A
100
AcDbEntity
  8
CURVE
 62
   255
100
AcDbCircle
 10
-9.430613054850468
 20
29.74150080531496
 30
0.0
 40
11.55458405317846
100
AcDbArc
 50
204.2127924996016
 51
213.2698001493014
  0
ARC
  5
2FC
330
A
100
AcDbEntity
  8
CURVE
 62
   255
100
AcDbCircle
 10
-9.430777754726459
 20
29.74139274194397
 30
0.0
 40
11.55438706652587
100
AcDbArc
 50
213.2698001493015
 51
225.3807340727551
  0
ARC
  5
2FD
330
A
100
AcDbEntity
  8
CURVE
 62
   255
100
AcDbCircle
 10
-16.22351218076858
 20
16.85129967537876
 30
0.0
 40
4.849735746898546
100
AcDbArc
 50
105.8306041349453
 51
161.874786447021
  0
ARC
  5
2FE
330
A
100
AcDbEntity
  8
CURVE
 62
   255
100
AcDbCircle
 10
-16.22457652449956
 20
16.85164807501963
 30
0.0
 40
4.848615831773449
100
AcDbArc
 50
161.8747864470211
 51
251.8678023085944
  0
SPLINE
  5
2FF
330
A
100
AcDbEntity
  8
CURVE
 62
   255
100
AcDbSpline
210
0.0
220
0.0
230
1.0
 70
     8
 71
     3
 72
     8
 73
     4
 74
     0
 42
0.0000000001
 43
0.0000000001
 40
0.0
 40
0.0
 40
0.0
 40
0.0
 40
1.0
 40
1.0
 40
1.0
 40
1.0
 10
-19.35242781906
 20
27.15035868033
 30
0.0
 10
-17.23918081906
 20
34.83730834699667
 30
0.0
 10
-16.0288839971543
 20
42.76983739890065
 30
0.0
 10
-15.22040481906
 20
50.73605968033
 30
0.0
  0
SPLINE
  5
300
330
A
100
AcDbEntity
  8
CURVE
 62
   255
100
AcDbSpline
210
0.0
220
0.0
230
1.0
 70
     8
 71
     3
 72
     8
 73
     4
 74
     0
 42
0.0000000001
 43
0.0000000001
 40
1.0
 40
1.0
 40
1.0
 40
1.0
 40
2.0
 40
2.0
 40
2.0
 40
2.0
 10
-15.22040481906
 20
50.73605968033
 30
0.0
 10
-14.14049381905997
 20
61.37679268033
 30
0.0
 10
-13.507722953556
 20
72.05659413788906
 30
0.0
 10
-12.87803381906
 20
82.73500568033
 30
0.0
  0
LINE
  5
301
330
A
100
AcDbEntity
  8
CURVE
 62
   255
100
AcDbLine
 10
-12.87803381906
 20
82.73500568033
 30
0.0
 11
-12.86347881906
 21
82.98183268033
 31
0.0
  0
ARC
  5
302
330
A
100
AcDbEntity
  8
CURVE
 62
   255
100
AcDbCircle
 10
8.828115558387821
 20
30.5735912431355
 30
0.0
 40
12.162510090653
100
AcDbArc
 50
314.478476552511
 51
324.6735051949869
  0
ARC
  5
303
330
A
100
AcDbEntity
  8
CURVE
 62
   255
100
AcDbCircle
 10
8.828186027826879
 20
30.57354129905251
 30
0.0
 40
12.16242371731645
100
AcDbArc
 50
324.6735051949869
 51
334.1525970950641
  0
ARC
  5
304
330
A
100
AcDbEntity
  8
CURVE
 62
   255
100
AcDbCircle
 10
16.46660018094
 20
17.12648868033
 30
0.0
 40
4.850054860232816
100
AcDbArc
 50
104.3028434589978
 51
109.0863889924277
  0
ARC
  5
305
330
A
100
AcDbEntity
  8
CURVE
 62
   255
100
AcDbCircle
 10
97.74140070531746
 20
47.32917571992683
 30
0.0
 40
81.02777096405871
100
AcDbArc
 50
195.7969837481675
 51
203.7554059444675
  0
ARC
  5
306
330
A
100
AcDbEntity
  8
CURVE
 62
   255
100
AcDbCircle
 10
234.2141457421463
 20
107.3939907590606
 30
0.0
 40
230.1337471808845
100
AcDbArc
 50
203.7554059444673
 51
205.8827453637758
  0
ARC
  5
307
330
A
100
AcDbEntity
  8
CURVE
 62
   255
100
AcDbCircle
 10
-17.22730581906
 20
7.2986556803304
 30
0.0
 40
3.111437288359207
100
AcDbArc
 50
72.41462288666021
 51
245.1587793992139
  0
ARC
  5
308
330
A
100
AcDbEntity
  8
CURVE
 62
   255
100
AcDbCircle
 10
-16.90627381906
 20
6.6400176803304
 30
0.0
 40
2.644614085648374
100
AcDbArc
 50
72.93889694355894
 51
245.9644724938123
  0
ARC
  5
309
330
A
100
AcDbEntity
  8
CURVE
 62
   255
100
AcDbCircle
 10
16.79444018094
 20
7.5739536803304
 30
0.0
 40
3.158657739165874
100
AcDbArc
 50
295.6246018229451
 51
108.6637355015814
  0
ARC
  5
30A
330
A
100
AcDbEntity
  8
CURVE
 62
   255
100
AcDbCircle
 10
16.43901818094
 20
6.8925406803304
 30
0.0
 40
2.693284072645835
100
AcDbArc
 50
294.7509931694232
 51
108.0883227871524
  0
SPLINE
  5
30B
330
A
100
AcDbEntity
  8
CURVE
 62
   255
100
AcDbSpline
210
0.0
220
0.0
230
1.0
 70
     8
 71
     3
 72
     8
 73
     4
 74
     0
 42
0.0000000001
 43
0.0000000001
 40
0.0
 40
0.0
 40
0.0
 40
0.0
 40
1.0
 40
1.0
 40
1.0
 40
1.0
 10
-17.46484581906
 20
244.49034668033
 30
0.0
 10
-16.95362648572666
 20
244.4234590136633
 30
0.0
 10
-16.42416147602858
 20
244.3509084662577
 30
0.0
 10
-16.13003481906
 20
243.97303768033
 30
0.0
  0
SPLINE
  5
30C
330
A
100
AcDbEntity
  8
CURVE
 62
   255
100
AcDbSpline
210
0.0
220
0.0
230
1.0
 70
     8
 71
     3
 72
     8
 73
     4
 74
     0
 42
0.0000000001
 43
0.0000000001
 40
1.0
 40
1.0
 40
1.0
 40
1.0
 40
2.0
 40
2.0
 40
2.0
 40
2.0
 10
-16.13003481906
 20
243.97303768033
 30
0.0
 10
-15.94348515239334
 20
243.7333733469969
 30
0.0
 10
-16.02459048572668
 20
243.4006040136635
 30
0.0
 10
-16.17246281906
 20
243.10650868033
 30
0.0
  0
ARC
  5
30D
330
A
100
AcDbEntity
  8
CURVE
 62
   255
100
AcDbCircle
 10
-14.86222189849119
 20
243.9577942836627
 30
0.0
 40
1.694191266935793
100
AcDbArc
 50
0.4410169528418717
 51
41.08896059101833
  0
ARC
  5
30E
330
A
100
AcDbEntity
  8
CURVE
 62
   255
100
AcDbCircle
 10
-15.73201819829899
 20
242.4345161678633
 30
0.0
 40
3.40010917709921
100
AcDbArc
 50
50.84950140449141
 51
83.19066679239506
  0
SPLINE
  5
30F
330
A
100
AcDbEntity
  8
CURVE
 62
   255
100
AcDbSpline
210
0.0
220
0.0
230
1.0
 70
     8
 71
     3
 72
     8
 73
     4
 74
     0
 42
0.0000000001
 43
0.0000000001
 40
2.0
 40
2.0
 40
2.0
 40
2.0
 40
3.0
 40
3.0
 40
3.0
 40
3.0
 10
-15.32888181906
 20
245.81064168033
 30
0.0
 10
-16.10540715239333
 20
245.9033650136633
 30
0.0
 10
-16.90783781906002
 20
245.7100413469965
 30
0.0
 10
-17.29385181906
 20
245.09076868033
 30
0.0
  0
ARC
  5
310
330
A
100
AcDbEntity
  8
CURVE
 62
   255
100
AcDbCircle
 10
-16.04131250063654
 20
244.4094987214103
 30
0.0
 40
1.425827304102141
100
AcDbArc
 50
151.4577426610325
 51
176.7494431768504
  0
SPLINE
  5
311
330
A
100
AcDbEntity
  8
CURVE
 62
   255
100
AcDbSpline
210
0.0
220
0.0
230
1.0
 70
     8
 71
     3
 72
     8
 73
     4
 74
     0
 42
0.0000000001
 43
0.0000000001
 40
0.0
 40
0.0
 40
0.0
 40
0.0
 40
1.0
 40
1.0
 40
1.0
 40
1.0
 10
-13.16808081906
 20
243.97083468033
 30
0.0
 10
-13.55903315239333
 20
243.9898963469967
 30
0.0
 10
-13.95512871539346
 20
244.0380095475552
 30
0.0
 10
-14.31193181906
 20
243.90036268033
 30
0.0
  0
SPLINE
  5
312
330
A
100
AcDbEntity
  8
CURVE
 62
   255
100
AcDbSpline
210
0.0
220
0.0
230
1.0
 70
     8
 71
     3
 72
     8
 73
     4
 74
     0
 42
0.0000000001
 43
0.0000000001
 40
1.0
 40
1.0
 40
1.0
 40
1.0
 40
2.0
 40
2.0
 40
2.0
 40
2.0
 10
-14.31193181906
 20
243.90036268033
 30
0.0
 10
-14.64149681906001
 20
243.77322368033
 30
0.0
 10
-14.76143050921059
 20
243.3874022894445
 30
0.0
 10
-14.69940581906
 20
243.01623668033
 30
0.0
  0
LINE
  5
313
330
A
100
AcDbEntity
  8
CURVE
 62
   255
100
AcDbLine
 10
-14.69940581906
 20
243.01623668033
 30
0.0
 11
-14.68305581906
 21
242.91839568033
 31
0.0
  0
ARC
  5
314
330
A
100
AcDbEntity
  8
CURVE
 62
   255
100
AcDbCircle
 10
-46.05601781906
 20
194.48371668033
 30
0.0
 40
1.99999973316237
100
AcDbArc
 50
56.92580768167136
 51
119.5496750085891
  0
ARC
  5
315
330
A
100
AcDbEntity
  8
CURVE
 62
   255
100
AcDbCircle
 10
-44.16630681905999
 20
175.28833068033
 30
0.0
 40
2.000000531632454
100
AcDbArc
 50
59.29820442681783
 51
124.7108713445835
  0
ARC
  5
316
330
A
100
AcDbEntity
  8
CURVE
 62
   255
100
AcDbCircle
 10
-38.60087581906
 20
156.84326468033
 30
0.0
 40
2.000000187031451
100
AcDbArc
 50
61.36386690571941
 51
128.4283919108165
  0
ARC
  5
317
330
A
100
AcDbEntity
  8
CURVE
 62
   255
100
AcDbCircle
 10
-44.31891681906
 20
215.65195968033
 30
0.0
 40
2.000000223643014
100
AcDbArc
 50
48.74831494298044
 51
122.8600677537592
  0
ARC
  5
318
330
A
100
AcDbEntity
  8
CURVE
 62
   255
100
AcDbCircle
 10
-38.73006181906
 20
233.38341468033
 30
0.0
 40
2.000000463458146
100
AcDbArc
 50
41.73085553624058
 51
112.9076893579586
  0
ARC
  5
319
330
A
100
AcDbEntity
  8
CURVE
 62
   255
100
AcDbCircle
 10
17.40563818094
 20
220.93863968033
 30
0.0
 40
1.99999980624794
100
AcDbArc
 50
78.99246906069525
 51
153.453525828647
  0
ARC
  5
31A
330
A
100
AcDbEntity
  8
CURVE
 62
   255
100
AcDbCircle
 10
1.6334681809399
 20
237.29661768033
 30
0.0
 40
2.000000155945867
100
AcDbArc
 50
94.60960336999006
 51
166.5467707030469
  0
ARC
  5
31B
330
A
100
AcDbEntity
  8
CURVE
 62
   255
100
AcDbCircle
 10
25.72556618094
 20
201.57692868033
 30
0.0
 40
2.000000069041323
100
AcDbArc
 50
70.59013739502147
 51
147.2836441750513
  0
ARC
  5
31C
330
A
100
AcDbEntity
  8
CURVE
 62
   255
100
AcDbCircle
 10
30.77376818094
 20
180.49359668033
 30
0.0
 40
1.999999795142542
100
AcDbArc
 50
62.877719592213
 51
136.9490705587424
  0
LINE
  5
31D
330
A
100
AcDbEntity
  8
CURVE
 62
   255
100
AcDbLine
 10
-21.43335881906
 20
242.29990768033
 30
0.0
 11
-20.01022381906
 21
242.77459068033
 31
0.0
  0
LINE
  5
31E
330
A
100
AcDbEntity
  8
CURVE
 62
   255
100
AcDbLine
 10
-16.17246281906
 20
243.10650868033
 30
0.0
 11
-14.68305481906
 21
242.91839568033
 31
0.0
  0
LINE
  5
321
330
A
100
AcDbEntity
  8
CURVE
 62
   255
100
AcDbLine
 10
-30.59450581906
 20
227.26682568033
 30
0.0
 11
-30.67303381906
 21
226.27597468033
 31
0.0
  0
ARC
  5
322
330
A
100
AcDbEntity
  8
CURVE
 62
   255
100
AcDbCircle
 10
-266.8806265745611
 20
242.8446183253937
 30
0.0
 40
236.7879786382446
100
AcDbArc
 50
354.3102652532245
 51
355.9875930627329
  0
LINE
  5
323
330
A
100
AcDbEntity
  8
CURVE
 62
   255
100
AcDbLine
 10
-31.25921981906
 20
219.36910968033
 30
0.0
 11
-31.39172881906
 21
218.03912968033
 31
0.0
  0
LINE
  5
324
330
A
100
AcDbEntity
  8
CURVE
 62
   255
100
AcDbLine
 10
-28.13290281906
 20
227.87878268033
 30
0.0
 11
-28.43592481906
 21
224.47874668033
 31
0.0
  0
ARC
  5
325
330
A
100
AcDbEntity
  8
CURVE
 62
   255
100
AcDbCircle
 10
-180.7282622193479
 20
238.8420854916767
 30
0.0
 40
152.9681716327049
100
AcDbArc
 50
353.3064110864472
 51
354.6121287063862
  0
ARC
  5
326
330
A
100
AcDbEntity
  8
CURVE
 62
   255
100
AcDbCircle
 10
-114.8769499338528
 20
230.5026713760763
 30
0.0
 40
86.59581014853726
100
AcDbArc
 50
351.3965815401418
 51
353.7080118114414
  0
ARC
  5
327
330
A
100
AcDbEntity
  8
CURVE
 62
   255
100
AcDbCircle
 10
450.6043664699948
 20
142.2662287358526
 30
0.0
 40
485.7293087366432
100
AcDbArc
 50
171.0839013972301
 51
171.8997542051951
  0
ARC
  5
328
330
A
100
AcDbEntity
  8
CURVE
 62
   255
100
AcDbCircle
 10
57.18300382583539
 20
198.0790337184608
 30
0.0
 40
88.36894187557261
100
AcDbArc
 50
171.7835260184291
 51
173.9968502874176
  0
ARC
  5
329
330
A
100
AcDbEntity
  8
CURVE
 62
   255
100
AcDbCircle
 10
30.16780519191588
 20
200.6632573362704
 30
0.0
 40
61.23215654402245
100
AcDbArc
 50
173.7579786406425
 51
176.9380449745152
  0
ARC
  5
32A
330
A
100
AcDbEntity
  8
CURVE
 62
   255
100
AcDbCircle
 10
59.22161054425399
 20
199.3911873524701
 30
0.0
 40
90.31287134633565
100
AcDbArc
 50
177.1167453459159
 51
185.774109754113
  0
ARC
  5
32B
330
A
100
AcDbEntity
  8
CURVE
 62
   255
100
AcDbCircle
 10
89.57504285150406
 20
202.5394313365405
 30
0.0
 40
120.8290586209779
100
AcDbArc
 50
185.8113388258473
 51
189.057694099016
  0
ARC
  5
32C
330
A
100
AcDbEntity
  8
CURVE
 62
   255
100
AcDbCircle
 10
116.2560638590965
 20
206.8000751178551
 30
0.0
 40
147.8481245866696
100
AcDbArc
 50
189.0604649652016
 51
191.7189850211999
  0
ARC
  5
32D
330
A
100
AcDbEntity
  8
CURVE
 62
   255
100
AcDbCircle
 10
143.0700015581209
 20
212.4402081295111
 30
0.0
 40
175.2487347711589
100
AcDbArc
 50
191.7439441862581
 51
193.9894225286248
  0
ARC
  5
32E
330
A
100
AcDbEntity
  8
CURVE
 62
   255
100
AcDbCircle
 10
155.1140697405307
 20
215.4538416840287
 30
0.0
 40
187.664104896283
100
AcDbArc
 50
193.9932950767774
 51
196.0913535098005
  0
ARC
  5
32F
330
A
100
AcDbEntity
  8
CURVE
 62
   255
100
AcDbCircle
 10
70.03219297200519
 20
190.0469139438619
 30
0.0
 40
98.87710069528784
100
AcDbArc
 50
195.6107429819491
 51
197.602236025348
  0
LINE
  5
330
330
A
100
AcDbEntity
  8
CURVE
 62
   255
100
AcDbLine
 10
-24.21536981906
 20
160.14577768033
 30
0.0
 11
-23.17492581906
 21
156.86632668033
 31
0.0
  0
ARC
  5
331
330
A
100
AcDbEntity
  8
CURVE
 62
   255
100
AcDbCircle
 10
-382.6264882153105
 20
36.69776858965452
 30
0.0
 40
379.0064749614413
100
AcDbArc
 50
17.4370613620098
 51
18.48534095864536
  0
ARC
  5
332
330
A
100
AcDbEntity
  8
CURVE
 62
   255
100
AcDbCircle
 10
-129.1371941969636
 20
116.1194305416911
 30
0.0
 40
113.3666732295363
100
AcDbArc
 50
15.7663225532698
 51
17.53213457589623
  0
ARC
  5
333
330
A
100
AcDbEntity
  8
CURVE
 62
   255
100
AcDbCircle
 10
-117.5846097381546
 20
119.2410293184925
 30
0.0
 40
101.400627241575
100
AcDbArc
 50
13.86480441848546
 51
15.84251790787887
  0
ARC
  5
334
330
A
100
AcDbEntity
  8
CURVE
 62
   255
100
AcDbCircle
 10
-140.9788104453422
 20
112.9445476663331
 30
0.0
 40
125.6230712514458
100
AcDbArc
 50
10.91057794803363
 51
14.09605973294838
  0
ARC
  5
335
330
A
100
AcDbEntity
  8
CURVE
 62
   255
100
AcDbCircle
 10
-386.266382158581
 20
65.66264051510201
 30
0.0
 40
375.4261368467961
100
AcDbArc
 50
8.791186237587135
 51
10.9105779480335
  0
ARC
  5
336
330
A
100
AcDbEntity
  8
CURVE
 62
   255
100
AcDbCircle
 10
-81.19086933942776
 20
173.4968207432584
 30
0.0
 40
96.3971784601154
100
AcDbArc
 50
31.31806357672329
 51
33.13698597875831
  0
ARC
  5
337
330
A
100
AcDbEntity
  8
CURVE
 62
   255
100
AcDbCircle
 10
-141.5852264926907
 20
136.8742359396874
 30
0.0
 40
167.0278066146395
100
AcDbArc
 50
29.7703826868722
 51
31.28177104021502
  0
ARC
  5
338
330
A
100
AcDbEntity
  8
CURVE
 62
   255
100
AcDbCircle
 10
-134.4840490992983
 20
141.0704970812576
 30
0.0
 40
158.7803195736293
100
AcDbArc
 50
28.13967238768358
 51
29.72833163483177
  0
ARC
  5
339
330
A
100
AcDbEntity
  8
CURVE
 62
   255
100
AcDbCircle
 10
-123.5853046557965
 20
147.4778404407138
 30
0.0
 40
146.1488428685415
100
AcDbArc
 50
24.49299952604528
 51
27.93977030853584
  0
ARC
  5
33A
330
A
100
AcDbEntity
  8
CURVE
 62
   255
100
AcDbCircle
 10
-55.82081297062884
 20
177.6914051907108
 30
0.0
 40
71.9588401108762
100
AcDbArc
 50
18.00732821325105
 51
24.97013631551551
  0
ARC
  5
33B
330
A
100
AcDbEntity
  8
CURVE
 62
   255
100
AcDbCircle
 10
-68.34356677220013
 20
173.9654938799828
 30
-0.0000000000000568
 40
85.0206469668325
100
AcDbArc
 50
11.89968632981611
 51
17.78638001674688
  0
SPLINE
  5
33C
330
A
100
AcDbEntity
  8
CURVE
 62
   255
100
AcDbSpline
210
0.0
220
0.0
230
1.0
 70
     8
 71
     3
 72
     8
 73
     4
 74
     0
 42
0.0000000001
 43
0.0000000001
 40
6.0
 40
6.0
 40
6.0
 40
6.0
 40
7.0
 40
7.0
 40
7.0
 40
7.0
 10
14.84999618094
 20
191.49665168033
 30
0.0
 10
16.05678618094
 20
185.7698673469966
 30
0.0
 10
16.70500522754205
 20
179.9399732818834
 30
0.0
 10
16.96202318094001
 20
174.08975768033
 30
0.0
  0
ARC
  5
33D
330
A
100
AcDbEntity
  8
CURVE
 62
   255
100
AcDbCircle
 10
-144.2034905010908
 20
167.6969945588434
 30
0.0
 40
161.2922509630277
100
AcDbArc
 50
356.0131832434933
 51
2.271493578281796
  0
SPLINE
  5
33E
330
A
100
AcDbEntity
  8
CURVE
 62
   255
100
AcDbSpline
210
0.0
220
0.0
230
1.0
 70
     8
 71
     3
 72
     8
 73
     4
 74
     0
 42
0.0000000001
 43
0.0000000001
 40
8.0
 40
8.0
 40
8.0
 40
8.0
 40
9.0
 40
9.0
 40
9.0
 40
9.0
 10
16.69844518094
 20
156.48283768033
 30
0.0
 10
15.87721284760666
 20
144.6997073469966
 30
0.0
 10
13.80478351427333
 20
133.0484436803301
 30
0.0
 10
11.86373118094
 20
121.38609268033
 30
0.0
  0
ARC
  5
33F
330
A
100
AcDbEntity
  8
CURVE
 62
   255
100
AcDbCircle
 10
142.4755822623391
 20
318.9790960997612
 30
0.0
 40
170.4208961258356
100
AcDbArc
 50
211.0465915811633
 51
212.9878130582928
  0
ARC
  5
340
330
A
100
AcDbEntity
  8
CURVE
 62
   255
100
AcDbCircle
 10
-48.81193031805106
 20
204.4748088147108
 30
0.0
 40
52.52110108733369
100
AcDbArc
 50
30.44405972000057
 51
35.59880391996602
  0
ARC
  5
341
330
A
100
AcDbEntity
  8
CURVE
 62
   255
100
AcDbCircle
 10
-18.48058228392891
 20
226.4755487523341
 30
0.0
 40
15.05333143082197
100
AcDbArc
 50
34.71182751473842
 51
51.44121895427591
  0
ARC
  5
342
330
A
100
AcDbEntity
  8
CURVE
 62
   255
100
AcDbCircle
 10
-16.59748277662136
 20
228.7991293865184
 30
0.0
 40
12.06261913952243
100
AcDbArc
 50
51.55615538576366
 51
56.57460153454485
  0
ARC
  5
343
330
A
100
AcDbEntity
  8
CURVE
 62
   255
100
AcDbCircle
 10
-14.75379591776165
 20
231.7143995210065
 30
0.0
 40
8.614188990450546
100
AcDbArc
 50
56.12808822514455
 51
63.10430332706572
  0
ARC
  5
344
330
A
100
AcDbEntity
  8
CURVE
 62
   255
100
AcDbCircle
 10
-15.16549106261657
 20
230.9153385719101
 30
0.0
 40
9.513056022623196
100
AcDbArc
 50
63.07001329360593
 51
75.69605441769621
  0
ARC
  5
345
330
A
100
AcDbEntity
  8
CURVE
 62
   255
100
AcDbCircle
 10
-16.23725565886501
 20
226.4923288189705
 30
0.0
 40
14.06384770376103
100
AcDbArc
 50
75.91700976476665
 51
84.76609838126655
  0
ARC
  5
346
330
A
100
AcDbEntity
  8
CURVE
 62
   255
100
AcDbCircle
 10
-16.80534657974672
 20
219.2864184592683
 30
0.0
 40
21.29173311144076
100
AcDbArc
 50
85.01263114251914
 51
91.03053474065177
  0
ARC
  5
347
330
A
100
AcDbEntity
  8
CURVE
 62
   255
100
AcDbCircle
 10
-16.80148912813237
 20
221.9624489826856
 30
0.0
 40
18.61627739267357
100
AcDbArc
 50
91.1905332994579
 51
98.02744940312546
  0
ARC
  5
348
330
A
100
AcDbEntity
  8
CURVE
 62
   255
100
AcDbCircle
 10
-17.60453804407531
 20
227.6416566165051
 30
0.0
 40
12.88057511842983
100
AcDbArc
 50
98.01813975462691
 51
107.6465592836529
  0
ARC
  5
349
330
A
100
AcDbEntity
  8
CURVE
 62
   255
100
AcDbCircle
 10
-18.7968413752431
 20
231.3897027658897
 30
0.0
 40
8.947454579795017
100
AcDbArc
 50
107.6465592836529
 51
117.6547583503857
  0
SPLINE
  5
34A
330
A
100
AcDbEntity
  8
CURVE
 62
   255
100
AcDbSpline
210
0.0
220
0.0
230
1.0
 70
     8
 71
     3
 72
     8
 73
     4
 74
     0
 42
0.0000000001
 43
0.0000000001
 40
0.0
 40
0.0
 40
0.0
 40
0.0
 40
1.0
 40
1.0
 40
1.0
 40
1.0
 10
-28.13290281906
 20
227.87878268033
 30
0.0
 10
-27.90156481906001
 20
230.6463473469967
 30
0.0
 10
-27.93689186071333
 20
233.4991700639656
 30
0.0
 10
-26.58089881906
 20
235.85170268033
 30
0.0
  0
ARC
  5
34B
330
A
100
AcDbEntity
  8
CURVE
 62
   255
100
AcDbCircle
 10
-18.88030229988607
 20
231.4131009691593
 30
0.0
 40
8.888215338386036
100
AcDbArc
 50
117.2482131052513
 51
150.0409751655139
  0
ARC
  5
34C
330
A
100
AcDbEntity
  8
CURVE
 62
   255
100
AcDbCircle
 10
-16.56611681906
 20
224.92367368033
 30
0.0
 40
21.81027805248538
100
AcDbArc
 50
84.77297917770979
 51
104.6408219065793
  0
ARC
  5
34D
330
A
100
AcDbEntity
  8
CURVE
 62
   255
100
AcDbCircle
 10
-14.79907981906
 20
244.23921868033
 30
0.0
 40
2.414076408542929
100
AcDbArc
 50
264.9285844739736
 51
84.77296979800369
  0
ARC
  5
34E
330
A
100
AcDbEntity
  8
CURVE
 62
   255
100
AcDbCircle
 10
-21.49848481906
 20
243.72423368033
 30
0.0
 40
2.373475067349886
100
AcDbArc
 50
104.7003704956469
 51
285.2517946667169
  0
ARC
  5
34F
330
A
100
AcDbEntity
  8
CURVE
 62
   255
100
AcDbCircle
 10
-21.49240408371207
 20
243.7207000016317
 30
0.0
 40
3.678439716470411
100
AcDbArc
 50
104.7780248618241
 51
194.8984501339225
  0
ARC
  5
350
330
A
100
AcDbEntity
  8
CURVE
 62
   255
100
AcDbCircle
 10
-21.50893386533232
 20
243.7163022456027
 30
0.0
 40
3.661334923618622
100
AcDbArc
 50
194.898450133922
 51
239.4847605496089
  0
LINE
  5
351
330
A
100
AcDbEntity
  8
CURVE
 62
   255
100
AcDbLine
 10
-15.01247781906
 20
241.83459268033
 30
0.0
 11
-15.86787081906
 21
241.89368168033
 31
0.0
  0
ARC
  5
352
330
A
100
AcDbEntity
  8
CURVE
 62
   255
100
AcDbCircle
 10
-16.85658159879834
 20
222.0410523962105
 30
0.0
 40
19.8772341762794
100
AcDbArc
 50
87.1488819780999
 51
94.11049835033832
  0
ARC
  5
353
330
A
100
AcDbEntity
  8
CURVE
 62
   255
100
AcDbCircle
 10
-17.58623531950883
 20
229.7759184789245
 30
0.0
 40
12.11120354373085
100
AcDbArc
 50
93.29043197991873
 51
104.7128848735212
  0
LINE
  5
354
330
A
100
AcDbEntity
  8
CURVE
 62
   255
100
AcDbLine
 10
-20.66218381906
 20
241.49000368033
 30
0.0
 11
-20.87411481906
 21
241.43435368033
 31
0.0
  0
LINE
  5
355
330
A
100
AcDbEntity
  8
CURVE
 62
   255
100
AcDbLine
 10
19.43167318094
 20
164.20635768033
 30
0.0
 11
30.44348018094
 21
169.00998168033
 31
0.0
  0
LINE
  5
356
330
A
100
AcDbEntity
  8
CURVE
 62
   255
100
AcDbLine
 10
-32.65642681906
 20
188.14396768033
 30
0.0
 11
-32.51825181906
 21
186.68034168033
 31
0.0
  0
ARC
  5
357
330
A
100
AcDbEntity
  8
CURVE
 62
   255
100
AcDbCircle
 10
92.63001012820632
 20
199.6648103607126
 30
0.0
 40
125.8200456816537
100
AcDbArc
 50
185.9233974787706
 51
189.1141818685136
  0
LINE
  5
358
330
A
100
AcDbEntity
  8
CURVE
 62
   255
100
AcDbLine
 10
-31.60151081906
 20
179.73460468033
 30
0.0
 11
-31.59447781906
 21
179.69076568033
 31
0.0
  0
LINE
  5
359
330
A
100
AcDbEntity
  8
CURVE
 62
   255
100
AcDbLine
 10
-29.09541381906
 20
168.66527768033
 30
0.0
 11
-28.71292681906
 21
167.10987068033
 31
0.0
  0
ARC
  5
35A
330
A
100
AcDbEntity
  8
CURVE
 62
   255
100
AcDbCircle
 10
154.541923027408
 20
213.018745767797
 30
0.0
 40
188.9178784658778
100
AcDbArc
 50
194.0642430492653
 51
195.7464594523646
  0
LINE
  5
35B
330
A
100
AcDbEntity
  8
CURVE
 62
   255
100
AcDbLine
 10
-23.81362081906
 20
151.04762168033
 30
0.0
 11
-22.90100281906
 21
148.18541568033
 31
0.0
  0
ARC
  5
35C
330
A
100
AcDbEntity
  8
CURVE
 62
   255
100
AcDbCircle
 10
-90.33368180287101
 20
126.4254734945789
 30
0.0
 40
70.85662480573668
100
AcDbArc
 50
15.10026378692481
 51
17.88444148251571
  0
LINE
  5
35D
330
A
100
AcDbEntity
  8
CURVE
 62
   255
100
AcDbLine
 10
-21.92363481906
 20
144.88425868033
 30
0.0
 11
-21.45703881906
 21
143.15500868033
 31
0.0
  0
ARC
  5
35E
330
A
100
AcDbEntity
  8
CURVE
 62
   255
100
AcDbCircle
 10
-354.3866989669856
 20
71.99785660746866
 30
0.0
 40
340.6339980510598
100
AcDbArc
 50
9.270534485955293
 51
10.39890447681308
  0
LINE
  5
35F
330
A
100
AcDbEntity
  8
CURVE
 62
   255
100
AcDbLine
 10
-5.8852848190601
 20
168.43094668033
 30
0.0
 11
-3.3992948190601
 21
168.52949768033
 31
0.0
  0
SPLINE
  5
360
330
A
100
AcDbEntity
  8
CURVE
 62
   255
100
AcDbSpline
210
0.0
220
0.0
230
1.0
 70
     8
 71
     3
 72
     8
 73
     4
 74
     0
 42
0.0000000001
 43
0.0000000001
 40
0.0
 40
0.0
 40
0.0
 40
0.0
 40
1.0
 40
1.0
 40
1.0
 40
1.0
 10
-12.22517681906
 20
223.94033768033
 30
0.0
 10
-11.60042915239333
 20
223.89755068033
 30
0.0
 10
-10.96808113849423
 20
223.8648148421553
 30
0.0
 10
-10.40501081906
 20
223.60851668033
 30
0.0
  0
SPLINE
  5
361
330
A
100
AcDbEntity
  8
CURVE
 62
   255
100
AcDbSpline
210
0.0
220
0.0
230
1.0
 70
     8
 71
     3
 72
     8
 73
     4
 74
     0
 42
0.0000000001
 43
0.0000000001
 40
1.0
 40
1.0
 40
1.0
 40
1.0
 40
2.0
 40
2.0
 40
2.0
 40
2.0
 10
-10.40501081906
 20
223.60851668033
 30
0.0
 10
-9.961752152393298
 20
223.4067543469967
 30
0.0
 10
-9.549305152393293
 20
223.1155353469967
 30
0.0
 10
-9.436022819060099
 20
222.66508368033
 30
0.0
  0
ARC
  5
362
330
A
100
AcDbEntity
  8
CURVE
 62
   255
100
AcDbCircle
 10
-11.39215139477109
 20
222.3350162879142
 30
0.0
 40
1.983780100779649
100
AcDbArc
 50
333.2528695863381
 51
9.577588336128028
  0
SPLINE
  5
363
330
A
100
AcDbEntity
  8
CURVE
 62
   255
100
AcDbSpline
210
0.0
220
0.0
230
1.0
 70
     8
 71
     3
 72
     8
 73
     4
 74
     0
 42
0.0000000001
 43
0.0000000001
 40
0.0
 40
0.0
 40
0.0
 40
0.0
 40
1.0
 40
1.0
 40
1.0
 40
1.0
 10
-4.094626819060099
 20
223.46499368033
 30
0.0
 10
-4.184040152393432
 20
224.10906468033
 30
0.0
 10
-4.338732691330501
 20
224.7525531734159
 30
0.0
 10
-4.750464819060099
 20
225.24024368033
 30
0.0
  0
SPLINE
  5
364
330
A
100
AcDbEntity
  8
CURVE
 62
   255
100
AcDbSpline
210
0.0
220
0.0
230
1.0
 70
     8
 71
     3
 72
     8
 73
     4
 74
     0
 42
0.0000000001
 43
0.0000000001
 40
1.0
 40
1.0
 40
1.0
 40
1.0
 40
2.0
 40
2.0
 40
2.0
 40
2.0
 10
-4.750464819060099
 20
225.24024368033
 30
0.0
 10
-5.510187152393399
 20
226.1401233469966
 30
0.0
 10
-6.699717171148634
 20
226.5050462225608
 30
0.0
 10
-7.898313819060099
 20
226.68570168033
 30
0.0
  0
SPLINE
  5
365
330
A
100
AcDbEntity
  8
CURVE
 62
   255
100
AcDbSpline
210
0.0
220
0.0
230
1.0
 70
     8
 71
     3
 72
     8
 73
     4
 74
     0
 42
0.0000000001
 43
0.0000000001
 40
2.0
 40
2.0
 40
2.0
 40
2.0
 40
3.0
 40
3.0
 40
3.0
 40
3.0
 10
-7.898313819060099
 20
226.68570168033
 30
0.0
 10
-9.260130152393433
 20
226.8909580136632
 30
0.0
 10
-10.67941072480708
 20
226.6048324506663
 30
0.0
 10
-11.60331881906
 20
225.62747568033
 30
0.0
  0
ARC
  5
366
330
A
100
AcDbEntity
  8
CURVE
 62
   255
100
AcDbCircle
 10
-9.875223529559548
 20
224.0482526449623
 30
0.0
 40
2.340995242419262
100
AcDbArc
 50
137.5773140351287
 51
176.9777751518687
  0
LINE
  5
367
330
A
100
AcDbEntity
  8
CURVE
 62
   255
100
AcDbLine
 10
-12.21296281906
 20
224.17167768033
 30
0.0
 11
-12.22517681906
 21
223.94033768033
 31
0.0
  0
ARC
  5
368
330
A
100
AcDbEntity
  8
CURVE
 62
   255
100
AcDbCircle
 10
-4.302923285857023
 20
215.5977308824159
 30
0.0
 40
7.870019780758091
100
AcDbArc
 50
88.48337074446758
 51
102.1374044675834
  0
ARC
  5
369
330
A
100
AcDbEntity
  8
CURVE
 62
   255
100
AcDbCircle
 10
-5.65566399192768
 20
222.0551002120126
 30
0.0
 40
1.273061161061487
100
AcDbArc
 50
103.7220227534949
 51
186.3312005991508
  0
ARC
  5
36A
330
A
100
AcDbEntity
  8
CURVE
 62
   255
100
AcDbCircle
 10
-2.264597391211838
 20
222.4313466860709
 30
0.0
 40
4.684936613028043
100
AcDbArc
 50
186.3312005991514
 51
194.453323523702
  0
LINE
  5
36B
330
A
100
AcDbEntity
  8
CURVE
 62
   255
100
AcDbLine
 10
-6.801246819060099
 20
221.26209268033
 30
0.0
 11
-9.6206328190601
 21
221.44220768033
 31
0.0
  0
LINE
  5
36C
330
A
100
AcDbEntity
  8
CURVE
 62
   255
100
AcDbLine
 10
1.441345180939799
 20
199.57985968033
 30
0.0
 11
4.359889180939799
 21
198.88552468033
 31
0.0
  0
ARC
  5
36D
330
A
100
AcDbEntity
  8
CURVE
 62
   255
100
AcDbCircle
 10
6.25666754265881
 20
194.5431153620034
 30
-0.0000000000000142
 40
6.398513172436548
100
AcDbArc
 50
75.57870665773868
 51
93.09630859560773
  0
ARC
  5
36E
330
A
100
AcDbEntity
  8
CURVE
 62
   255
100
AcDbCircle
 10
5.994439140680167
 20
199.0177238342489
 30
0.0
 40
1.916378774006497
100
AcDbArc
 50
92.49379601724987
 51
105.9843366697585
  0
ARC
  5
36F
330
A
100
AcDbEntity
  8
CURVE
 62
   255
100
AcDbCircle
 10
5.895140109890306
 20
199.3643783472499
 30
0.0
 40
1.555782533177803
100
AcDbArc
 50
105.9843366697582
 51
147.1080697897234
  0
ARC
  5
370
330
A
100
AcDbEntity
  8
CURVE
 62
   255
100
AcDbCircle
 10
6.658793363100115
 20
199.1697085496415
 30
0.0
 40
2.316401587057756
100
AcDbArc
 50
153.3347727020457
 51
187.0469908350975
  0
ARC
  5
371
330
A
100
AcDbEntity
  8
CURVE
 62
   255
100
AcDbCircle
 10
-2.20777246919047
 20
196.556656288425
 30
-0.0000000000000142
 40
6.398695225469186
100
AcDbArc
 50
60.13961953380409
 51
77.65671967094327
  0
ARC
  5
372
330
A
100
AcDbEntity
  8
CURVE
 62
   255
100
AcDbCircle
 10
0.0414089015369164
 20
200.4339253729358
 30
0.0
 40
1.916432568330128
100
AcDbArc
 50
47.25152987527165
 51
60.74165178084459
  0
ARC
  5
373
330
A
100
AcDbEntity
  8
CURVE
 62
   255
100
AcDbCircle
 10
0.2862129506100279
 20
200.6987670878696
 30
0.0
 40
1.555780164467839
100
AcDbArc
 50
6.12766979752
 51
47.25152987527231
  0
ARC
  5
374
330
A
100
AcDbEntity
  8
CURVE
 62
   255
100
AcDbCircle
 10
-0.483302372176167
 20
200.8688475673063
 30
0.0
 40
2.316410023832702
100
AcDbArc
 50
326.188743495951
 51
359.9008164735727
  0
ARC
  5
375
330
A
100
AcDbEntity
  8
CURVE
 62
   255
100
AcDbCircle
 10
4.030241073468284
 20
200.9598561818094
 30
-0.0000000000000071
 40
3.826295815510555
100
AcDbArc
 50
356.7062470101599
 51
27.12035394600094
  0
ARC
  5
376
330
A
100
AcDbEntity
  8
CURVE
 62
   255
100
AcDbCircle
 10
4.158632813529827
 20
201.1560752159157
 30
0.0
 40
3.624432487170508
100
AcDbArc
 50
25.28445197980187
 51
61.56690056122672
  0
ARC
  5
377
330
A
100
AcDbEntity
  8
CURVE
 62
   255
100
AcDbCircle
 10
2.608551939641603
 20
197.9193623365897
 30
0.0
 40
7.210953459048916
100
AcDbArc
 50
62.98139740003675
 51
76.61645886866591
  0
LINE
  5
378
330
A
100
AcDbEntity
  8
CURVE
 62
   255
100
AcDbLine
 10
4.2776601809398
 20
204.93448368033
 30
0.0
 11
4.238741180939899
 21
204.94374368033
 31
0.0
  0
ARC
  5
379
330
A
100
AcDbEntity
  8
CURVE
 62
   255
100
AcDbCircle
 10
2.837294728581264
 20
200.2519624868532
 30
0.0
 40
4.896617498466737
100
AcDbArc
 50
73.36898668510646
 51
93.50462121013562
  0
ARC
  5
37A
330
A
100
AcDbEntity
  8
CURVE
 62
   255
100
AcDbCircle
 10
2.740802182465803
 20
201.2464535401457
 30
0.0000000000000071
 40
3.898249601158877
100
AcDbArc
 50
92.98255020685083
 51
126.637423275571
  0
ARC
  5
37B
330
A
100
AcDbEntity
  8
CURVE
 62
   255
100
AcDbCircle
 10
2.777158388004421
 20
201.1975666093356
 30
0.0
 40
3.959173370618696
100
AcDbArc
 50
126.6374232755706
 51
156.0073788568921
  0
LINE
  5
37C
330
A
100
AcDbEntity
  8
CURVE
 62
   255
100
AcDbLine
 10
6.1869371809398
 20
178.66302268033
 30
0.0
 11
9.105481180939799
 21
177.96868768033
 31
0.0
  0
ARC
  5
37D
330
A
100
AcDbEntity
  8
CURVE
 62
   255
100
AcDbCircle
 10
11.00225782116466
 20
173.6262509143485
 30
0.0
 40
6.39854043302328
100
AcDbArc
 50
75.57874426749541
 51
93.09627098585087
  0
ARC
  5
37E
330
A
100
AcDbEntity
  8
CURVE
 62
   255
100
AcDbCircle
 10
10.74003070642543
 20
178.1008883502404
 30
0.0
 40
1.916377197045052
100
AcDbArc
 50
92.49375514870775
 51
105.9843366697657
  0
ARC
  5
37F
330
A
100
AcDbEntity
  8
CURVE
 62
   255
100
AcDbCircle
 10
10.64073210989085
 20
178.4475413472492
 30
0.0
 40
1.555782533178662
100
AcDbArc
 50
105.984336669766
 51
147.1080697897103
  0
ARC
  5
380
330
A
100
AcDbEntity
  8
CURVE
 62
   255
100
AcDbCircle
 10
11.40438536309947
 20
178.2528715496418
 30
0.0
 40
2.316401587057056
100
AcDbArc
 50
153.3347727020449
 51
187.0469908351075
  0
ARC
  5
381
330
A
100
AcDbEntity
  8
CURVE
 62
   255
100
AcDbCircle
 10
2.537889646103279
 20
175.6400009791737
 30
0.0000000000000142
 40
6.398502746252288
100
AcDbArc
 50
60.1393539881074
 51
77.65698521663964
  0
ARC
  5
382
330
A
100
AcDbEntity
  8
CURVE
 62
   255
100
AcDbCircle
 10
4.786967071770938
 20
179.5170471343027
 30
0.0
 40
1.916485080202098
100
AcDbArc
 50
47.25160373862273
 51
60.74137199311897
  0
ARC
  5
383
330
A
100
AcDbEntity
  8
CURVE
 62
   255
100
AcDbCircle
 10
5.031809758991552
 20
179.7819313350576
 30
0.0
 40
1.555775250428983
100
AcDbArc
 50
6.127643031255916
 51
47.25160373862145
  0
ARC
  5
384
330
A
100
AcDbEntity
  8
CURVE
 62
   255
100
AcDbCircle
 10
4.262289627823971
 20
179.9520105673062
 30
0.0
 40
2.316410023832564
100
AcDbArc
 50
326.1887434959511
 51
359.9008164735748
  0
ARC
  5
385
330
A
100
AcDbEntity
  8
CURVE
 62
   255
100
AcDbCircle
 10
8.775846628268434
 20
180.0430218305647
 30
0.0
 40
3.826283433636121
100
AcDbArc
 50
356.7061966110062
 51
27.12040434515174
  0
ARC
  5
386
330
A
100
AcDbEntity
  8
CURVE
 62
   255
100
AcDbCircle
 10
8.904222593109182
 20
180.2392341149969
 30
0.0
 40
3.624437150624566
100
AcDbArc
 50
25.28448885338671
 51
61.56690056123304
  0
ARC
  5
387
330
A
100
AcDbEntity
  8
CURVE
 62
   255
100
AcDbCircle
 10
7.354143939639016
 20
177.0025253365821
 30
0.0
 40
7.210953459056921
100
AcDbArc
 50
62.98139740004513
 51
76.61645886865912
  0
LINE
  5
388
330
A
100
AcDbEntity
  8
CURVE
 62
   255
100
AcDbLine
 10
9.0232521809399
 20
184.0176466803299
 30
0.0
 11
8.9843331809399
 21
184.02690668033
 31
0.0
  0
ARC
  5
389
330
A
100
AcDbEntity
  8
CURVE
 62
   255
100
AcDbCircle
 10
7.582890161994857
 20
179.3351553288583
 30
0.0
 40
4.896587922154171
100
AcDbArc
 50
73.36892523988358
 51
93.50468265535852
  0
ARC
  5
38A
330
A
100
AcDbEntity
  8
CURVE
 62
   255
100
AcDbCircle
 10
7.486401720886126
 20
180.3295997023255
 30
0.0
 40
3.898266808414417
100
AcDbArc
 50
92.98264797789993
 51
126.637373271352
  0
ARC
  5
38B
330
A
100
AcDbEntity
  8
CURVE
 62
   255
100
AcDbCircle
 10
7.522741635147295
 20
180.2807345887718
 30
0.0
 40
3.959163349294204
100
AcDbArc
 50
126.6373732713523
 51
156.0073931856604
  0
LINE
  5
38C
330
A
100
AcDbEntity
  8
CURVE
 62
   255
100
AcDbLine
 10
-21.30147981906
 20
175.12261968033
 30
0.0
 11
-18.53519281906
 21
176.28350368033
 31
0.0
  0
ARC
  5
38D
330
A
100
AcDbEntity
  8
CURVE
 62
   255
100
AcDbCircle
 10
-14.44219151036225
 20
173.8960284384095
 30
0.0
 40
6.3983242459763
100
AcDbArc
 50
111.7261465624731
 51
129.2442815934939
  0
ARC
  5
38E
330
A
100
AcDbEntity
  8
CURVE
 62
   255
100
AcDbCircle
 10
-17.29321452527132
 20
177.3543742977621
 30
0.0
 40
1.916457064562458
100
AcDbArc
 50
128.6420094224115
 51
142.1319639420221
  0
ARC
  5
38F
330
A
100
AcDbEntity
  8
CURVE
 62
   255
100
AcDbCircle
 10
-17.57794156724821
 20
177.5757732576113
 30
0.0
 40
1.555781326737945
100
AcDbArc
 50
142.1319639420227
 51
183.2557542761037
  0
ARC
  5
390
330
A
100
AcDbEntity
  8
CURVE
 62
   255
100
AcDbCircle
 10
-16.84645771078816
 20
177.8690345052986
 30
0.0
 40
2.316405461665869
100
AcDbArc
 50
189.4824867067253
 51
223.1946448747076
  0
ARC
  5
391
330
A
100
AcDbEntity
  8
CURVE
 62
   255
100
AcDbCircle
 10
-22.46488703111628
 20
170.5290496340817
 30
0.0
 40
6.398527305115069
100
AcDbArc
 50
96.28711560523571
 51
113.8046898244559
  0
ARC
  5
392
330
A
100
AcDbEntity
  8
CURVE
 62
   255
100
AcDbCircle
 10
-22.9357174078786
 20
174.9864843055526
 30
0.0
 40
1.916446205131338
100
AcDbArc
 50
83.39919573690025
 51
96.88920757790938
  0
ARC
  5
393
330
A
100
AcDbEntity
  8
CURVE
 62
   255
100
AcDbCircle
 10
-22.89425802652829
 20
175.3447632205961
 30
0.0
 40
1.55577646524909
100
AcDbArc
 50
42.27522984553488
 51
83.3991957369005
  0
ARC
  5
394
330
A
100
AcDbEntity
  8
CURVE
 62
   255
100
AcDbCircle
 10
-23.61595478923211
 20
175.0281845511304
 30
0.0
 40
2.31640077923734
100
AcDbArc
 50
2.336509147515697
 51
36.04868606595682
  0
ARC
  5
395
330
A
100
AcDbEntity
  8
CURVE
 62
   255
100
AcDbCircle
 10
-20.02494659523535
 20
177.7641003111297
 30
-0.0000000000000071
 40
3.826265502296656
100
AcDbArc
 50
32.85381508998439
 51
63.2681654005558
  0
ARC
  5
396
330
A
100
AcDbEntity
  8
CURVE
 62
   255
100
AcDbCircle
 10
-20.03703574735954
 20
177.9982268330122
 30
0.0
 40
3.624460234829835
100
AcDbArc
 50
61.43236217226303
 51
97.71453995753404
  0
ARC
  5
397
330
A
100
AcDbEntity
  8
CURVE
 62
   255
100
AcDbCircle
 10
-19.37950605710874
 20
174.4703202243607
 30
0.0
 40
7.21089889656757
100
AcDbArc
 50
99.1290261409421
 51
112.7641837305828
  0
LINE
  5
398
330
A
100
AcDbEntity
  8
CURVE
 62
   255
100
AcDbLine
 10
-22.16968581906
 20
181.11952768033
 30
0.0
 11
-22.20657581906
 21
181.10404768033
 31
0.0
  0
ARC
  5
399
330
A
100
AcDbEntity
  8
CURVE
 62
   255
100
AcDbCircle
 10
-20.57072451840654
 20
176.4888036941847
 30
0.0000000000000142
 40
4.896579063948586
100
AcDbArc
 50
109.5166298377451
 51
129.6524174367709
  0
ARC
  5
39A
330
A
100
AcDbEntity
  8
CURVE
 62
   255
100
AcDbCircle
 10
-21.23523031774166
 20
177.2348952890095
 30
-0.0000000000000071
 40
3.898262589675077
100
AcDbArc
 50
129.1303396124643
 51
162.7851249376526
  0
ARC
  5
39B
330
A
100
AcDbEntity
  8
CURVE
 62
   255
100
AcDbCircle
 10
-21.17705050163365
 20
177.2168690742148
 30
0.0
 40
3.959171007994608
100
AcDbArc
 50
162.7851249376524
 51
192.1550879923414
  0
LINE
  5
39C
330
A
100
AcDbEntity
  8
CURVE
 62
   255
100
AcDbLine
 10
-23.56514181906
 20
196.10274468033
 30
0.0
 11
-20.79885381906
 21
197.26362868033
 31
0.0
  0
ARC
  5
39D
330
A
100
AcDbEntity
  8
CURVE
 62
   255
100
AcDbCircle
 10
-16.70585251034683
 20
194.8761534383835
 30
0.0
 40
6.398324246006169
100
AcDbArc
 50
111.7261465625152
 51
129.2442815934536
  0
ARC
  5
39E
330
A
100
AcDbEntity
  8
CURVE
 62
   255
100
AcDbCircle
 10
-19.55684057225021
 20
198.334464813739
 30
0.0
 40
1.91650582525923
100
AcDbArc
 50
128.6421818286181
 51
142.1317915358067
  0
ARC
  5
39F
330
A
100
AcDbEntity
  8
CURVE
 62
   255
100
AcDbCircle
 10
-19.8416122799461
 20
198.5558998799061
 30
0.0
 40
1.555772663445
100
AcDbArc
 50
142.1317915358065
 51
183.2557953800901
  0
ARC
  5
3A0
330
A
100
AcDbEntity
  8
CURVE
 62
   255
100
AcDbCircle
 10
-19.11011185937175
 20
198.8491644780146
 30
0.0
 40
2.316413860291615
100
AcDbArc
 50
189.4825516338633
 51
223.1946185476393
  0
ARC
  5
3A1
330
A
100
AcDbEntity
  8
CURVE
 62
   255
100
AcDbCircle
 10
-24.72854527534838
 20
191.5091643822757
 30
0.0
 40
6.398537797049238
100
AcDbArc
 50
96.28713008029505
 51
113.8046753493949
  0
ARC
  5
3A2
330
A
100
AcDbEntity
  8
CURVE
 62
   255
100
AcDbCircle
 10
-25.19937890810807
 20
195.9666136244137
 30
0.0
 40
1.916441857450112
100
AcDbArc
 50
83.39919573689453
 51
96.88920821856825
  0
ARC
  5
3A3
330
A
100
AcDbEntity
  8
CURVE
 62
   255
100
AcDbCircle
 10
-25.15792002652848
 20
196.3248882205958
 30
0.0
 40
1.555776465249423
100
AcDbArc
 50
42.27522984553788
 51
83.39919573689467
  0
ARC
  5
3A4
330
A
100
AcDbEntity
  8
CURVE
 62
   255
100
AcDbCircle
 10
-25.87960892981211
 20
196.0083104626516
 30
0.0
 40
2.316393888358892
100
AcDbArc
 50
2.336493536941506
 51
36.04878223703931
  0
ARC
  5
3A5
330
A
100
AcDbEntity
  8
CURVE
 62
   255
100
AcDbCircle
 10
-22.28860759523615
 20
198.7442253111287
 30
0.0
 40
3.826265502297876
100
AcDbArc
 50
32.85381508999036
 51
63.26816540055166
  0
ARC
  5
3A6
330
A
100
AcDbEntity
  8
CURVE
 62
   255
100
AcDbCircle
 10
-22.30069742107098
 20
198.9783481718031
 30
0.0
 40
3.624463772464753
100
AcDbArc
 50
61.4323804951746
 51
97.71452163462143
  0
ARC
  5
3A7
330
A
100
AcDbEntity
  8
CURVE
 62
   255
100
AcDbCircle
 10
-21.64294695360105
 20
195.4496689910788
 30
0.0
 40
7.21170021959179
100
AcDbArc
 50
99.12977422474654
 51
112.7634172570699
  0
LINE
  5
3A8
330
A
100
AcDbEntity
  8
CURVE
 62
   255
100
AcDbLine
 10
-24.43334781906
 20
202.09965268033
 30
0.0
 11
-24.47023681906
 21
202.08417368033
 31
0.0
  0
ARC
  5
3A9
330
A
100
AcDbEntity
  8
CURVE
 62
   255
100
AcDbCircle
 10
-22.83436577352067
 20
197.4688993754575
 30
0.0
 40
4.896614237087722
100
AcDbArc
 50
109.5167290811167
 51
129.6523764016648
  0
ARC
  5
3AA
330
A
100
AcDbEntity
  8
CURVE
 62
   255
100
AcDbCircle
 10
-23.49889776566322
 20
198.2150240282252
 30
0.0
 40
3.898255619922974
100
AcDbArc
 50
129.1303007814195
 51
162.7851353466593
  0
ARC
  5
3AB
330
A
100
AcDbEntity
  8
CURVE
 62
   255
100
AcDbCircle
 10
-23.44070710226574
 20
198.1969944641337
 30
0.0
 40
3.959175390834952
100
AcDbArc
 50
162.7851353466598
 51
192.1550801031643
  0
LINE
  5
3AC
330
A
100
AcDbEntity
  8
CURVE
 62
   255
100
AcDbLine
 10
-21.62995081906
 20
218.68927168033
 30
0.0
 11
-19.02491381906
 21
219.78250368033
 31
0.0
  0
ARC
  5
3AD
330
A
100
AcDbEntity
  8
CURVE
 62
   255
100
AcDbCircle
 10
10.09864524570555
 20
180.8995210878012
 30
0.0
 40
4.816669554314339
100
AcDbArc
 50
255.5948534433369
 51
76.1804488304473
  0
ARC
  5
3AE
330
A
100
AcDbEntity
  8
CURVE
 62
   255
100
AcDbCircle
 10
10.09864518094
 20
180.89952068033
 30
0.0
 40
3.816668940315533
100
AcDbArc
 50
255.5948538074787
 51
76.18045126663021
  0
ARC
  5
3AF
330
A
100
AcDbEntity
  8
CURVE
 62
   255
100
AcDbCircle
 10
-22.32503081906
 20
178.01732368033
 30
0.0
 40
4.722822499979834
100
AcDbArc
 50
114.2913578413655
 51
294.2529416275817
  0
ARC
  5
3B0
330
A
100
AcDbEntity
  8
CURVE
 62
   255
100
AcDbCircle
 10
-22.32503081906
 20
178.01732368033
 30
0.0
 40
3.722821847339933
100
AcDbArc
 50
114.2913604027524
 51
294.2529308564006
  0
ARC
  5
3B1
330
A
100
AcDbEntity
  8
CURVE
 62
   255
100
AcDbCircle
 10
-5.938954819060099
 20
223.65293268033
 30
0.0
 40
4.172456269850896
100
AcDbArc
 50
258.7070956715003
 51
77.51053123799914
  0
ARC
  5
3B2
330
A
100
AcDbEntity
  8
CURVE
 62
   255
100
AcDbCircle
 10
-5.938954819060099
 20
223.65293268033
 30
0.0
 40
3.172456130378888
100
AcDbArc
 50
258.707100681692
 51
77.51052748860648
  0
ARC
  5
3B3
330
A
100
AcDbEntity
  8
CURVE
 62
   255
100
AcDbCircle
 10
-22.62052481906
 20
221.12404568033
 30
0.0
 40
4.300372727973799
100
AcDbArc
 50
118.9173297670239
 51
299.3481522748327
  0
ARC
  5
3B4
330
A
100
AcDbEntity
  8
CURVE
 62
   255
100
AcDbCircle
 10
-22.62052481906
 20
221.12404568033
 30
0.0
 40
3.300373076810704
100
AcDbArc
 50
118.917329504739
 51
299.3481577167039
  0
ARC
  5
3B5
330
A
100
AcDbEntity
  8
CURVE
 62
   255
100
AcDbCircle
 10
5.2875381809399
 20
201.69586668033
 30
0.0
 40
4.669253444276507
100
AcDbArc
 50
253.1024010121171
 51
72.09770422052492
  0
ARC
  5
3B6
330
A
100
AcDbEntity
  8
CURVE
 62
   255
100
AcDbCircle
 10
5.2875381809399
 20
201.69586668033
 30
0.0
 40
3.66925324801687
100
AcDbArc
 50
253.1023984895365
 51
72.09770840210989
  0
ARC
  5
3B7
330
A
100
AcDbEntity
  8
CURVE
 62
   255
100
AcDbCircle
 10
-24.52647981906
 20
198.51269068033
 30
0.0
 40
4.716675447592708
100
AcDbArc
 50
119.9251294318121
 51
299.2528436907384
  0
ARC
  5
3B8
330
A
100
AcDbEntity
  8
CURVE
 62
   255
100
AcDbCircle
 10
-24.52647981906
 20
198.51269068033
 30
0.0
 40
3.716675429038879
100
AcDbArc
 50
119.92512791003
 51
299.2528394098043
  0
SPLINE
  5
3B9
330
A
100
AcDbEntity
  8
CURVE
 62
   255
100
AcDbSpline
210
0.0
220
0.0
230
1.0
 70
     8
 71
     3
 72
     8
 73
     4
 74
     0
 42
0.0000000001
 43
0.0000000001
 40
0.0
 40
0.0
 40
0.0
 40
0.0
 40
1.0
 40
1.0
 40
1.0
 40
1.0
 10
-24.90861781906
 20
219.88464468033
 30
0.0
 10
-25.03499548572667
 20
220.5224933469967
 30
0.0
 10
-25.09950146363931
 20
221.1811634668607
 30
0.0
 10
-24.87012581906
 20
221.77677368033
 30
0.0
  0
SPLINE
  5
3BA
330
A
100
AcDbEntity
  8
CURVE
 62
   255
100
AcDbSpline
210
0.0
220
0.0
230
1.0
 70
     8
 71
     3
 72
     8
 73
     4
 74
     0
 42
0.0000000001
 43
0.0000000001
 40
1.0
 40
1.0
 40
1.0
 40
1.0
 40
2.0
 40
2.0
 40
2.0
 40
2.0
 10
-24.87012581906
 20
221.77677368033
 30
0.0
 10
-24.44688481905997
 20
222.8757860136635
 30
0.0
 10
-23.44238439864867
 20
223.610040483074
 30
0.0
 10
-22.36898881906
 20
224.17314968033
 30
0.0
  0
SPLINE
  5
3BB
330
A
100
AcDbEntity
  8
CURVE
 62
   255
100
AcDbSpline
210
0.0
220
0.0
230
1.0
 70
     8
 71
     3
 72
     8
 73
     4
 74
     0
 42
0.0000000001
 43
0.0000000001
 40
2.0
 40
2.0
 40
2.0
 40
2.0
 40
3.0
 40
3.0
 40
3.0
 40
3.0
 10
-22.36898881906
 20
224.17314968033
 30
0.0
 10
-21.14942281906
 20
224.81294068033
 30
0.0
 10
-19.71468578123696
 20
225.0072432752769
 30
0.0
 10
-18.52171681906
 20
224.38622968033
 30
0.0
  0
ARC
  5
3BC
330
A
100
AcDbEntity
  8
CURVE
 62
   255
100
AcDbCircle
 10
-19.63752875902248
 20
222.3282921202485
 30
0.0
 40
2.340970586435677
100
AcDbArc
 50
22.13259129272228
 51
61.53348963469984
  0
LINE
  5
3BD
330
A
100
AcDbEntity
  8
CURVE
 62
   255
100
AcDbLine
 10
-17.46905381906
 20
223.21025568033
 30
0.0
 11
-17.38177481906
 21
222.99566368033
 31
0.0
  0
ARC
  5
3BE
330
A
100
AcDbEntity
  8
CURVE
 62
   255
100
AcDbCircle
 10
-22.13613184239317
 20
212.5191747026499
 30
0.0
 40
7.869995329282073
100
AcDbArc
 50
96.97310212506989
 51
110.6271761111151
  0
ARC
  5
3BF
330
A
100
AcDbEntity
  8
CURVE
 62
   255
100
AcDbCircle
 10
-22.97202004009273
 20
219.0635271678427
 30
0.0
 40
1.273056828373498
100
AcDbArc
 50
12.77912497788679
 51
95.38872311007281
  0
ARC
  5
3C0
330
A
100
AcDbEntity
  8
CURVE
 62
   255
100
AcDbCircle
 10
-26.29957955287864
 20
218.3087990240408
 30
0.0
 40
4.685133451513514
100
AcDbArc
 50
4.657334303246004
 51
12.77912497788684
  0
SPLINE
  5
3C1
330
A
100
AcDbEntity
  8
CURVE
 62
   255
100
AcDbSpline
210
0.0
220
0.0
230
1.0
 70
     8
 71
     3
 72
     8
 73
     4
 74
     0
 42
0.0000000001
 43
0.0000000001
 40
0.0
 40
0.0
 40
0.0
 40
0.0
 40
1.0
 40
1.0
 40
1.0
 40
1.0
 10
-17.38177481906
 20
222.99566268033
 30
0.0
 10
-17.95808381906
 20
222.75069668033
 30
0.0
 10
-18.54486271031642
 20
222.5127371820653
 30
0.0
 10
-18.99299381906
 20
222.08622068033
 30
0.0
  0
SPLINE
  5
3C2
330
A
100
AcDbEntity
  8
CURVE
 62
   255
100
AcDbSpline
210
0.0
220
0.0
230
1.0
 70
     8
 71
     3
 72
     8
 73
     4
 74
     0
 42
0.0000000001
 43
0.0000000001
 40
1.0
 40
1.0
 40
1.0
 40
1.0
 40
2.0
 40
2.0
 40
2.0
 40
2.0
 10
-18.99299381906
 20
222.08622068033
 30
0.0
 10
-19.34576915239333
 20
221.7504606803298
 30
0.0
 10
-19.64014315239332
 20
221.3402596803298
 30
0.0
 10
-19.59970881906
 20
220.87754568033
 30
0.0
  0
ARC
  5
3C3
330
A
100
AcDbEntity
  8
CURVE
 62
   255
100
AcDbCircle
 10
-17.64332167676137
 20
221.2060874047376
 30
0.0
 40
1.983781821478394
100
AcDbArc
 50
189.5328955066223
 51
225.8576350594868
  0
ARC
  5
3C4
330
A
100
AcDbEntity
  8
CURVE
 62
   255
100
AcDbCircle
 10
-2.145982819060099
 20
133.22764168033
 30
0.0
 40
44.40262546994257
100
AcDbArc
 50
75.59484679094332
 51
114.2529430316353
  0
ARC
  5
3C5
330
A
100
AcDbEntity
  8
CURVE
 62
   255
100
AcDbCircle
 10
-6.0883398190601
 20
166.48030468033
 30
0.0
 40
41.67663665202327
100
AcDbArc
 50
72.09770013987069
 51
119.9251316429702
  0
ARC
  5
3C6
330
A
100
AcDbEntity
  8
CURVE
 62
   255
100
AcDbCircle
 10
-5.8234238190602
 20
165.11986668033
 30
0.0
 40
33.55714126625675
100
AcDbArc
 50
73.10240470142645
 51
119.2528419201478
  0
ARC
  5
3C7
330
A
100
AcDbEntity
  8
CURVE
 62
   255
100
AcDbCircle
 10
-1.797934819060199
 20
132.53654768033
 30
0.0
 40
54.62134563316645
100
AcDbArc
 50
75.88924132863938
 51
114.2913542640933
  0
ARC
  5
3C8
330
A
100
AcDbEntity
  8
CURVE
 62
   255
100
AcDbCircle
 10
-10.68337281906
 20
199.89411968033
 30
0.0
 40
20.05543462736843
100
AcDbArc
 50
78.70709998961142
 51
119.348155765227
  0
ARC
  5
3C9
330
A
100
AcDbEntity
  8
CURVE
 62
   255
100
AcDbCircle
 10
-11.11314581906
 20
200.29335268033
 30
0.0
 40
28.09822093191288
100
AcDbArc
 50
77.51052877819901
 51
118.917324104358
  0
ARC
  5
3CA
330
A
100
AcDbEntity
  8
CURVE
 62
   255
100
AcDbCircle
 10
-6.0883398190601
 20
166.48030468033
 30
0.0
 40
40.67663665764641
100
AcDbArc
 50
72.09770041675274
 51
119.9251315582873
  0
ARC
  5
3CB
330
A
100
AcDbEntity
  8
CURVE
 62
   255
100
AcDbCircle
 10
-5.8234238190602
 20
165.11986668033
 30
0.0
 40
34.5571414625195
100
AcDbArc
 50
73.10240486251259
 51
119.2528424318009
  0
ARC
  5
3CC
330
A
100
AcDbEntity
  8
CURVE
 62
   255
100
AcDbCircle
 10
-2.145982819060099
 20
133.22764168033
 30
0.0
 40
45.40262567316624
100
AcDbArc
 50
75.59484685809088
 51
114.2529438839008
  0
ARC
  5
3CD
330
A
100
AcDbEntity
  8
CURVE
 62
   255
100
AcDbCircle
 10
-1.797934819060199
 20
132.53654768033
 30
0.0
 40
53.62134597409555
100
AcDbArc
 50
76.18045485909047
 51
114.2913543752086
  0
ARC
  5
3CE
330
A
100
AcDbEntity
  8
CURVE
 62
   255
100
AcDbCircle
 10
-10.68337281906
 20
199.89411968033
 30
0.0
 40
21.05543476684396
100
AcDbArc
 50
78.70709902963482
 51
119.3481547464396
  0
ARC
  5
3CF
330
A
100
AcDbEntity
  8
CURVE
 62
   255
100
AcDbCircle
 10
-11.11314581906
 20
200.29335268033
 30
0.0
 40
27.0982207456635
100
AcDbArc
 50
77.51052824847396
 51
118.9173238634489
  0
ARC
  5
3D0
330
A
100
AcDbEntity
  8
CURVE
 62
   255
100
AcDbCircle
 10
-10.92164381906
 20
191.68295468033
 30
0.0
 40
4.218143619565825
100
AcDbArc
 50
113.1367117352022
 51
185.2376415404786
  0
ARC
  5
3D1
330
A
100
AcDbEntity
  8
CURVE
 62
   255
100
AcDbCircle
 10
-5.921487819060099
 20
179.92235868033
 30
0.0
 40
16.99754354088158
100
AcDbArc
 50
78.53359584431093
 51
113.0589952002602
  0
ARC
  5
3D2
330
A
100
AcDbEntity
  8
CURVE
 62
   255
100
AcDbCircle
 10
-2.8966008190602
 20
193.05367168033
 30
0.0
 40
3.544715926900206
100
AcDbArc
 50
3.624689755458323
 51
84.26668731241091
  0
ARC
  5
3D3
330
A
100
AcDbEntity
  8
CURVE
 62
   255
100
AcDbCircle
 10
-12.25453481906
 20
182.11215968033
 30
0.0
 40
9.622945772310817
100
AcDbArc
 50
82.47567403516638
 51
107.8435159172511
  0
ARC
  5
3D4
330
A
100
AcDbEntity
  8
CURVE
 62
   255
100
AcDbCircle
 10
-11.33061381906
 20
189.70563268033
 30
0.0
 40
1.975427595626957
100
AcDbArc
 50
337.2990079296226
 51
80.2017848659821
  0
LINE
  5
3D5
330
A
100
AcDbEntity
  8
CURVE
 62
   255
100
AcDbLine
 10
-9.508219819060199
 20
188.94327168033
 30
0.0
 11
-4.034533819060199
 21
189.3519746803299
 31
0.0
  0
ARC
  5
3D6
330
A
100
AcDbEntity
  8
CURVE
 62
   255
100
AcDbCircle
 10
-11.33061381906
 20
189.70563268033
 30
0.0
 40
0.9754279776007708
100
AcDbArc
 50
337.2990163022846
 51
80.20178834085298
  0
LINE
  5
3D7
330
A
100
AcDbEntity
  8
CURVE
 62
   255
100
AcDbLine
 10
-11.25407481906
 20
187.81013068033
 30
0.0
 11
-2.4902268190601
 21
188.46449968033
 31
0.0
  0
ARC
  5
3D8
330
A
100
AcDbEntity
  8
CURVE
 62
   255
100
AcDbCircle
 10
-12.25453481906
 20
182.11215968033
 30
0.0
 40
8.622945147857006
100
AcDbArc
 50
82.47567270708136
 51
114.6024298648872
  0
ARC
  5
3D9
330
A
100
AcDbEntity
  8
CURVE
 62
   255
100
AcDbCircle
 10
-11.33061381906
 20
189.70563268033
 30
0.0
 40
0.9754279776007708
100
AcDbArc
 50
337.2990163022846
 51
80.20178834085298
  0
ARC
  5
3DA
330
A
100
AcDbEntity
  8
CURVE
 62
   255
100
AcDbCircle
 10
-2.8966008190602
 20
193.05367168033
 30
0.0
 40
4.544716153066229
100
AcDbArc
 50
348.0738247724862
 51
84.26668992664046
  0
ARC
  5
3DB
330
A
100
AcDbEntity
  8
CURVE
 62
   255
100
AcDbCircle
 10
-5.921487819060099
 20
179.92235868033
 30
0.0
 40
17.99754305014996
100
AcDbArc
 50
78.53359654542576
 51
113.0589960513305
  0
ARC
  5
3DC
330
A
100
AcDbEntity
  8
CURVE
 62
   255
100
AcDbCircle
 10
-10.92164381906
 20
191.68295468033
 30
0.0
 40
5.218143925680131
100
AcDbArc
 50
113.1367174268222
 51
199.3696132917446
  0
LINE
  5
3DD
330
A
100
AcDbEntity
  8
CURVE
 62
   255
100
AcDbLine
 10
-10.43075081906
 20
189.32919368033
 30
0.0
 11
-11.25407481906
 21
187.81013068033
 31
0.0
  0
LINE
  5
3DE
330
A
100
AcDbEntity
  8
CURVE
 62
   255
100
AcDbLine
 10
-3.2137348190602
 20
189.78226268033
 30
0.0
 11
-2.4902268190601
 21
188.46449968033
 31
0.0
  0
LINE
  5
3DF
330
A
100
AcDbEntity
  8
CURVE
 62
   255
100
AcDbLine
 10
1.1998561809398
 20
126.88585168033
 30
0.0
 11
-1.072313819060199
 21
126.80190968033
 31
0.0
  0
LINE
  5
3E0
330
A
100
AcDbEntity
  8
CURVE
 62
   255
100
AcDbLine
 10
2.638620180939799
 20
126.11254468033
 30
0.0
 11
-1.055549819060199
 21
125.97606968033
 31
0.0
  0
SPLINE
  5
3E1
330
A
100
AcDbEntity
  8
CURVE
 62
   255
100
AcDbSpline
210
0.0
220
0.0
230
1.0
 70
    12
 71
     2
 72
     6
 73
     3
 74
     0
 42
0.0000000001
 43
0.0000000001
 40
6.977824446022259
 40
6.977824446022259
 40
6.977824446022259
 40
11.55212214488278
 40
11.55212214488278
 40
11.55212214488278
 10
-5.702473203153036
 20
132.424867292277
 30
0.0
 41
0.9034795920960529
 10
-8.373077980992661
 20
131.5937141815245
 30
0.0
 41
0.7680459468784777
 10
-8.321529605028118
 20
129.0543102323648
 30
0.0
 41
1.0
  0
ARC
  5
3E2
330
A
100
AcDbEntity
  8
CURVE
 62
   255
100
AcDbCircle
 10
-6.290799997194017
 20
119.4710087071133
 30
0.0
 40
9.80200973033982
100
AcDbArc
 50
79.59409135918484
 51
91.1546845339687
  0
ARC
  5
3E3
330
A
100
AcDbEntity
  8
CURVE
 62
   255
100
AcDbCircle
 10
-6.291318924060603
 20
119.4967545217773
 30
0.0
 40
9.776258686520051
100
AcDbArc
 50
91.15468453396855
 51
101.9864888366369
  0
ARC
  5
3E4
330
A
100
AcDbEntity
  8
CURVE
 62
   255
100
AcDbCircle
 10
-4.464428206512152
 20
127.4900484536041
 30
-0.0000000000017621
 40
1.317301673165141
100
AcDbArc
 50
328.1043560622404
 51
3.235175608358272
  0
ARC
  5
3E5
330
A
100
AcDbEntity
  8
CURVE
 62
   255
100
AcDbCircle
 10
-4.813888739287237
 20
127.4702953541697
 30
-0.0000000000020606
 40
1.667320028266041
100
AcDbArc
 50
3.235175608357867
 51
79.85966302783705
  0
ARC
  5
3E6
330
A
100
AcDbEntity
  8
CURVE
 62
   255
100
AcDbCircle
 10
-4.715617064066745
 20
127.5092491674876
 30
-0.0000000000029345
 40
0.6461375016290516
100
AcDbArc
 50
328.6346223402499
 51
3.23051570789608
  0
ARC
  5
3E7
330
A
100
AcDbEntity
  8
CURVE
 62
   255
100
AcDbCircle
 10
-4.888751615980995
 20
127.499476940876
 30
-0.0000000000032969
 40
0.8195476209463418
100
AcDbArc
 50
3.230515707895895
 51
79.79294616490458
  0
ARC
  5
3E8
330
A
100
AcDbEntity
  8
CURVE
 62
   255
100
AcDbCircle
 10
-6.297677858447317
 20
119.6252318515438
 30
-0.0000000000103739
 40
8.821814193217285
100
AcDbArc
 50
79.61934903602257
 51
91.12943359104779
  0
ARC
  5
3E9
330
A
100
AcDbEntity
  8
CURVE
 62
   255
100
AcDbCircle
 10
-6.299846813675787
 20
119.7352479558425
 30
0.0000000000045688
 40
8.711776710634154
100
AcDbArc
 50
91.12943359104773
 51
108.5736209472836
  0
ARC
  5
3EA
330
A
100
AcDbEntity
  8
CURVE
 62
   255
100
AcDbCircle
 10
-4.715617064066745
 20
127.5092491674876
 30
-0.0000000000029345
 40
0.6461375016290516
100
AcDbArc
 50
328.6346223402499
 51
3.23051570789608
  0
ARC
  5
3EB
330
A
100
AcDbEntity
  8
CURVE
 62
   255
100
AcDbCircle
 10
-4.888751615980995
 20
127.499476940876
 30
-0.0000000000032969
 40
0.8195476209463418
100
AcDbArc
 50
3.230515707895895
 51
79.79294616490458
  0
SPLINE
  5
3EC
330
A
100
AcDbEntity
  8
CURVE
 62
   255
100
AcDbSpline
210
-0.0000000000000008
220
0.000000000000001
230
1.0
 70
    12
 71
     2
 72
     6
 73
     3
 74
     0
 42
0.0000000001
 43
0.0000000001
 40
8.632040858842833
 40
8.632040858842833
 40
8.632040858842833
 40
14.29075072000483
 40
14.29075072000483
 40
14.29075072000483
 10
-5.999010947955739
 20
133.2052904847539
 30
0.0
 41
0.9034794237216592
 10
-9.30272482075723
 20
132.1770745103563
 30
-0.0000000000000071
 41
0.7680460910640525
 10
-9.238956070209585
 20
129.0356861805568
 30
0.0
 41
1.0
  0
ARC
  5
3ED
330
A
100
AcDbEntity
  8
CURVE
 62
   255
100
AcDbCircle
 10
-5.337855630630031
 20
129.116219841299
 30
0.0
 40
3.901931612701628
100
AcDbArc
 50
181.1826364453548
 51
196.7239005171019
  0
ARC
  5
3EE
330
A
100
AcDbEntity
  8
CURVE
 62
   255
100
AcDbCircle
 10
-0.6280365606521294
 20
116.0054877502865
 30
-0.0000000000030553
 40
17.18564800259319
100
AcDbArc
 50
91.98857808105953
 51
107.1738576079389
  0
ARC
  5
3EF
330
A
100
AcDbEntity
  8
CURVE
 62
   255
100
AcDbCircle
 10
-0.6245749928070694
 20
115.8189645354581
 30
0.0
 40
18.19808440859205
100
AcDbArc
 50
91.88980546847968
 51
107.1734512082407
  0
SPLINE
  5
3F0
330
A
100
AcDbEntity
  8
CURVE
 62
   255
100
AcDbSpline
210
-0.0000000000000021
220
-0.0000000000000028
230
-1.0
 70
    12
 71
     2
 72
     6
 73
     3
 74
     0
 42
0.0000000001
 43
0.0000000001
 40
0.0197912105199413
 40
0.0197912105199413
 40
0.0197912105199413
 40
4.574386934378644
 40
4.574386934378644
 40
4.574386934378644
 10
6.07919547657304
 20
129.363538592047
 30
0.0
 41
0.9979997571914186
 10
6.014292254964567
 20
131.889774717483
 30
-0.0000000000000142
 41
0.7686308972356827
 10
3.325839108639354
 20
132.608193992453
 30
0.0
 41
0.9034807792006567
  0
ARC
  5
3F1
330
A
100
AcDbEntity
  8
CURVE
 62
   255
100
AcDbCircle
 10
4.436393145040567
 20
119.6814809409038
 30
-0.0000000000144595
 40
9.809284735432786
100
AcDbArc
 50
80.3576338280755
 51
91.15284309697557
  0
ARC
  5
3F2
330
A
100
AcDbEntity
  8
CURVE
 62
   255
100
AcDbCircle
 10
4.435626590044612
 20
119.7195732354413
 30
0.0000000000182041
 40
9.77118472873003
100
AcDbArc
 50
91.15284309697553
 51
102.7500519726019
  0
ARC
  5
3F3
330
A
100
AcDbEntity
  8
CURVE
 62
   255
100
AcDbCircle
 10
2.562016671128827
 20
127.6844459861028
 30
0.0000000000010374
 40
1.591090880500309
100
AcDbArc
 50
100.2405847495984
 51
181.3110292860524
  0
ARC
  5
3F4
330
A
100
AcDbEntity
  8
CURVE
 62
   255
100
AcDbCircle
 10
2.47380262562257
 20
127.6824271395775
 30
0.0000000000013003
 40
1.502853736591345
100
AcDbArc
 50
181.3110292860523
 51
212.0415282600913
  0
ARC
  5
3F5
330
A
100
AcDbEntity
  8
CURVE
 62
   255
100
AcDbCircle
 10
2.6747486964224
 20
127.6845539147554
 30
-0.0000000000000497
 40
0.7832229970007094
100
AcDbArc
 50
100.2937914137023
 51
181.30600005162
  0
ARC
  5
3F6
330
A
100
AcDbEntity
  8
CURVE
 62
   255
100
AcDbCircle
 10
2.630929806704725
 20
127.683554933924
 30
0.0
 40
0.7393927214056477
100
AcDbArc
 50
181.3060000516193
 51
211.6793087374292
  0
ARC
  5
3F7
330
A
100
AcDbEntity
  8
CURVE
 62
   255
100
AcDbCircle
 10
4.431946054839152
 20
119.909715691315
 30
-0.0000000000192131
 40
8.755134858864499
100
AcDbArc
 50
73.79573320948075
 51
91.15284308820053
  0
ARC
  5
3F8
330
A
100
AcDbEntity
  8
CURVE
 62
   255
100
AcDbCircle
 10
4.43195896724071
 20
119.9090740374094
 30
0.0000000000301625
 40
8.755776642657956
100
AcDbArc
 50
91.15284308820053
 51
102.7500554538561
  0
ARC
  5
3F9
330
A
100
AcDbEntity
  8
CURVE
 62
   255
100
AcDbCircle
 10
2.6747486964224
 20
127.6845539147554
 30
-0.0000000000000497
 40
0.7832229970007094
100
AcDbArc
 50
100.2937914137023
 51
181.30600005162
  0
ARC
  5
3FA
330
A
100
AcDbEntity
  8
CURVE
 62
   255
100
AcDbCircle
 10
2.630929806704725
 20
127.683554933924
 30
0.0
 40
0.7393927214056477
100
AcDbArc
 50
181.3060000516193
 51
211.6793087374292
  0
ARC
  5
3FB
330
A
100
AcDbEntity
  8
CURVE
 62
   255
100
AcDbCircle
 10
3.105641486611413
 20
129.2862751216836
 30
-0.0000000000005471
 40
3.892142628210648
100
AcDbArc
 50
345.5805137809104
 51
1.162910215235762
  0
SPLINE
  5
3FC
330
A
100
AcDbEntity
  8
CURVE
 62
   255
100
AcDbSpline
210
0.0000000000000026
220
0.0000000000000035
230
-1.0
 70
    12
 71
     2
 72
     6
 73
     3
 74
     0
 42
0.0000000001
 43
0.0000000001
 40
28.58170399523916
 40
28.58170399523916
 40
28.58170399523916
 40
34.24046565942229
 40
34.24046565942229
 40
34.24046565942229
 10
6.996982453465537
 20
129.3652670073391
 30
0.0
 41
1.0
 10
6.933213079359806
 20
132.5067083823506
 30
0.0000000000000071
 41
0.7680456114727327
 10
3.590459274702161
 20
133.3999844548793
 30
0.0000000000000071
 41
0.9034799837711382
  0
ARC
  5
3FD
330
A
100
AcDbEntity
  8
CURVE
 62
   255
100
AcDbCircle
 10
-1.078084677006059
 20
115.9963514609695
 30
-0.0000000000031548
 40
17.18564929098796
100
AcDbArc
 50
75.15198120471815
 51
90.33725955880584
  0
ARC
  5
3FE
330
A
100
AcDbEntity
  8
CURVE
 62
   255
100
AcDbCircle
 10
-1.073973976149874
 20
115.809841453236
 30
-0.0000000000000071
 40
18.19808447023745
100
AcDbArc
 50
75.15238915812412
 51
90.43603266393516
  0
LINE
  5
3FF
330
A
100
AcDbEntity
  8
CURVE
 62
   255
100
AcDbLine
 10
-4.1637268190601
 20
127.16515568033
 30
0.0
 11
-4.8105478190601
 21
125.96230068033
 31
0.0
  0
LINE
  5
400
330
A
100
AcDbEntity
  8
CURVE
 62
   255
100
AcDbLine
 10
2.001810180939899
 20
127.29031168033
 30
0.0
 11
2.638620180939899
 21
126.11254468033
 31
0.0
  0
ARC
  5
401
330
A
100
AcDbEntity
  8
CURVE
 62
   255
100
AcDbCircle
 10
1.060541180939799
 20
150.58697468033
 30
0.0
 40
3.720403024233595
100
AcDbArc
 50
5.910533347419852
 51
78.01146294227145
  0
ARC
  5
402
330
A
100
AcDbEntity
  8
CURVE
 62
   255
100
AcDbCircle
 10
3.8460961809399
 20
142.53211968033
 30
0.0
 40
8.487438054056724
100
AcDbArc
 50
83.30466721622071
 51
108.6725082113192
  0
ARC
  5
403
330
A
100
AcDbEntity
  8
CURVE
 62
   255
100
AcDbCircle
 10
1.751644180939899
 20
148.94562668033
 30
0.0
 40
1.742327481482297
100
AcDbArc
 50
110.946422086352
 51
213.8491302212503
  0
ARC
  5
404
330
A
100
AcDbEntity
  8
CURVE
 62
   255
100
AcDbCircle
 10
1.751644180939899
 20
148.94562668033
 30
0.0
 40
0.8603274060331914
100
AcDbArc
 50
110.9463816690649
 51
213.849120367599
  0
ARC
  5
405
330
A
100
AcDbEntity
  8
CURVE
 62
   255
100
AcDbCircle
 10
3.8460961809399
 20
142.53211968033
 30
0.0
 40
7.605438377605685
100
AcDbArc
 50
76.54575546158117
 51
108.6725063895292
  0
ARC
  5
406
330
A
100
AcDbEntity
  8
CURVE
 62
   255
100
AcDbCircle
 10
1.751644180939899
 20
148.94562668033
 30
0.0
 40
0.8603274060331914
100
AcDbArc
 50
110.9463816690649
 51
213.849120367599
  0
ARC
  5
407
330
A
100
AcDbEntity
  8
CURVE
 62
   255
100
AcDbCircle
 10
1.060541180939799
 20
150.58697468033
 30
0.0
 40
4.602402807253023
100
AcDbArc
 50
351.7785645788732
 51
78.01145729573706
  0
LINE
  5
408
330
A
100
AcDbEntity
  8
CURVE
 62
   255
100
AcDbLine
 10
1.0371361809399
 20
148.46641768033
 30
0.0
 11
2.008654180939899
 21
147.29228868033
 31
0.0
  0
ARC
  5
409
330
A
100
AcDbEntity
  8
CURVE
 62
   255
100
AcDbCircle
 10
-1.260818819060099
 20
139.55717168033
 30
0.0
 40
15.87383375388952
100
AcDbArc
 50
78.08918798559621
 51
95.33213846871161
  0
ARC
  5
40A
330
A
100
AcDbEntity
  8
CURVE
 62
   255
100
AcDbCircle
 10
-1.260818819060099
 20
139.55717168033
 30
0.0
 40
14.99183334156408
100
AcDbArc
 50
78.08918785088637
 51
95.37674021007946
  0
LINE
  5
40B
330
A
100
AcDbEntity
  8
CURVE
 62
   255
100
AcDbLine
 10
-4.563397819060099
 20
147.58567968033
 30
0.0
 11
0.30462918093988
 21
147.97513668033
 31
0.0
  0
LINE
  5
40C
330
A
100
AcDbEntity
  8
CURVE
 62
   255
100
AcDbLine
 10
-6.1371838190602
 20
146.64059768033
 30
0.0
 11
2.008654180939799
 21
147.29228868033
 31
0.0
  0
LINE
  5
40D
330
A
100
AcDbEntity
  8
CURVE
 62
   255
100
AcDbLine
 10
-0.91874781906017
 20
168.71669868033
 30
0.0
 11
-3.399294819060199
 21
168.52949768033
 31
0.0
  0
LINE
  5
40E
330
A
100
AcDbEntity
  8
CURVE
 62
   255
100
AcDbLine
 10
-6.785087819060099
 20
168.80378368033
 30
0.0
 11
-7.520943819060099
 21
167.46539768033
 31
0.0
  0
LINE
  5
40F
330
A
100
AcDbEntity
  8
CURVE
 62
   255
100
AcDbLine
 10
-0.0708988190601758
 20
169.19008768033
 30
0.0
 11
0.9514391809399299
 21
167.80126568033
 31
0.0
  0
LINE
  5
410
330
A
100
AcDbEntity
  8
CURVE
 62
   255
100
AcDbLine
 10
-7.520943819060099
 20
167.46539768033
 30
0.0
 11
0.9514391809398999
 21
167.80126568033
 31
0.0
  0
ARC
  5
411
330
A
100
AcDbEntity
  8
CURVE
 62
   255
100
AcDbCircle
 10
-2.933332659705775
 20
157.402719241639
 30
0.0000000000783302
 40
18.09011087016179
100
AcDbArc
 50
77.07302334497665
 51
92.45231229129997
  0
LINE
  5
412
330
A
100
AcDbEntity
  8
CURVE
 62
   255
100
AcDbLine
 10
-3.70736973665382
 20
175.4762628316255
 30
0.0
 11
-3.82548615794087
 21
175.4712042503341
 31
0.0000000000000071
  0
ARC
  5
413
330
A
100
AcDbEntity
  8
CURVE
 62
   255
100
AcDbCircle
 10
-2.919282588118664
 20
157.2841170274257
 30
0.0
 40
19.10920203120514
100
AcDbArc
 50
77.05473083625836
 51
92.47060605495295
  0
LINE
  5
414
330
A
100
AcDbEntity
  8
CURVE
 62
   255
100
AcDbLine
 10
-3.743020070936945
 20
176.3755564396024
 30
0.0
 11
-3.880644506964957
 21
176.3696183642137
 31
0.0
  0
ARC
  5
415
330
A
100
AcDbEntity
  8
CURVE
 62
   255
100
AcDbCircle
 10
0.9678866423909799
 20
171.3878295121388
 30
-0.0000000000000853
 40
4.2711871593546
100
AcDbArc
 50
348.1222306146954
 51
2.270167541809886
  0
SPLINE
  5
416
330
A
100
AcDbEntity
  8
CURVE
 62
   255
100
AcDbSpline
210
0.0
220
0.0
230
1.0
 70
    12
 71
     2
 72
     6
 73
     3
 74
     0
 42
0.0000000001
 43
0.0000000001
 40
31.0201382490327
 40
31.0201382490327
 40
31.0201382490327
 40
37.26539462743642
 40
37.26539462743642
 40
37.26539462743642
 10
5.235721583045119
 20
171.5570177787864
 30
0.0
 41
1.0
 10
5.097089181727315
 20
175.0540700151743
 30
0.0
 41
0.7641282926206232
 10
1.36286476509401
 20
175.9073448006899
 30
0.0
 41
0.9081592853955802
  0
ARC
  5
417
330
A
100
AcDbEntity
  8
CURVE
 62
   255
100
AcDbCircle
 10
0.6439104843790571
 20
169.6495534900817
 30
0.0000000000000782
 40
0.8519434523972297
100
AcDbArc
 50
103.0823574184812
 51
182.4164668475359
  0
ARC
  5
418
330
A
100
AcDbEntity
  8
CURVE
 62
   255
100
AcDbCircle
 10
0.603129292210577
 20
169.6478325104332
 30
0.0
 40
0.811125963428916
100
AcDbArc
 50
182.4164668475366
 51
213.7674640822697
  0
ARC
  5
419
330
A
100
AcDbEntity
  8
CURVE
 62
   255
100
AcDbCircle
 10
2.850154989984318
 20
161.3877302400664
 30
0.0000000000161791
 40
9.405878402044839
100
AcDbArc
 50
75.86191818573998
 51
92.25783903953116
  0
ARC
  5
41A
330
A
100
AcDbEntity
  8
CURVE
 62
   255
100
AcDbCircle
 10
2.849530843306879
 20
161.4035606234197
 30
-0.0000000000205347
 40
9.390035719323345
100
AcDbArc
 50
92.25783903953109
 51
105.0372019425627
  0
ARC
  5
41B
330
A
100
AcDbEntity
  8
CURVE
 62
   255
100
AcDbCircle
 10
0.6439104843790571
 20
169.6495534900817
 30
0.0000000000000782
 40
0.8519434523972297
100
AcDbArc
 50
103.0823574184812
 51
182.4164668475359
  0
ARC
  5
41C
330
A
100
AcDbEntity
  8
CURVE
 62
   255
100
AcDbCircle
 10
0.603129292210577
 20
169.6478325104332
 30
0.0
 40
0.811125963428916
100
AcDbArc
 50
182.4164668475366
 51
213.7674640822697
  0
ARC
  5
41D
330
A
100
AcDbEntity
  8
CURVE
 62
   255
100
AcDbCircle
 10
0.5279782239319474
 20
169.6473955337621
 30
-0.0000000000038511
 40
1.731802181565387
100
AcDbArc
 50
103.0117043712338
 51
182.4221250069457
  0
ARC
  5
41E
330
A
100
AcDbEntity
  8
CURVE
 62
   255
100
AcDbCircle
 10
0.446034703177822
 20
169.6439293837283
 30
-0.0000000000043343
 40
1.649785385783141
100
AcDbArc
 50
182.4221250069455
 51
214.1818440838923
  0
ARC
  5
41F
330
A
100
AcDbEntity
  8
CURVE
 62
   255
100
AcDbCircle
 10
2.858955860308073
 20
161.1596264641314
 30
-0.0000000000467182
 40
10.53413898106384
100
AcDbArc
 50
82.01059266861287
 51
92.25783900796511
  0
ARC
  5
420
330
A
100
AcDbEntity
  8
CURVE
 62
   255
100
AcDbCircle
 10
2.856782747877415
 20
161.2147436418283
 30
0.0000000000369909
 40
10.47897898017669
100
AcDbArc
 50
92.25783900796507
 51
105.0372130121816
  0
SPLINE
  5
421
330
A
100
AcDbEntity
  8
CURVE
 62
   255
100
AcDbSpline
210
-0.000000000000004
220
-0.0000000000000056
230
1.0
 70
    12
 71
     2
 72
     6
 73
     3
 74
     0
 42
0.0000000001
 43
0.0000000001
 40
0.1001682305852386
 40
0.1001682305852386
 40
0.1001682305852386
 40
5.04845909449525
 40
5.04845909449525
 40
5.04845909449525
 10
4.239789241699162
 20
171.6037835883653
 30
0.0
 41
0.9907895203935082
 10
4.061296856232901
 20
174.360822807761
 30
0.0
 41
0.7669857036423233
 10
1.113587925915128
 20
175.0343721766397
 30
0.0000000000000142
 41
0.908159742688354
  0
ARC
  5
422
330
A
100
AcDbEntity
  8
CURVE
 62
   255
100
AcDbCircle
 10
0.9678866423909799
 20
171.3878295121388
 30
-0.0000000000000853
 40
4.2711871593546
100
AcDbArc
 50
348.1222306146954
 51
2.270167541809886
  0
SPLINE
  5
423
330
A
100
AcDbEntity
  8
CURVE
 62
   255
100
AcDbSpline
210
0.0
220
0.0
230
1.0
 70
    12
 71
     2
 72
     6
 73
     3
 74
     0
 42
0.0000000001
 43
0.0000000001
 40
31.0201382490327
 40
31.0201382490327
 40
31.0201382490327
 40
37.26539462743642
 40
37.26539462743642
 40
37.26539462743642
 10
5.235721583045119
 20
171.5570177787864
 30
0.0
 41
1.0
 10
5.097089181727315
 20
175.0540700151743
 30
0.0
 41
0.7641282926206232
 10
1.36286476509401
 20
175.9073448006899
 30
0.0
 41
0.9081592853955802
  0
ARC
  5
424
330
A
100
AcDbEntity
  8
CURVE
 62
   255
100
AcDbCircle
 10
0.6439104843790571
 20
169.6495534900817
 30
0.0000000000000782
 40
0.8519434523972297
100
AcDbArc
 50
103.0823574184812
 51
182.4164668475359
  0
ARC
  5
425
330
A
100
AcDbEntity
  8
CURVE
 62
   255
100
AcDbCircle
 10
0.603129292210577
 20
169.6478325104332
 30
0.0
 40
0.811125963428916
100
AcDbArc
 50
182.4164668475366
 51
213.7674640822697
  0
ARC
  5
426
330
A
100
AcDbEntity
  8
CURVE
 62
   255
100
AcDbCircle
 10
2.850154989984318
 20
161.3877302400664
 30
0.0000000000161791
 40
9.405878402044839
100
AcDbArc
 50
75.86191818573998
 51
92.25783903953116
  0
ARC
  5
427
330
A
100
AcDbEntity
  8
CURVE
 62
   255
100
AcDbCircle
 10
2.849530843306879
 20
161.4035606234197
 30
-0.0000000000205347
 40
9.390035719323345
100
AcDbArc
 50
92.25783903953109
 51
105.0372019425627
  0
ARC
  5
428
330
A
100
AcDbEntity
  8
CURVE
 62
   255
100
AcDbCircle
 10
0.6439104843790571
 20
169.6495534900817
 30
0.0000000000000782
 40
0.8519434523972297
100
AcDbArc
 50
103.0823574184812
 51
182.4164668475359
  0
ARC
  5
429
330
A
100
AcDbEntity
  8
CURVE
 62
   255
100
AcDbCircle
 10
0.603129292210577
 20
169.6478325104332
 30
0.0
 40
0.811125963428916
100
AcDbArc
 50
182.4164668475366
 51
213.7674640822697
  0
ARC
  5
42A
330
A
100
AcDbEntity
  8
CURVE
 62
   255
100
AcDbCircle
 10
0.5279782239319474
 20
169.6473955337621
 30
-0.0000000000038511
 40
1.731802181565387
100
AcDbArc
 50
103.0117043712338
 51
182.4221250069457
  0
ARC
  5
42B
330
A
100
AcDbEntity
  8
CURVE
 62
   255
100
AcDbCircle
 10
0.446034703177822
 20
169.6439293837283
 30
-0.0000000000043343
 40
1.649785385783141
100
AcDbArc
 50
182.4221250069455
 51
214.1818440838923
  0
ARC
  5
42C
330
A
100
AcDbEntity
  8
CURVE
 62
   255
100
AcDbCircle
 10
2.858955860308073
 20
161.1596264641314
 30
-0.0000000000467182
 40
10.53413898106384
100
AcDbArc
 50
82.01059266861287
 51
92.25783900796511
  0
ARC
  5
42D
330
A
100
AcDbEntity
  8
CURVE
 62
   255
100
AcDbCircle
 10
2.856782747877415
 20
161.2147436418283
 30
0.0000000000369909
 40
10.47897898017669
100
AcDbArc
 50
92.25783900796507
 51
105.0372130121816
  0
SPLINE
  5
42E
330
A
100
AcDbEntity
  8
CURVE
 62
   255
100
AcDbSpline
210
-0.000000000000004
220
-0.0000000000000056
230
1.0
 70
    12
 71
     2
 72
     6
 73
     3
 74
     0
 42
0.0000000001
 43
0.0000000001
 40
0.1001682305852386
 40
0.1001682305852386
 40
0.1001682305852386
 40
5.04845909449525
 40
5.04845909449525
 40
5.04845909449525
 10
4.239789241699162
 20
171.6037835883653
 30
0.0
 41
0.9907895203935082
 10
4.061296856232901
 20
174.360822807761
 30
0.0
 41
0.7669857036423233
 10
1.113587925915128
 20
175.0343721766397
 30
0.0000000000000142
 41
0.908159742688354
  0
SPLINE
  5
42F
330
A
100
AcDbEntity
  8
CURVE
 62
   255
100
AcDbSpline
210
0.0000000000000007
220
-0.0000000000000008
230
1.0
 70
    12
 71
     2
 72
     6
 73
     3
 74
     0
 42
0.0000000001
 43
0.0000000001
 40
9.459933095731694
 40
9.459933095731694
 40
9.459933095731694
 40
15.51018278016117
 40
15.51018278016117
 40
15.51018278016117
 10
-9.030670207838351
 20
175.3093849330961
 30
0.0
 41
0.8995331395551335
 10
-12.48835069578493
 20
174.085507834198
 30
0.0000000000000071
 41
0.7714950068848627
 10
-12.35532947378958
 20
170.7300519048943
 30
0.0
 41
1.0
  0
ARC
  5
430
330
A
100
AcDbEntity
  8
CURVE
 62
   255
100
AcDbCircle
 10
-8.071757305385652
 20
170.9015341113742
 30
0.0
 40
4.287003227088115
100
AcDbArc
 50
182.292470562588
 51
198.8759957578177
  0
ARC
  5
431
330
A
100
AcDbEntity
  8
CURVE
 62
   255
100
AcDbCircle
 10
-7.406235526607381
 20
169.1532499754543
 30
-0.0000000000030411
 40
0.7080924060844277
100
AcDbArc
 50
331.249989758739
 51
4.239482899228133
  0
ARC
  5
432
330
A
100
AcDbEntity
  8
CURVE
 62
   255
100
AcDbCircle
 10
-7.591099903512103
 20
169.1395462994645
 30
-0.0000000000040075
 40
0.8934640020407979
100
AcDbArc
 50
4.23948289922741
 51
81.64417141670032
  0
ARC
  5
433
330
A
100
AcDbEntity
  8
CURVE
 62
   255
100
AcDbCircle
 10
-8.807321676725905
 20
160.6422919109363
 30
0.0000000000000284
 40
9.480555741670761
100
AcDbArc
 50
81.60238164583205
 51
92.23331464870041
  0
ARC
  5
434
330
A
100
AcDbEntity
  8
CURVE
 62
   255
100
AcDbCircle
 10
-8.812640422457837
 20
160.7786754393474
 30
0.0
 40
9.34406854125247
100
AcDbArc
 50
92.23331464870026
 51
110.7832075182024
  0
ARC
  5
435
330
A
100
AcDbEntity
  8
CURVE
 62
   255
100
AcDbCircle
 10
-7.406235526607381
 20
169.1532499754543
 30
-0.0000000000030411
 40
0.7080924060844277
100
AcDbArc
 50
331.249989758739
 51
4.239482899228133
  0
ARC
  5
436
330
A
100
AcDbEntity
  8
CURVE
 62
   255
100
AcDbCircle
 10
-7.591099903512103
 20
169.1395462994645
 30
-0.0000000000040075
 40
0.8934640020407979
100
AcDbArc
 50
4.23948289922741
 51
81.64417141670032
  0
ARC
  5
437
330
A
100
AcDbEntity
  8
CURVE
 62
   255
100
AcDbCircle
 10
-7.334346338461632
 20
169.1804884451614
 30
-0.0000000000003411
 40
1.632121160489669
100
AcDbArc
 50
332.6077296801715
 51
2.270167541810141
  0
SPLINE
  5
438
330
A
100
AcDbEntity
  8
CURVE
 62
   255
100
AcDbSpline
210
0.0000000000000019
220
0.0000000000000029
230
-1.0
 70
    12
 71
     2
 72
     6
 73
     3
 74
     0
 42
0.0000000001
 43
0.0000000001
 40
11.74741133276587
 40
11.74741133276587
 40
11.74741133276587
 40
14.19687093037009
 40
14.19687093037009
 40
14.19687093037009
 10
-5.703506139650846
 20
169.2451392646642
 30
0.0
 41
1.0
 10
-5.758484678960501
 20
170.6319927131984
 30
0.0000000000000071
 41
0.755714655570203
 10
-7.255022413826041
 20
170.9101923419289
 30
0.0
 41
0.9189179497981179
  0
ARC
  5
439
330
A
100
AcDbEntity
  8
CURVE
 62
   255
100
AcDbCircle
 10
-8.797383541887478
 20
160.4939205661597
 30
0.0000000000229861
 40
10.52919610397464
100
AcDbArc
 50
81.57665007807729
 51
92.25903886030424
  0
ARC
  5
43A
330
A
100
AcDbEntity
  8
CURVE
 62
   255
100
AcDbCircle
 10
-8.79923820954486
 20
160.5409359411893
 30
-0.0000000000199449
 40
10.48214416161306
100
AcDbArc
 50
92.25903886030421
 51
104.6029398785417
  0
SPLINE
  5
43B
330
A
100
AcDbEntity
  8
CURVE
 62
   255
100
AcDbSpline
210
0.0
220
0.0
230
1.0
 70
    12
 71
     2
 72
     6
 73
     3
 74
     0
 42
0.0000000001
 43
0.0000000001
 40
7.646920510361596
 40
7.646920510361596
 40
7.646920510361596
 40
12.53758596747724
 40
12.53758596747724
 40
12.53758596747724
 10
-8.676324124006988
 20
174.4710315272296
 30
0.0
 41
0.8995317541647544
 10
-11.47129778436915
 20
173.4805798102501
 30
0.0
 41
0.7714962431220566
 10
-11.36377143628927
 20
170.7693576025393
 30
0.0
 41
1.0
  0
LINE
  5
43C
330
A
100
AcDbEntity
  8
CURVE
 62
   255
100
AcDbLine
 10
-11.36377143628927
 20
170.7693576025393
 30
0.0
 11
-11.36080659368702
 21
170.7082769519163
 31
0.0
  0
SPLINE
  5
43D
330
A
100
AcDbEntity
  8
CURVE
 62
   255
100
AcDbSpline
210
0.0000000000000007
220
-0.0000000000000008
230
1.0
 70
    12
 71
     2
 72
     6
 73
     3
 74
     0
 42
0.0000000001
 43
0.0000000001
 40
9.459933095731694
 40
9.459933095731694
 40
9.459933095731694
 40
15.51018278016117
 40
15.51018278016117
 40
15.51018278016117
 10
-9.030670207838351
 20
175.3093849330961
 30
0.0
 41
0.8995331395551335
 10
-12.48835069578493
 20
174.085507834198
 30
0.0000000000000071
 41
0.7714950068848627
 10
-12.35532947378958
 20
170.7300519048943
 30
0.0
 41
1.0
  0
ARC
  5
43E
330
A
100
AcDbEntity
  8
CURVE
 62
   255
100
AcDbCircle
 10
-8.071757305385652
 20
170.9015341113742
 30
0.0
 40
4.287003227088115
100
AcDbArc
 50
182.292470562588
 51
198.8759957578177
  0
ARC
  5
43F
330
A
100
AcDbEntity
  8
CURVE
 62
   255
100
AcDbCircle
 10
-2.558372215826675
 20
156.9091433963109
 30
0.0
 40
19.50534468830078
100
AcDbArc
 50
93.88707700407108
 51
109.375485325294
  0
ARC
  5
440
330
A
100
AcDbEntity
  8
CURVE
 62
   255
100
AcDbCircle
 10
-7.406235526607381
 20
169.1532499754543
 30
-0.0000000000030411
 40
0.7080924060844277
100
AcDbArc
 50
331.249989758739
 51
4.239482899228133
  0
ARC
  5
441
330
A
100
AcDbEntity
  8
CURVE
 62
   255
100
AcDbCircle
 10
-7.591099903512103
 20
169.1395462994645
 30
-0.0000000000040075
 40
0.8934640020407979
100
AcDbArc
 50
4.23948289922741
 51
81.64417141670032
  0
ARC
  5
442
330
A
100
AcDbEntity
  8
CURVE
 62
   255
100
AcDbCircle
 10
-8.807321676725905
 20
160.6422919109363
 30
0.0000000000000284
 40
9.480555741670761
100
AcDbArc
 50
81.60238164583205
 51
92.23331464870041
  0
ARC
  5
443
330
A
100
AcDbEntity
  8
CURVE
 62
   255
100
AcDbCircle
 10
-8.812640422457837
 20
160.7786754393474
 30
0.0
 40
9.34406854125247
100
AcDbArc
 50
92.23331464870026
 51
110.7832075182024
  0
ARC
  5
444
330
A
100
AcDbEntity
  8
CURVE
 62
   255
100
AcDbCircle
 10
-7.406235526607381
 20
169.1532499754543
 30
-0.0000000000030411
 40
0.7080924060844277
100
AcDbArc
 50
331.249989758739
 51
4.239482899228133
  0
ARC
  5
445
330
A
100
AcDbEntity
  8
CURVE
 62
   255
100
AcDbCircle
 10
-7.591099903512103
 20
169.1395462994645
 30
-0.0000000000040075
 40
0.8934640020407979
100
AcDbArc
 50
4.23948289922741
 51
81.64417141670032
  0
ARC
  5
446
330
A
100
AcDbEntity
  8
CURVE
 62
   255
100
AcDbCircle
 10
-7.334346338461632
 20
169.1804884451614
 30
-0.0000000000003411
 40
1.632121160489669
100
AcDbArc
 50
332.6077296801715
 51
2.270167541810141
  0
SPLINE
  5
447
330
A
100
AcDbEntity
  8
CURVE
 62
   255
100
AcDbSpline
210
0.0000000000000019
220
0.0000000000000029
230
-1.0
 70
    12
 71
     2
 72
     6
 73
     3
 74
     0
 42
0.0000000001
 43
0.0000000001
 40
11.74741133276587
 40
11.74741133276587
 40
11.74741133276587
 40
14.19687093037009
 40
14.19687093037009
 40
14.19687093037009
 10
-5.703506139650846
 20
169.2451392646642
 30
0.0
 41
1.0
 10
-5.758484678960501
 20
170.6319927131984
 30
0.0000000000000071
 41
0.755714655570203
 10
-7.255022413826041
 20
170.9101923419289
 30
0.0
 41
0.9189179497981179
  0
ARC
  5
448
330
A
100
AcDbEntity
  8
CURVE
 62
   255
100
AcDbCircle
 10
-8.797383541887478
 20
160.4939205661597
 30
0.0000000000229861
 40
10.52919610397464
100
AcDbArc
 50
81.57665007807729
 51
92.25903886030424
  0
ARC
  5
449
330
A
100
AcDbEntity
  8
CURVE
 62
   255
100
AcDbCircle
 10
-8.79923820954486
 20
160.5409359411893
 30
-0.0000000000199449
 40
10.48214416161306
100
AcDbArc
 50
92.25903886030421
 51
104.6029398785417
  0
ARC
  5
44A
330
A
100
AcDbEntity
  8
CURVE
 62
   255
100
AcDbCircle
 10
-2.564967522120267
 20
157.0933485315196
 30
0.0000000000037019
 40
18.42103549672361
100
AcDbArc
 50
93.92371443941863
 51
109.3756404318027
  0
SPLINE
  5
44B
330
A
100
AcDbEntity
  8
CURVE
 62
   255
100
AcDbSpline
210
0.0
220
0.0
230
1.0
 70
    12
 71
     2
 72
     6
 73
     3
 74
     0
 42
0.0000000001
 43
0.0000000001
 40
7.646920510361596
 40
7.646920510361596
 40
7.646920510361596
 40
12.53758596747724
 40
12.53758596747724
 40
12.53758596747724
 10
-8.676324124006988
 20
174.4710315272296
 30
0.0
 41
0.8995317541647544
 10
-11.47129778436915
 20
173.4805798102501
 30
0.0
 41
0.7714962431220566
 10
-11.36377143628927
 20
170.7693576025393
 30
0.0
 41
1.0
  0
LINE
  5
44C
330
A
100
AcDbEntity
  8
CURVE
 62
   255
100
AcDbLine
 10
-11.36377143628927
 20
170.7693576025393
 30
0.0
 11
-11.36080659368702
 21
170.7082769519163
 31
0.0
  0
ARC
  5
44D
330
A
100
AcDbEntity
  8
CURVE
 62
   255
100
AcDbCircle
 10
-2.263596819060099
 20
190.55185668033
 30
0.0
 40
1.222717559582934
100
AcDbArc
 50
159.0926171166124
 51
219.0068251335737
  0
ARC
  5
44E
330
A
100
AcDbEntity
  8
CURVE
 62
   255
100
AcDbCircle
 10
0.0683501809398877
 20
186.33307168033
 30
0.0
 40
5.968270722547975
100
AcDbArc
 50
75.62559557225521
 51
119.7068240108448
  0
ARC
  5
44F
330
A
100
AcDbEntity
  8
CURVE
 62
   255
100
AcDbCircle
 10
-2.406726714447683
 20
190.5288984096647
 30
0.0
 40
1.099598652878535
100
AcDbArc
 50
116.0312971388334
 51
155.3109426029358
  0
ARC
  5
450
330
A
100
AcDbEntity
  8
CURVE
 62
   255
100
AcDbCircle
 10
-2.4335738190601
 20
190.62760368033
 30
0.0
 40
2.047023648817241
100
AcDbArc
 50
153.046805743242
 51
218.5474882970819
  0
ARC
  5
451
330
A
100
AcDbEntity
  8
CURVE
 62
   255
100
AcDbCircle
 10
0.0683446162354537
 20
186.3331334524112
 30
0.0
 40
6.968209821125237
100
AcDbArc
 50
85.28585205689006
 51
100.091157920455
  0
ARC
  5
452
330
A
100
AcDbEntity
  8
CURVE
 62
   255
100
AcDbCircle
 10
0.0683604648190936
 20
186.3330443993723
 30
0.0
 40
6.968300273440515
100
AcDbArc
 50
100.0911579204552
 51
118.9457915118676
  0
ARC
  5
453
330
A
100
AcDbEntity
  8
CURVE
 62
   255
100
AcDbCircle
 10
-2.35036910541477
 20
190.4337341559607
 30
0.0
 40
2.21319048454068
100
AcDbArc
 50
115.528647122624
 51
149.547176992974
  0
SPLINE
  5
454
330
A
100
AcDbEntity
  8
CURVE
 62
   255
100
AcDbSpline
210
0.0
220
0.0
230
1.0
 70
     8
 71
     3
 72
     8
 73
     4
 74
     0
 42
0.0000000001
 43
0.0000000001
 40
0.0
 40
0.0
 40
0.0
 40
0.0
 40
1.0
 40
1.0
 40
1.0
 40
1.0
 10
-2.5518658190601
 20
52.57457968033
 30
0.0
 10
-2.416806152393436
 20
51.53714801366333
 30
0.0
 10
-2.309578607824441
 20
50.45543832778459
 30
0.0
 10
-3.064837819060199
 20
49.92417568033
 30
0.0
  0
SPLINE
  5
455
330
A
100
AcDbEntity
  8
CURVE
 62
   255
100
AcDbSpline
210
0.0
220
0.0
230
1.0
 70
     8
 71
     3
 72
     8
 73
     4
 74
     0
 42
0.0000000001
 43
0.0000000001
 40
1.0
 40
1.0
 40
1.0
 40
1.0
 40
2.0
 40
2.0
 40
2.0
 40
2.0
 10
-3.064837819060199
 20
49.92417568033
 30
0.0
 10
-3.660522819060166
 20
49.50516034699673
 30
0.0
 10
-4.394875405865163
 20
49.34317460905263
 30
0.0
 10
-5.128748819060099
 20
49.25171068033
 30
0.0
  0
ARC
  5
456
330
A
100
AcDbEntity
  8
CURVE
 62
   255
100
AcDbCircle
 10
-7.731349383646393
 20
70.13403430441297
 30
0.0
 40
21.04388200023273
100
AcDbArc
 50
268.3472682900903
 51
277.1042409136491
  0
ARC
  5
457
330
A
100
AcDbEntity
  8
CURVE
 62
   255
100
AcDbCircle
 10
-4.960427051195846
 20
72.46517681776689
 30
0.0
 40
2.74120383095772
100
AcDbArc
 50
174.7939242092483
 51
212.8752649263352
  0
ARC
  5
458
330
A
100
AcDbEntity
  8
CURVE
 62
   255
100
AcDbCircle
 10
-3.581862609392322
 20
73.29207650147576
 30
-0.0000000000000071
 40
4.348181256315791
100
AcDbArc
 50
212.1659843418377
 51
252.5169949399298
  0
ARC
  5
459
330
A
100
AcDbEntity
  8
CURVE
 62
   255
100
AcDbCircle
 10
-1.042198669576523
 20
82.56539146406746
 30
0.0
 40
13.96083371710554
100
AcDbArc
 50
254.009265046139
 51
266.5402871136762
  0
ARC
  5
45A
330
A
100
AcDbEntity
  8
CURVE
 62
   255
100
AcDbCircle
 10
-0.7118474050315663
 20
88.02963771051402
 30
0.0
 40
19.43505685831854
100
AcDbArc
 50
266.5402871136761
 51
272.099044255917
  0
SPLINE
  5
45B
330
A
100
AcDbEntity
  8
CURVE
 62
   255
100
AcDbSpline
210
0.0
220
0.0
230
1.0
 70
     8
 71
     3
 72
     8
 73
     4
 74
     0
 42
0.0000000001
 43
0.0000000001
 40
0.0
 40
0.0
 40
0.0
 40
0.0
 40
1.0
 40
1.0
 40
1.0
 40
1.0
 10
-8.548627819060099
 20
73.67568668033
 30
0.0
 10
-8.632060819060098
 20
72.58015301366333
 30
0.0
 10
-8.608764634874054
 20
71.45797532854037
 30
0.0
 10
-8.0514838190601
 20
70.542050680331
 30
0.0
  0
SPLINE
  5
45C
330
A
100
AcDbEntity
  8
CURVE
 62
   255
100
AcDbSpline
210
0.0
220
0.0
230
1.0
 70
     8
 71
     3
 72
     8
 73
     4
 74
     0
 42
0.0000000001
 43
0.0000000001
 40
1.0
 40
1.0
 40
1.0
 40
1.0
 40
2.0
 40
2.0
 40
2.0
 40
2.0
 10
-8.0514838190601
 20
70.542050680331
 30
0.0
 10
-7.160318485726767
 20
69.07736668033087
 30
0.0
 10
-5.54658266852865
 20
68.23850125278062
 30
0.0
 10
-3.8204338190601
 20
67.94009568033001
 30
0.0
  0
ARC
  5
45D
330
A
100
AcDbEntity
  8
CURVE
 62
   255
100
AcDbCircle
 10
-0.8081852706528984
 20
85.36466762597209
 30
0.0
 40
17.68302431164529
100
AcDbArc
 50
260.1920102655114
 51
272.6195637199615
  0
SPLINE
  5
45E
330
A
100
AcDbEntity
  8
CURVE
 62
   255
100
AcDbSpline
210
0.0
220
0.0
230
1.0
 70
     8
 71
     3
 72
     8
 73
     4
 74
     0
 42
0.0000000001
 43
0.0000000001
 40
0.0
 40
0.0
 40
0.0
 40
0.0
 40
1.0
 40
1.0
 40
1.0
 40
1.0
 10
-2.5044868190601
 20
75.84196868033
 30
0.0
 10
-2.3599588190601
 20
74.88157534699666
 30
0.0
 10
-2.316292367647442
 20
73.87462498342092
 30
0.0
 10
-3.0371628190602
 20
73.40769168033
 30
0.0
  0
SPLINE
  5
45F
330
A
100
AcDbEntity
  8
CURVE
 62
   255
100
AcDbSpline
210
0.0
220
0.0
230
1.0
 70
     8
 71
     3
 72
     8
 73
     4
 74
     0
 42
0.0000000001
 43
0.0000000001
 40
1.0
 40
1.0
 40
1.0
 40
1.0
 40
2.0
 40
2.0
 40
2.0
 40
2.0
 10
-3.0371628190602
 20
73.40769168033
 30
0.0
 10
-3.571927485726833
 20
73.06130568033013
 30
0.0
 10
-4.211287789967107
 20
72.92043472226353
 30
0.0
 10
-4.852202819060099
 20
72.84708768033
 30
0.0
  0
ARC
  5
460
330
A
100
AcDbEntity
  8
CURVE
 62
   255
100
AcDbCircle
 10
-7.264039290680408
 20
93.92199679223281
 30
0.0
 40
21.21246683534949
100
AcDbArc
 50
268.7890255541828
 51
276.5285916118672
  0
SPLINE
  5
461
330
A
100
AcDbEntity
  8
CURVE
 62
   255
100
AcDbSpline
210
0.0
220
0.0
230
1.0
 70
     8
 71
     3
 72
     8
 73
     4
 74
     0
 42
0.0000000001
 43
0.0000000001
 40
0.0
 40
0.0
 40
0.0
 40
0.0
 40
1.0
 40
1.0
 40
1.0
 40
1.0
 10
-2.3072868190601
 20
29.08676168033
 30
0.0
 10
-2.177017152393436
 20
28.28135901366334
 30
0.0
 10
-2.054080177275424
 20
27.44771966888031
 30
0.0
 10
-2.472590819060199
 20
26.79309068033
 30
0.0
  0
SPLINE
  5
462
330
A
100
AcDbEntity
  8
CURVE
 62
   255
100
AcDbSpline
210
0.0
220
0.0
230
1.0
 70
     8
 71
     3
 72
     8
 73
     4
 74
     0
 42
0.0000000001
 43
0.0000000001
 40
1.0
 40
1.0
 40
1.0
 40
1.0
 40
2.0
 40
2.0
 40
2.0
 40
2.0
 10
-2.472590819060199
 20
26.79309068033
 30
0.0
 10
-2.853411819060166
 20
26.19741534699667
 30
0.0
 10
-3.609477264524547
 20
26.02065065479975
 30
0.0
 10
-4.342046819060099
 20
25.86263868033
 30
0.0
  0
SPLINE
  5
463
330
A
100
AcDbEntity
  8
CURVE
 62
   255
100
AcDbSpline
210
0.0
220
0.0
230
1.0
 70
     8
 71
     3
 72
     8
 73
     4
 74
     0
 42
0.0000000001
 43
0.0000000001
 40
2.0
 40
2.0
 40
2.0
 40
2.0
 40
3.0
 40
3.0
 40
3.0
 40
3.0
 10
-4.342046819060099
 20
25.86263868033
 30
0.0
 10
-5.568655485726733
 20
25.59806468032999
 30
0.0
 10
-6.833691819060042
 20
25.60958368033
 30
0.0
 10
-8.093708819060099
 20
25.61108768033
 30
0.0
  0
ARC
  5
464
330
A
100
AcDbEntity
  8
CURVE
 62
   255
100
AcDbCircle
 10
-5.028170546321594
 20
74.79470319374303
 30
0.0
 40
1.723353037707652
100
AcDbArc
 50
358.4901758715105
 51
11.99582757864832
  0
ARC
  5
465
330
A
100
AcDbEntity
  8
CURVE
 62
   255
100
AcDbCircle
 10
-4.332568636695689
 20
74.7112949583423
 30
0.0
 40
1.027855517885814
100
AcDbArc
 50
335.740117377051
 51
2.118758188327115
  0
SPLINE
  5
466
330
A
100
AcDbEntity
  8
CURVE
 62
   255
100
AcDbSpline
210
0.0
220
0.0
230
1.0
 70
     8
 71
     3
 72
     8
 73
     4
 74
     0
 42
0.0000000001
 43
0.0000000001
 40
2.0
 40
2.0
 40
2.0
 40
2.0
 40
3.0
 40
3.0
 40
3.0
 40
3.0
 10
-3.395481819060099
 20
74.28897368033
 30
0.0
 10
-3.498131819060126
 20
74.11190701366351
 30
0.0
 10
-3.72392448572679
 20
74.06797168033017
 30
0.0
 10
-3.9248938190601
 20
73.98254768033
 30
0.0
  0
ARC
  5
467
330
A
100
AcDbEntity
  8
CURVE
 62
   255
100
AcDbCircle
 10
-5.875290440571749
 20
80.01211810831774
 30
0.0
 40
6.337173386239975
100
AcDbArc
 50
280.8926435497313
 51
287.9249369231086
  0
ARC
  5
468
330
A
100
AcDbEntity
  8
CURVE
 62
   255
100
AcDbCircle
 10
-6.437698033643371
 20
83.79000851781881
 30
0.0
 40
10.15456171261393
100
AcDbArc
 50
272.9888101074993
 51
279.9806241566792
  0
ARC
  5
469
330
A
100
AcDbEntity
  8
CURVE
 62
   255
100
AcDbCircle
 10
-7.016167916416011
 20
94.86927187995677
 30
0.0
 40
21.24891631542375
100
AcDbArc
 50
265.8642701490576
 51
272.9888101074993
  0
ARC
  5
46A
330
A
100
AcDbEntity
  8
CURVE
 62
   255
100
AcDbCircle
 10
-8.7748838190602
 20
74.20102468032999
 30
0.0
 40
5.51519425431342
100
AcDbArc
 50
9.938374151774688
 51
27.09103856434883
  0
ARC
  5
46B
330
A
100
AcDbEntity
  8
CURVE
 62
   255
100
AcDbCircle
 10
-5.222153407895746
 20
53.28766879882312
 30
0.0
 40
2.977841156953989
100
AcDbArc
 50
287.1139753360944
 51
296.2247765355412
  0
ARC
  5
46C
330
A
100
AcDbEntity
  8
CURVE
 62
   255
100
AcDbCircle
 10
-6.076815630027381
 20
55.7546976792561
 30
0.0
 40
5.587875908593606
100
AcDbArc
 50
271.9667969743587
 51
288.0454293867489
  0
LINE
  5
46D
330
A
100
AcDbEntity
  8
CURVE
 62
   255
100
AcDbLine
 10
-5.8850378190601
 20
50.17011368032999
 30
0.0
 11
-7.9066698190602
 21
50.10068968032999
 31
0.0
  0
ARC
  5
46E
330
A
100
AcDbEntity
  8
CURVE
 62
   255
100
AcDbCircle
 10
-7.918967110867697
 20
63.79655504394035
 30
0.0
 40
13.69587088437707
100
AcDbArc
 50
264.3465967043125
 51
270.0514449223879
  0
ARC
  5
46F
330
A
100
AcDbEntity
  8
CURVE
 62
   255
100
AcDbCircle
 10
-8.2250538190601
 20
51.35314468033
 30
0.0
 40
4.79481146483847
100
AcDbArc
 50
0.6152815630897721
 51
27.18948803241945
  0
ARC
  5
470
330
A
100
AcDbEntity
  8
CURVE
 62
   255
100
AcDbCircle
 10
-4.588225643527053
 20
51.36851841127446
 30
0.0
 40
1.158270004824571
100
AcDbArc
 50
345.1048868778319
 51
1.786792305673005
  0
LINE
  5
471
330
A
100
AcDbEntity
  8
CURVE
 62
   255
100
AcDbLine
 10
-3.468875819060099
 20
51.07078468033
 30
0.0
 11
-3.478753819060099
 21
51.03364768032999
 31
0.0
  0
ARC
  5
472
330
A
100
AcDbEntity
  8
CURVE
 62
   255
100
AcDbCircle
 10
-4.13532904170426
 20
51.27864956455106
 30
0.0
 40
0.7007979519167967
100
AcDbArc
 50
289.07859515751
 51
339.5369811465089
  0
ARC
  5
473
330
A
100
AcDbEntity
  8
CURVE
 62
   255
100
AcDbCircle
 10
-13.80081281906
 20
26.79953068033
 30
0.0
 40
10.67813031720081
100
AcDbArc
 50
8.051210187053674
 51
17.76743963303798
  0
ARC
  5
474
330
A
100
AcDbEntity
  8
CURVE
 62
   255
100
AcDbCircle
 10
-6.214208612500009
 20
35.36737620343024
 30
0.0
 40
8.691508426760737
100
AcDbArc
 50
279.4954893617151
 51
284.2316462227838
  0
ARC
  5
475
330
A
100
AcDbEntity
  8
CURVE
 62
   255
100
AcDbCircle
 10
-6.912258171964879
 20
40.1552047589642
 30
0.0
 40
13.52927391139752
100
AcDbArc
 50
272.2304176730852
 51
279.0662200070942
  0
ARC
  5
476
330
A
100
AcDbEntity
  8
CURVE
 62
   255
100
AcDbCircle
 10
-7.313765806231003
 20
50.46406823145415
 30
0.0
 40
23.84595334204824
100
AcDbArc
 50
265.8906406230337
 51
272.2304176730854
  0
ARC
  5
477
330
A
100
AcDbEntity
  8
CURVE
 62
   255
100
AcDbCircle
 10
-5.571272300212957
 20
27.91176098204672
 30
0.0000000000000284
 40
2.374484392069008
100
AcDbArc
 50
357.2019257838938
 51
9.290291733245744
  0
ARC
  5
478
330
A
100
AcDbEntity
  8
CURVE
 62
   255
100
AcDbCircle
 10
-4.542572352510002
 20
27.86148381956845
 30
0.0
 40
1.344556542425683
100
AcDbArc
 50
338.7688497550412
 51
357.2019257838936
  0
LINE
  5
479
330
A
100
AcDbEntity
  8
CURVE
 62
   255
100
AcDbLine
 10
-3.289274819060099
 20
27.37457768033
 30
0.0
 11
-3.3199918190601
 21
27.31723568033
 31
0.0
  0
ARC
  5
47A
330
A
100
AcDbEntity
  8
CURVE
 62
   255
100
AcDbCircle
 10
-3.828509375297724
 20
27.73601942920087
 30
0.0
 40
0.658764715476122
100
AcDbArc
 50
294.989881519864
 51
320.5272876189177
  0
ARC
  5
47B
330
A
100
AcDbEntity
  8
CURVE
 62
   255
100
AcDbCircle
 10
-5.042373795823125
 20
30.34036076939276
 30
0.0
 40
3.532100868391397
100
AcDbArc
 50
285.8537631479309
 51
294.9898815198642
  0
ARC
  5
47C
330
A
100
AcDbEntity
  8
CURVE
 62
   255
100
AcDbCircle
 10
-39.95116181906
 20
236.04178168033
 30
0.0
 40
8.686568104191159
100
AcDbArc
 50
56.5441589771918
 51
129.2316355317099
  0
ARC
  5
47D
330
A
100
AcDbEntity
  8
CURVE
 62
   255
100
AcDbCircle
 10
-39.95130412385292
 20
236.0412608126613
 30
0.0
 40
9.987080709915275
100
AcDbArc
 50
56.5451261942662
 51
92.88692548000954
  0
ARC
  5
47E
330
A
100
AcDbEntity
  8
CURVE
 62
   255
100
AcDbCircle
 10
-39.95139016428735
 20
236.0429669811186
 30
0.0
 40
9.985372373367326
100
AcDbArc
 50
92.88692548000954
 51
108.4893481968301
  0
LINE
  5
480
330
A
100
AcDbEntity
  8
CURVE
 62
   255
100
AcDbLine
 10
30.44348018094
 20
169.00998168033
 30
0.0
 11
44.33590118094
 21
160.01344668033
 31
0.0
  0
SPLINE
  5
481
330
A
100
AcDbEntity
  8
CURVE
 62
   255
100
AcDbSpline
210
0.0
220
0.0
230
1.0
 70
     8
 71
     3
 72
     8
 73
     4
 74
     0
 42
0.0000000001
 43
0.0000000001
 40
0.0
 40
0.0
 40
0.0
 40
0.0
 40
1.0
 40
1.0
 40
1.0
 40
1.0
 10
13.14609018094
 20
121.17265968033
 30
0.0
 10
15.09594084760666
 20
132.88787168033
 30
0.0
 10
17.12550823845305
 20
144.5960319482762
 30
0.0
 10
17.99784618094
 20
156.42905768033
 30
0.0
  0
ARC
  5
482
330
A
100
AcDbEntity
  8
CURVE
 62
   255
100
AcDbCircle
 10
-122.3604018589836
 20
167.3728362228416
 30
0.0
 40
140.784246567662
100
AcDbArc
 50
355.54164937401
 51
2.754191305273509
  0
SPLINE
  5
483
330
A
100
AcDbEntity
  8
CURVE
 62
   255
100
AcDbSpline
210
0.0
220
0.0
230
1.0
 70
     8
 71
     3
 72
     8
 73
     4
 74
     0
 42
0.0000000001
 43
0.0000000001
 40
2.0
 40
2.0
 40
2.0
 40
2.0
 40
3.0
 40
3.0
 40
3.0
 40
3.0
 10
18.26122118094
 20
174.13768768033
 30
0.0
 10
17.97800151427333
 20
180.025002346997
 30
0.0
 10
17.33112129486186
 20
185.8897183041743
 30
0.0
 10
16.14414018093998
 20
191.65964968033
 30
0.0
  0
ARC
  5
484
330
A
100
AcDbEntity
  8
CURVE
 62
   255
100
AcDbCircle
 10
-53.0949183510088
 20
177.9907984495587
 30
0.0
 40
70.57538324628204
100
AcDbArc
 50
11.16746678252259
 51
18.31562676895579
  0
ARC
  5
485
330
A
100
AcDbEntity
  8
CURVE
 62
   255
100
AcDbCircle
 10
-65.91739352609558
 20
173.7133471368413
 30
0.0000000000000568
 40
84.0924701547731
100
AcDbArc
 50
18.33693518298774
 51
24.33751261381118
  0
ARC
  5
486
330
A
100
AcDbEntity
  8
CURVE
 62
   255
100
AcDbCircle
 10
-106.9896054073516
 20
156.1647174922618
 30
0.0
 40
128.7501385204419
100
AcDbArc
 50
23.92045727533417
 51
31.80057625087015
  0
LINE
  5
487
330
A
100
AcDbEntity
  8
CURVE
 62
   255
100
AcDbLine
 10
2.4335141809399
 20
224.01144968033
 30
0.0
 11
1.270659180939899
 21
225.88690068033
 31
0.0
  0
LINE
  5
488
330
A
100
AcDbEntity
  8
CURVE
 62
   255
100
AcDbLine
 10
1.270659180939899
 20
225.88690068033
 30
0.0
 11
0.76122318093987
 21
226.68102468033
 31
0.0
  0
ARC
  5
489
330
A
100
AcDbEntity
  8
CURVE
 62
   255
100
AcDbCircle
 10
155.4552934438729
 20
327.1073500444577
 30
0.0
 40
184.4334628006937
100
AcDbArc
 50
211.1305164220582
 51
212.9913556787795
  0
LINE
  5
48A
330
A
100
AcDbEntity
  8
CURVE
 62
   255
100
AcDbLine
 10
14.56253018094
 20
123.58281668033
 30
0.0
 11
15.72632618094
 21
130.58075668033
 31
0.0
  0
ARC
  5
48B
330
A
100
AcDbEntity
  8
CURVE
 62
   255
100
AcDbCircle
 10
287.7647620118097
 20
410.0859288597103
 30
0.0
 40
339.5976212555142
100
AcDbArc
 50
211.5590771140223
 51
212.740719399299
  0
ARC
  5
48C
330
A
100
AcDbEntity
  8
CURVE
 62
   255
100
AcDbCircle
 10
-205.4505679548002
 20
173.2984530292783
 30
0.0
 40
225.0990716539853
100
AcDbArc
 50
352.7601944678612
 51
354.3886682924028
  0
ARC
  5
48D
330
A
100
AcDbEntity
  8
CURVE
 62
   255
100
AcDbCircle
 10
-127.283239870024
 20
167.7918416045685
 30
0.0
 40
146.6991468867204
100
AcDbArc
 50
358.5892248424018
 51
1.339942747093371
  0
LINE
  5
48E
330
A
100
AcDbEntity
  8
CURVE
 62
   255
100
AcDbLine
 10
18.33100418094
 20
184.7681186803299
 30
0.0
 11
18.00557018094
 21
187.01226468033
 31
0.0
  0
ARC
  5
48F
330
A
100
AcDbEntity
  8
CURVE
 62
   255
100
AcDbCircle
 10
-77.7888452927084
 20
172.168464098441
 30
0.0
 40
96.93765239396329
100
AcDbArc
 50
8.808201675743028
 51
11.73555803991523
  0
ARC
  5
490
330
A
100
AcDbEntity
  8
CURVE
 62
   255
100
AcDbCircle
 10
-82.55096193396141
 20
166.9178027675655
 30
0.0
 40
103.0618976577845
100
AcDbArc
 50
21.78571444677028
 51
25.57761301802426
  0
ARC
  5
491
330
A
100
AcDbEntity
  8
CURVE
 62
   255
100
AcDbCircle
 10
1.8858301809399
 20
244.74096868033
 30
0.0
 40
5.999999495075064
100
AcDbArc
 50
56.9253308940652
 51
126.9518573664628
  0
ARC
  5
493
330
A
100
AcDbEntity
  8
CURVE
 62
   255
100
AcDbCircle
 10
-52.74905181905999
 20
216.67386468033
 30
0.0
 40
33.20083479929241
100
AcDbArc
 50
39.05780123569445
 51
56.54415755869184
  0
ARC
  5
494
330
A
100
AcDbEntity
  8
CURVE
 62
   255
100
AcDbCircle
 10
-52.74877126490295
 20
216.6742257455999
 30
0.0
 40
31.90037930383742
100
AcDbArc
 50
48.80435194504795
 51
56.54422009073313
  0
ARC
  5
495
330
A
100
AcDbEntity
  8
CURVE
 62
   255
100
AcDbCircle
 10
-52.74906585600104
 20
216.6738557540205
 30
0.0
 40
31.9008517367507
100
AcDbArc
 50
41.79538740126129
 51
48.80439149233296
  0
LINE
  5
496
330
A
100
AcDbEntity
  8
CURVE
 62
   255
100
AcDbLine
 10
-28.96603481906
 20
237.93489468033
 30
0.0
 11
-27.69057081906
 21
236.50813468033
 31
0.0
  0
ARC
  5
497
330
A
100
AcDbEntity
  8
CURVE
 62
   255
100
AcDbCircle
 10
-176.8080205276178
 20
238.669483349102
 30
0.0
 40
147.7574597969097
100
AcDbArc
 50
352.4310843108361
 51
355.4760776799725
  0
SPLINE
  5
498
330
A
100
AcDbEntity
  8
CURVE
 62
   255
100
AcDbSpline
210
0.0
220
0.0
230
1.0
 70
     8
 71
     3
 72
     8
 73
     4
 74
     0
 42
0.0000000001
 43
0.0000000001
 40
1.0
 40
1.0
 40
1.0
 40
1.0
 40
2.0
 40
2.0
 40
2.0
 40
2.0
 10
-30.33794981906
 20
219.20707568033
 30
0.0
 10
-30.88027248572674
 20
215.1256670136633
 30
0.0
 10
-31.65373789473726
 20
211.0709678192237
 30
0.0
 10
-32.04360181906
 20
206.97271068033
 30
0.0
  0
ARC
  5
499
330
A
100
AcDbEntity
  8
CURVE
 62
   255
100
AcDbCircle
 10
48.00238537503847
 20
199.314966052864
 30
0.0
 40
80.41144892773205
100
AcDbArc
 50
174.5353259358109
 51
183.3374640646956
  0
ARC
  5
49A
330
A
100
AcDbEntity
  8
CURVE
 62
   255
100
AcDbCircle
 10
84.37354325818231
 20
201.6878569543653
 30
0.0
 40
116.8593326622596
100
AcDbArc
 50
183.460751255152
 51
189.51747263098
  0
ARC
  5
49B
330
A
100
AcDbEntity
  8
CURVE
 62
   255
100
AcDbCircle
 10
133.7336292721908
 20
210.2014365411069
 30
0.0
 40
166.9478597333451
100
AcDbArc
 50
189.5980489082592
 51
193.8376361275948
  0
ARC
  5
49C
330
A
100
AcDbEntity
  8
CURVE
 62
   255
100
AcDbCircle
 10
157.7131331192978
 20
216.1633870293254
 30
0.0
 40
191.6573507353387
100
AcDbArc
 50
193.8536925360996
 51
197.5455884387334
  0
SPLINE
  5
49D
330
A
100
AcDbEntity
  8
CURVE
 62
   255
100
AcDbSpline
210
0.0
220
0.0
230
1.0
 70
     8
 71
     3
 72
     8
 73
     4
 74
     0
 42
0.0000000001
 43
0.0000000001
 40
6.0
 40
6.0
 40
6.0
 40
6.0
 40
7.0
 40
7.0
 40
7.0
 40
7.0
 10
-25.02781681906
 20
158.38549068033
 30
0.0
 10
-23.78670848572664
 20
154.4600913469967
 30
0.0
 10
-22.39821992672009
 20
150.5793314935407
 30
0.0
 10
-21.29950981906
 20
146.61480668033
 30
0.0
  0
ARC
  5
49E
330
A
100
AcDbEntity
  8
CURVE
 62
   255
100
AcDbCircle
 10
-159.2077543676647
 20
108.608140664832
 30
0.0
 40
143.0496087939124
100
AcDbArc
 50
10.45904566114929
 51
15.40788006135268
  0
ARC
  5
49F
330
A
100
AcDbEntity
  8
CURVE
 62
   255
100
AcDbCircle
 10
-443.3562636844768
 20
56.15438230179091
 30
0.0
 40
431.9990370912785
100
AcDbArc
 50
8.879216859755874
 51
10.45904566114922
  0
SPLINE
  5
4A0
330
A
100
AcDbEntity
  8
CURVE
 62
   255
100
AcDbSpline
210
0.0
220
0.0
230
1.0
 70
     8
 71
     3
 72
     8
 73
     4
 74
     0
 42
0.0000000001
 43
0.0000000001
 40
0.0
 40
0.0
 40
0.0
 40
0.0
 40
1.0
 40
1.0
 40
1.0
 40
1.0
 10
-29.25609381906
 20
230.27901168033
 30
0.0
 10
-29.12898781906
 20
231.86085168033
 30
0.0
 10
-28.94190227708178
 20
233.4263243770449
 30
0.0
 10
-28.42027881906
 20
234.91320068033
 30
0.0
  0
ARC
  5
4A1
330
A
100
AcDbEntity
  8
CURVE
 62
   255
100
AcDbCircle
 10
-19.38172565049151
 20
231.7423105740812
 30
0.0
 40
9.578621375069904
100
AcDbArc
 50
150.1620894885535
 51
160.6681945404958
  0
LINE
  5
4A2
330
A
100
AcDbEntity
  8
CURVE
 62
   255
100
AcDbLine
 10
-29.25609381906
 20
230.27901168033
 30
0.0
 11
-29.51090081906
 21
227.01506568033
 31
0.0
  0
ARC
  5
4A3
330
A
100
AcDbEntity
  8
CURVE
 62
   255
100
AcDbCircle
 10
8.119817365887033
 20
239.4855350893424
 30
-0.0000000000000142
 40
15.41649211893068
100
AcDbArc
 50
139.8978100061519
 51
160.9968212195047
  0
ARC
  5
4A4
330
A
100
AcDbEntity
  8
CURVE
 62
   255
100
AcDbCircle
 10
8.119834155620306
 20
239.4855293071317
 30
0.0
 40
15.41650987643908
100
AcDbArc
 50
160.9968212195048
 51
184.1491764117237
  0
ARC
  5
4A5
330
A
100
AcDbEntity
  8
CURVE
 62
   255
100
AcDbCircle
 10
0.5326185536039532
 20
246.0888234258524
 30
0.0
 40
5.362034931554734
100
AcDbArc
 50
124.0532416453415
 51
141.64534638532
  0
ARC
  5
4A6
330
A
100
AcDbEntity
  8
CURVE
 62
   255
100
AcDbCircle
 10
2.020827766099059
 20
244.838299372676
 30
0.0
 40
6.005678205199695
100
AcDbArc
 50
128.5394831740509
 51
141.4781793555254
  0
ARC
  5
4A7
330
A
100
AcDbEntity
  8
CURVE
 62
   255
100
AcDbCircle
 10
1.863361180939899
 20
243.67511868033
 30
0.0
 40
8.110823597956004
100
AcDbArc
 50
91.26770216782958
 51
122.2937017748486
  0
SPLINE
  5
4A8
330
A
100
AcDbEntity
  8
CURVE
 62
   255
100
AcDbSpline
210
0.0
220
0.0
230
1.0
 70
     8
 71
     3
 72
     8
 73
     4
 74
     0
 42
0.0000000001
 43
0.0000000001
 40
0.0
 40
0.0
 40
0.0
 40
0.0
 40
1.0
 40
1.0
 40
1.0
 40
1.0
 10
-2.418247819060099
 20
231.75722068033
 30
0.0
 10
-3.440542485726766
 20
233.4565833469967
 30
0.0
 10
-4.497369152393432
 20
235.16134468033
 30
0.0
 10
-5.7127248190601
 20
236.66842568033
 30
0.0
  0
ARC
  5
4A9
330
A
100
AcDbEntity
  8
CURVE
 62
   255
100
AcDbCircle
 10
8.119811180939899
 20
239.48553468033
 30
0.0
 40
14.11648592436479
100
AcDbArc
 50
139.8977934196038
 51
191.5113215556363
  0
ARC
  5
4AA
330
A
100
AcDbEntity
  8
CURVE
 62
   255
100
AcDbCircle
 10
-15.34393127755285
 20
230.4131210413238
 30
0.0000000000000142
 40
11.34564453341363
100
AcDbArc
 50
44.53330301895723
 51
66.9835626886341
  0
ARC
  5
4AB
330
A
100
AcDbEntity
  8
CURVE
 62
   255
100
AcDbCircle
 10
-15.36162949953238
 20
230.3714598776416
 30
0.0
 40
11.39090908489262
100
AcDbArc
 50
66.98356268863398
 51
75.01990450417391
  0
ARC
  5
4AC
330
A
100
AcDbEntity
  8
CURVE
 62
   255
100
AcDbCircle
 10
-18.68133953638693
 20
231.2083427895497
 30
0.0
 40
10.46171652394656
100
AcDbArc
 50
117.7918554033069
 51
142.3838426917828
  0
LINE
  5
4AD
330
A
100
AcDbEntity
  8
CURVE
 62
   255
100
AcDbLine
 10
-23.36804081906
 20
240.56208368033
 30
0.0
 11
-23.55922881906
 21
240.46327168033
 31
0.0
  0
LINE
  5
4AE
330
A
100
AcDbEntity
  8
CURVE
 62
   255
100
AcDbLine
 10
-14.35512281906
 20
247.85784568033
 30
0.0
 11
-14.50976381906
 21
247.87686168033
 31
0.0
  0
ARC
  5
4AF
330
A
100
AcDbEntity
  8
CURVE
 62
   255
100
AcDbCircle
 10
-16.97490371169965
 20
227.8110975370482
 30
-0.0000000000000284
 40
20.21662200626247
100
AcDbArc
 50
82.99613539547909
 51
94.54756602934308
  0
ARC
  5
4B0
330
A
100
AcDbEntity
  8
CURVE
 62
   255
100
AcDbCircle
 10
-16.97651573631658
 20
227.831365121224
 30
0.0
 40
20.19629041528472
100
AcDbArc
 50
94.54756602934308
 51
105.6655711283151
  0
ARC
  5
4B1
330
A
100
AcDbEntity
  8
CURVE
 62
   255
100
AcDbCircle
 10
-14.80589481906
 20
244.19215668033
 30
0.0
 40
3.693300601409905
100
AcDbArc
 50
310.2967235178287
 51
82.98949892055549
  0
SPLINE
  5
4B2
330
A
100
AcDbEntity
  8
CURVE
 62
     3
100
AcDbSpline
210
0.0
220
0.0
230
1.0
 70
     8
 71
     3
 72
     8
 73
     4
 74
     0
 42
0.0000000001
 43
0.0000000001
 40
0.0
 40
0.0
 40
0.0
 40
0.0
 40
1.0
 40
1.0
 40
1.0
 40
1.0
 10
-0.10498981906012
 20
1.174513680330399
 30
0.0
 10
6.575553847606546
 20
1.409660013663733
 30
0.0
 10
13.03700983619302
 20
3.595601361642704
 30
0.0
 10
18.24871118094
 20
7.657143680330399
 30
0.0
  0
SPLINE
  5
4B3
330
A
100
AcDbEntity
  8
CURVE
 62
     3
100
AcDbSpline
210
0.0
220
0.0
230
1.0
 70
     8
 71
     3
 72
     8
 73
     4
 74
     0
 42
0.0000000001
 43
0.0000000001
 40
1.0
 40
1.0
 40
1.0
 40
1.0
 40
2.0
 40
2.0
 40
2.0
 40
2.0
 10
18.24871118094
 20
7.657143680330399
 30
0.0
 10
21.46652351427333
 20
10.16482401366366
 30
0.0
 10
24.01135475415263
 20
13.51756083734528
 30
0.0
 10
25.89387318094
 20
17.12283068033
 30
0.0
  0
ARC
  5
4B4
330
A
100
AcDbEntity
  8
CURVE
 62
     3
100
AcDbCircle
 10
-15.54988862909849
 20
38.42164674648325
 30
0.0000000000000284
 40
46.59640499853001
100
AcDbArc
 50
332.8004203718831
 51
344.8956207380945
  0
SPLINE
  5
4B5
330
A
100
AcDbEntity
  8
CURVE
 62
     3
100
AcDbSpline
210
0.0
220
0.0
230
1.0
 70
     8
 71
     3
 72
     8
 73
     4
 74
     0
 42
0.0000000001
 43
0.0000000001
 40
3.0
 40
3.0
 40
3.0
 40
3.0
 40
4.0
 40
4.0
 40
4.0
 40
4.0
 10
29.43673718094
 20
26.27963468033
 30
0.0
 10
30.87811884760667
 20
31.62000968033
 30
0.0
 10
31.50025857572606
 20
37.15145548080113
 30
0.0
 10
31.76644818094002
 20
42.71291368033
 30
0.0
  0
ARC
  5
4B6
330
A
100
AcDbEntity
  8
CURVE
 62
     3
100
AcDbCircle
 10
-276.8945517619539
 20
57.59373395882926
 30
0.0
 40
309.0195005139774
100
AcDbArc
 50
357.2398568395123
 51
359.8299153947651
  0
ARC
  5
4B7
330
A
100
AcDbEntity
  8
CURVE
 62
     3
100
AcDbCircle
 10
-2215.572737690683
 20
62.88949303575646
 30
0.0
 40
2247.70491198699
100
AcDbArc
 50
359.8416231248052
 51
0.2134129424468408
  0
ARC
  5
4B8
330
A
100
AcDbEntity
  8
CURVE
 62
     3
100
AcDbCircle
 10
458.6616307369113
 20
73.26408073264929
 30
-0.0000000000001137
 40
426.549748856828
100
AcDbArc
 50
177.2358758544949
 51
180.2689775369011
  0
ARC
  5
4B9
330
A
100
AcDbEntity
  8
CURVE
 62
     3
100
AcDbCircle
 10
262.8514147897185
 20
83.40159096832701
 30
0.0000000000000568
 40
230.479489216925
100
AcDbArc
 50
171.7908119173654
 51
177.4056393320258
  0
SPLINE
  5
4BA
330
A
100
AcDbEntity
  8
CURVE
 62
     3
100
AcDbSpline
210
0.0
220
0.0
230
1.0
 70
     8
 71
     3
 72
     8
 73
     4
 74
     0
 42
0.0000000001
 43
0.0000000001
 40
8.0
 40
8.0
 40
8.0
 40
8.0
 40
9.0
 40
9.0
 40
9.0
 40
9.0
 10
34.73356918094
 20
116.31121668033
 30
0.0
 10
35.80856151427334
 20
123.7626820136633
 30
0.0
 10
37.29329632377269
 20
131.1574155397773
 30
0.0
 10
38.25351318094
 20
138.61994868033
 30
0.0
  0
ARC
  5
4BB
330
A
100
AcDbEntity
  8
CURVE
 62
     3
100
AcDbCircle
 10
-133.2624799017317
 20
159.8249270896048
 30
0.0
 40
172.8218359828205
100
AcDbArc
 50
352.9521341409371
 51
0.4396516204772152
  0
ARC
  5
4BC
330
A
100
AcDbEntity
  8
CURVE
 62
     3
100
AcDbCircle
 10
-80.72230605403039
 20
160.4331602139668
 30
0.0
 40
120.2787165737503
100
AcDbArc
 50
0.3419699594312547
 51
7.77375578173362
  0
ARC
  5
4BD
330
A
100
AcDbEntity
  8
CURVE
 62
     3
100
AcDbCircle
 10
-106.2009043897371
 20
157.5166883482261
 30
0.0
 40
145.9187127520571
100
AcDbArc
 50
7.555199078947267
 51
15.33678793481477
  0
ARC
  5
4BE
330
A
100
AcDbEntity
  8
CURVE
 62
     3
100
AcDbCircle
 10
-68.70489972067819
 20
167.7528286574429
 30
0.0
 40
107.0506529110211
100
AcDbArc
 50
15.36129897617528
 51
20.78335721162059
  0
SPLINE
  5
4BF
330
A
100
AcDbEntity
  8
CURVE
 62
     3
100
AcDbSpline
210
0.0
220
0.0
230
1.0
 70
     8
 71
     3
 72
     8
 73
     4
 74
     0
 42
0.0000000001
 43
0.0000000001
 40
13.0
 40
13.0
 40
13.0
 40
13.0
 40
14.0
 40
14.0
 40
14.0
 40
14.0
 10
31.37983718094
 20
205.73819068033
 30
0.0
 10
28.49059884760667
 20
213.35082468033
 30
0.0
 10
25.00702658735561
 20
220.7400854021551
 30
0.0
 10
20.69204218093999
 20
227.54390168033
 30
0.0
  0
ARC
  5
4C0
330
A
100
AcDbEntity
  8
CURVE
 62
     3
100
AcDbCircle
 10
-41.85892444364947
 20
188.1881665095449
 30
0.0
 40
73.90194392912461
100
AcDbArc
 50
32.17722803800726
 51
44.55054731287403
  0
SPLINE
  5
4C1
330
A
100
AcDbEntity
  8
CURVE
 62
     3
100
AcDbSpline
210
0.0
220
0.0
230
1.0
 70
     8
 71
     3
 72
     8
 73
     4
 74
     0
 42
0.0000000001
 43
0.0000000001
 40
15.0
 40
15.0
 40
15.0
 40
15.0
 40
16.0
 40
16.0
 40
16.0
 40
16.0
 10
10.80595218094
 20
240.03320568033
 30
0.0
 10
7.76820018094
 20
243.1189943469966
 30
0.0
 10
4.435181273987359
 20
245.9149478878481
 30
0.0
 10
0.6369941809398903
 20
247.96907168033
 30
0.0
  0
ARC
  5
4C2
330
A
100
AcDbEntity
  8
CURVE
 62
     3
100
AcDbCircle
 10
-15.27659287027869
 20
218.6098346886656
 30
0.0
 40
33.39471589292872
100
AcDbArc
 50
61.54097897418487
 51
68.9702026099821
  0
SPLINE
  5
4C3
330
A
100
AcDbEntity
  8
CURVE
 62
     3
100
AcDbSpline
210
0.0
220
0.0
230
1.0
 70
     8
 71
     3
 72
     8
 73
     4
 74
     0
 42
0.0000000001
 43
0.0000000001
 40
17.0
 40
17.0
 40
17.0
 40
17.0
 40
18.0
 40
18.0
 40
18.0
 40
18.0
 10
-3.292784819060099
 20
249.78025968033
 30
0.0
 10
-7.955218819060099
 20
251.5727830136633
 30
0.0
 10
-12.96131553447101
 20
252.2790023168639
 30
0.0
 10
-17.95970581906
 20
252.04485368033
 30
0.0
  0
LINE
  5
4C4
330
A
100
AcDbEntity
  8
CURVE
 62
     3
100
AcDbLine
 10
-17.95970581906
 20
252.04485368033
 30
0.0
 11
-18.16568381906
 21
252.03520468033
 31
0.0
  0
SPLINE
  5
4C5
330
A
100
AcDbEntity
  8
CURVE
 62
     3
100
AcDbSpline
210
0.0
220
0.0
230
1.0
 70
     8
 71
     3
 72
     8
 73
     4
 74
     0
 42
0.0000000001
 43
0.0000000001
 40
19.0
 40
19.0
 40
19.0
 40
19.0
 40
20.0
 40
20.0
 40
20.0
 40
20.0
 10
-18.16568381906
 20
252.03520468033
 30
0.0
 10
-24.28228215239333
 20
251.7317770136632
 30
0.0
 10
-30.78683981906
 20
250.1160990136633
 30
0.0
 10
-35.73866581906
 20
246.57405868033
 30
0.0
  0
LINE
  5
4C6
330
A
100
AcDbEntity
  8
CURVE
 62
     3
100
AcDbLine
 10
-35.73866581906
 20
246.57405868033
 30
0.0
 11
-36.35140881906
 21
246.11969368033
 31
0.0
  0
SPLINE
  5
4C7
330
A
100
AcDbEntity
  8
CURVE
 62
     3
100
AcDbSpline
210
0.0
220
0.0
230
1.0
 70
     8
 71
     3
 72
     8
 73
     4
 74
     0
 42
0.0000000001
 43
0.0000000001
 40
1.0
 40
1.0
 40
1.0
 40
1.0
 40
2.0
 40
2.0
 40
2.0
 40
2.0
 10
-36.35140881906
 20
246.11969368033
 30
0.0
 10
-39.52671381905997
 20
243.6787660136634
 30
0.0
 10
-41.86972077267908
 20
240.3451905516434
 30
0.0
 10
-43.79654181906
 20
236.80071068033
 30
0.0
  0
ARC
  5
4C8
330
A
100
AcDbEntity
  8
CURVE
 62
     3
100
AcDbCircle
 10
17.37788514922051
 20
203.954059666708
 30
0.0
 40
69.43495515738572
100
AcDbArc
 50
151.7671212906066
 51
166.5951209605823
  0
ARC
  5
4C9
330
A
100
AcDbEntity
  8
CURVE
 62
     3
100
AcDbCircle
 10
33.01619698960895
 20
200.2443809241777
 30
0.0
 40
85.50723824409272
100
AcDbArc
 50
166.6063973075346
 51
168.6733493696884
  0
SPLINE
  5
4CA
330
A
100
AcDbEntity
  8
CURVE
 62
     3
100
AcDbSpline
210
0.0
220
0.0
230
1.0
 70
     8
 71
     3
 72
     8
 73
     4
 74
     0
 42
0.0000000001
 43
0.0000000001
 40
4.0
 40
4.0
 40
4.0
 40
4.0
 40
5.0
 40
5.0
 40
5.0
 40
5.0
 10
-50.82565181906
 20
217.03819468033
 30
0.0
 10
-52.78418248572666
 20
207.2603780136633
 30
0.0
 10
-53.09946717863966
 20
197.0335565818662
 30
0.0
 10
-52.65122981905999
 20
186.88145468033
 30
0.0
  0
ARC
  5
4CB
330
A
100
AcDbEntity
  8
CURVE
 62
     3
100
AcDbCircle
 10
54.50010824858157
 20
191.5284514253223
 30
0.0
 40
107.2520574554818
100
AcDbArc
 50
182.4832780261075
 51
188.7029770279221
  0
ARC
  5
4CC
330
A
100
AcDbEntity
  8
CURVE
 62
     3
100
AcDbCircle
 10
67.10103803217615
 20
193.6127529641086
 30
0.0
 40
120.0233789964182
100
AcDbArc
 50
188.7763150968875
 51
199.5889679810145
  0
SPLINE
  5
4CD
330
A
100
AcDbEntity
  8
CURVE
 62
     3
100
AcDbSpline
210
0.0
220
0.0
230
1.0
 70
     8
 71
     3
 72
     8
 73
     4
 74
     0
 42
0.0000000001
 43
0.0000000001
 40
7.0
 40
7.0
 40
7.0
 40
7.0
 40
8.0
 40
8.0
 40
8.0
 40
8.0
 10
-45.97563081906
 20
153.37249368033
 30
0.0
 10
-43.43831615239333
 20
146.2425423469966
 30
0.0
 10
-40.27187390742457
 20
139.3353751951483
 30
0.0
 10
-37.58043681905999
 20
132.25611768033
 30
0.0
  0
ARC
  5
4CE
330
A
100
AcDbEntity
  8
CURVE
 62
     3
100
AcDbCircle
 10
-139.8826039597187
 20
92.92533896016868
 30
0.0
 40
109.6022059833175
100
AcDbArc
 50
14.56354999201597
 51
21.02960255588669
  0
ARC
  5
4CF
330
A
100
AcDbEntity
  8
CURVE
 62
     3
100
AcDbCircle
 10
-123.6924277047962
 20
97.09442112979377
 30
0.0
 40
92.88390678570964
100
AcDbArc
 50
8.241786325379276
 51
14.58572746711839
  0
SPLINE
  5
4D0
330
A
100
AcDbEntity
  8
CURVE
 62
     3
100
AcDbSpline
210
0.0
220
0.0
230
1.0
 70
     8
 71
     3
 72
     8
 73
     4
 74
     0
 42
0.0000000001
 43
0.0000000001
 40
10.0
 40
10.0
 40
10.0
 40
10.0
 40
11.0
 40
11.0
 40
11.0
 40
11.0
 10
-31.76783081906
 20
110.40939868033
 30
0.0
 10
-30.68862348572667
 20
102.9587140136633
 30
0.0
 10
-30.52599589885477
 20
95.39991272220531
 30
0.0
 10
-30.71610581905998
 20
87.87460268032999
 30
0.0
  0
ARC
  5
4D1
330
A
100
AcDbEntity
  8
CURVE
 62
     3
100
AcDbCircle
 10
-356.3247058404188
 20
96.37482418735363
 30
0.0
 40
325.7195329935521
100
AcDbArc
 50
357.2482591896316
 51
358.5045965448419
  0
SPLINE
  5
4D2
330
A
100
AcDbEntity
  8
CURVE
 62
     3
100
AcDbSpline
210
0.0
220
0.0
230
1.0
 70
     8
 71
     3
 72
     8
 73
     4
 74
     0
 42
0.0000000001
 43
0.0000000001
 40
12.0
 40
12.0
 40
12.0
 40
12.0
 40
13.0
 40
13.0
 40
13.0
 40
13.0
 10
-30.98075081906
 20
80.73752568032999
 30
0.0
 10
-31.52465381906
 20
69.42127734699666
 30
0.0
 10
-32.41242835326206
 20
58.12516136204322
 30
0.0
 10
-33.25876081906
 20
46.82674168033
 30
0.0
  0
SPLINE
  5
4D3
330
A
100
AcDbEntity
  8
CURVE
 62
     3
100
AcDbSpline
210
0.0
220
0.0
230
1.0
 70
     8
 71
     3
 72
     8
 73
     4
 74
     0
 42
0.0000000001
 43
0.0000000001
 40
13.0
 40
13.0
 40
13.0
 40
13.0
 40
14.0
 40
14.0
 40
14.0
 40
14.0
 10
-33.25876081906
 20
46.82674168033
 30
0.0
 10
-33.67466848572667
 20
41.27443268033
 30
0.0
 10
-33.73989094023769
 20
35.71501331031697
 30
0.0
 10
-33.01864081906
 20
30.23088068033
 30
0.0
  0
ARC
  5
4D4
330
A
100
AcDbEntity
  8
CURVE
 62
     3
100
AcDbCircle
 10
8.304454228169433
 20
35.40897395805406
 30
0.0
 40
41.64625834664105
100
AcDbArc
 50
187.1423624699621
 51
200.6815813036681
  0
SPLINE
  5
4D5
330
A
100
AcDbEntity
  8
CURVE
 62
     3
100
AcDbSpline
210
0.0
220
0.0
230
1.0
 70
     8
 71
     3
 72
     8
 73
     4
 74
     0
 42
0.0000000001
 43
0.0000000001
 40
15.0
 40
15.0
 40
15.0
 40
15.0
 40
16.0
 40
16.0
 40
16.0
 40
16.0
 10
-30.65801981906
 20
20.70059368033
 30
0.0
 10
-29.22157481906
 20
16.89545334699667
 30
0.0
 10
-27.14285728272456
 20
13.24010288213292
 30
0.0
 10
-24.26673281906
 20
10.34688868033
 30
0.0
  0
SPLINE
  5
4D6
330
A
100
AcDbEntity
  8
CURVE
 62
     3
100
AcDbSpline
210
0.0
220
0.0
230
1.0
 70
     8
 71
     3
 72
     8
 73
     4
 74
     0
 42
0.0000000001
 43
0.0000000001
 40
16.0
 40
16.0
 40
16.0
 40
16.0
 40
17.0
 40
17.0
 40
17.0
 40
17.0
 10
-24.26673281906
 20
10.34688868033
 30
0.0
 10
-18.82226415239333
 20
4.870069346996666
 30
0.0
 10
-11.3612568048169
 20
1.720790881798114
 30
0.0
 10
-3.501180819060099
 20
1.222513680330401
 30
0.0
  0
ARC
  5
4D7
330
A
100
AcDbEntity
  8
CURVE
 62
     3
100
AcDbCircle
 10
-1.315451145226449
 20
35.70131638302461
 30
0.0
 40
34.54801369135989
100
AcDbArc
 50
266.3726777090843
 51
272.0078857859034
  0
ENDSEC
  0
SECTION
  2
OBJECTS
  0
DICTIONARY
  5
19
330
0
100
AcDbDictionary
281
     1
  3
ACAD_COLOR
350
4DA
  3
ACAD_GROUP
350
1A
  3
ACAD_LAYOUT
350
1E
  3
ACAD_MATERIAL
350
4D9
  3
ACAD_MLINESTYLE
350
1B
  3
ACAD_PLOTSETTINGS
350
22
  3
ACAD_PLOTSTYLENAME
350
1F
  3
ACDBHEADERROUNDTRIPXREC
350
4F8
  3
AcDbVariableDictionary
350
4E1
  3
ASE_INDEX_DICTIONARY
350
4DE
  0
DICTIONARY
  5
4DA
102
{ACAD_REACTORS
330
19
102
}
330
19
100
AcDbDictionary
281
     1
  0
DICTIONARY
  5
1A
102
{ACAD_REACTORS
330
19
102
}
330
19
100
AcDbDictionary
281
     1
  0
DICTIONARY
  5
1E
102
{ACAD_REACTORS
330
19
102
}
330
19
100
AcDbDictionary
281
     1
  3
Layout1
350
21
  3
Model
350
20
  0
DICTIONARY
  5
4D9
102
{ACAD_REACTORS
330
19
102
}
330
19
100
AcDbDictionary
281
     1
  0
DICTIONARY
  5
1B
102
{ACAD_REACTORS
330
19
102
}
330
19
100
AcDbDictionary
281
     1
  3
Standard
350
1C
  0
DICTIONARY
  5
22
102
{ACAD_REACTORS
330
19
102
}
330
19
100
AcDbDictionary
281
     1
  0
ACDBDICTIONARYWDFLT
  5
1F
102
{ACAD_REACTORS
330
19
102
}
330
19
100
AcDbDictionary
281
     1
  3
Normal
350
1D
100
AcDbDictionaryWithDefault
340
1D
  0
DICTIONARY
  5
4F8
102
{ACAD_REACTORS
330
19
102
}
330
19
100
AcDbDictionary
281
     1
  3
COLORDICT
350
4FA
  3
MATERIALDICT
350
4F9
  0
DICTIONARY
  5
4E1
102
{ACAD_REACTORS
330
19
102
}
330
19
100
AcDbDictionary
281
     1
  3
DIMASSOC
350
4E2
  3
PROJECTNAME
350
4E3
  0
DICTIONARY
  5
4DE
102
{ACAD_REACTORS
330
19
102
}
330
19
100
AcDbDictionary
281
     1
  3
ASEBlockHierarchyIndexRecord
350
4E0
1001
DCO15
1040
1477373095.574
  0
LAYOUT
  5
21
102
{ACAD_XDICTIONARY
360
4FD
102
}
102
{ACAD_REACTORS
330
1E
102
}
330
1E
100
AcDbPlotSettings
  1

  2

  4

  6

 40
0.0
 41
0.0
 42
0.0
 43
0.0
 44
0.0
 45
0.0
 46
0.0
 47
0.0
 48
0.0
 49
0.0
140
0.0
141
0.0
142
1.0
143
1.0
 70
     0
 72
     0
 73
     0
 74
     0
  7

 75
     0
147
1.0
148
0.0
149
0.0
100
AcDbLayout
  1
Layout1
 70
     0
 71
     1
 10
0.0
 20
0.0
 11
12.0
 21
9.0
 12
0.0
 22
0.0
 32
0.0
 14
1.000000000000000E+20
 24
1.000000000000000E+20
 34
1.000000000000000E+20
 15
-1.000000000000000E+20
 25
-1.000000000000000E+20
 35
-1.000000000000000E+20
146
0.0
 13
0.0
 23
0.0
 33
0.0
 16
1.0
 26
0.0
 36
0.0
 17
0.0
 27
1.0
 37
0.0
 76
     0
330
B
  0
LAYOUT
  5
20
102
{ACAD_XDICTIONARY
360
4FB
102
}
102
{ACAD_REACTORS
330
1E
102
}
330
1E
100
AcDbPlotSettings
  1

  2

  4

  6

 40
0.0
 41
0.0
 42
0.0
 43
0.0
 44
0.0
 45
0.0
 46
0.0
 47
0.0
 48
0.0
 49
0.0
140
0.0
141
0.0
142
1.0
143
1.0
 70
  1024
 72
     0
 73
     0
 74
     0
  7

 75
     0
147
1.0
148
0.0
149
0.0
100
AcDbLayout
  1
Model
 70
     0
 71
     0
 10
0.0
 20
0.0
 11
0.0
 21
0.0
 12
0.0
 22
0.0
 32
0.0
 14
0.0
 24
0.0
 34
0.0
 15
0.0
 25
0.0
 35
0.0
146
0.0
 13
0.0
 23
0.0
 33
0.0
 16
0.0
 26
0.0
 36
0.0
 17
0.0
 27
0.0
 37
0.0
 76
     0
330
A
  0
MLINESTYLE
  5
1C
102
{ACAD_REACTORS
330
1B
102
}
330
1B
100
AcDbMlineStyle
  2
STANDARD
 70
     0
  3

 62
     0
 51
90.0
 52
90.0
 71
     2
 49
0.5
 62
   256
  6
BYLAYER
 49
-0.5
 62
   256
  6
BYLAYER
  0
ACDBPLACEHOLDER
  5
1D
102
{ACAD_REACTORS
330
1F
102
}
330
1F
  0
XRECORD
  5
4FA
102
{ACAD_REACTORS
330
4F8
102
}
330
4F8
100
AcDbXrecord
280
     1
340
4DA
  0
XRECORD
  5
4F9
102
{ACAD_REACTORS
330
4F8
102
}
330
4F8
100
AcDbXrecord
280
     1
340
4D9
  0
DICTIONARYVAR
  5
4E2
102
{ACAD_REACTORS
330
4E1
102
}
330
4E1
100
DictionaryVariables
280
     0
  1
1
  0
DICTIONARYVAR
  5
4E3
102
{ACAD_REACTORS
330
4E1
102
}
330
4E1
100
DictionaryVariables
280
     0
  1

  0
XRECORD
  5
4E0
102
{ACAD_REACTORS
330
4DE
102
}
330
4DE
100
AcDbXrecord
280
     1
  0
DICTIONARY
  5
4FD
330
21
100
AcDbDictionary
280
     1
281
     1
  3
ACAD_XREC_ROUNDTRIP
360
4FE
  0
DICTIONARY
  5
4FB
330
20
100
AcDbDictionary
280
     1
281
     1
  3
ACAD_XREC_ROUNDTRIP
360
4FC
  0
XRECORD
  5
4FE
102
{ACAD_REACTORS
330
4FD
102
}
330
4FD
100
AcDbXrecord
280
     1
102
SHADEPLOT
 70
     0
102
SHADEPLOTRESLEVEL
 70
     2
102
SHADEPLOTCUSTOMDPI
 70
   300
  0
XRECORD
  5
4FC
102
{ACAD_REACTORS
330
4FB
102
}
330
4FB
100
AcDbXrecord
280
     1
102
SHADEPLOT
 70
     0
102
SHADEPLOTRESLEVEL
 70
     2
102
SHADEPLOTCUSTOMDPI
 70
   300
  0
ENDSEC
  0
EOF
