  0
SECTION
  2
HEADER
  9
$ACADVER
  1
AC1015
  9
$ACADMAINTVER
 70
    13
  9
$DWGCODEPAGE
  3
ANSI_936
  9
$INSBASE
 10
0.0
 20
0.0
 30
0.0
  9
$EXTMIN
 10
-0.0920114151578244
 20
0.368119482289999
 30
0.0
  9
$EXTMAX
 10
12.98895113835376
 20
9.93622
 30
0.0
  9
$LIMMIN
 10
0.0
 20
0.0
  9
$LIMMAX
 10
15.0
 20
10.0
  9
$ORTHOMODE
 70
     0
  9
$REGENMODE
 70
     1
  9
$FILLMODE
 70
     1
  9
$QTEXTMODE
 70
     0
  9
$MIRRTEXT
 70
     1
  9
$LTSCALE
 40
1.0
  9
$ATTMODE
 70
     1
  9
$TEXTSIZE
 40
0.2
  9
$TRACEWID
 40
0.185375
  9
$TEXTSTYLE
  7
STANDARD
  9
$CLAYER
  8
0
  9
$CELTYPE
  6
ByLayer
  9
$CECOLOR
 62
   256
  9
$CELTSCALE
 40
1.0
  9
$DISPSILH
 70
     0
  9
$DIMSCALE
 40
1.0
  9
$DIMASZ
 40
0.18
  9
$DIMEXO
 40
0.0625
  9
$DIMDLI
 40
0.3799999999999999
  9
$DIMRND
 40
0.0
  9
$DIMDLE
 40
0.0
  9
$DIMEXE
 40
0.18
  9
$DIMTP
 40
0.0
  9
$DIMTM
 40
0.0
  9
$DIMTXT
 40
0.18
  9
$DIMCEN
 40
0.09
  9
$DIMTSZ
 40
0.0
  9
$DIMTOL
 70
     0
  9
$DIMLIM
 70
     0
  9
$DIMTIH
 70
     1
  9
$DIMTOH
 70
     1
  9
$DIMSE1
 70
     0
  9
$DIMSE2
 70
     0
  9
$DIMTAD
 70
     0
  9
$DIMZIN
 70
     0
  9
$DIMBLK
  1

  9
$DIMASO
 70
     0
  9
$DIMSHO
 70
     0
  9
$DIMPOST
  1

  9
$DIMAPOST
  1

  9
$DIMALT
 70
     0
  9
$DIMALTD
 70
     2
  9
$DIMALTF
 40
25.4
  9
$DIMLFAC
 40
1.0
  9
$DIMTOFL
 70
     0
  9
$DIMTVP
 40
0.0
  9
$DIMTIX
 70
     0
  9
$DIMSOXD
 70
     0
  9
$DIMSAH
 70
     0
  9
$DIMBLK1
  1

  9
$DIMBLK2
  1

  9
$DIMSTYLE
  2
STANDARD
  9
$DIMCLRD
 70
     0
  9
$DIMCLRE
 70
     0
  9
$DIMCLRT
 70
     0
  9
$DIMTFAC
 40
1.0
  9
$DIMGAP
 40
0.09
  9
$DIMJUST
 70
     0
  9
$DIMSD1
 70
     0
  9
$DIMSD2
 70
     0
  9
$DIMTOLJ
 70
     1
  9
$DIMTZIN
 70
     0
  9
$DIMALTZ
 70
     0
  9
$DIMALTTZ
 70
     0
  9
$DIMUPT
 70
     0
  9
$DIMDEC
 70
     4
  9
$DIMTDEC
 70
     4
  9
$DIMALTU
 70
     2
  9
$DIMALTTD
 70
     2
  9
$DIMTXSTY
  7
STANDARD
  9
$DIMAUNIT
 70
     0
  9
$DIMADEC
 70
     0
  9
$DIMALTRND
 40
0.0
  9
$DIMAZIN
 70
     0
  9
$DIMDSEP
 70
    46
  9
$DIMATFIT
 70
     3
  9
$DIMFRAC
 70
     0
  9
$DIMLDRBLK
  1

  9
$DIMLUNIT
 70
     2
  9
$DIMLWD
 70
    -2
  9
$DIMLWE
 70
    -2
  9
$DIMTMOVE
 70
     0
  9
$LUNITS
 70
     2
  9
$LUPREC
 70
     4
  9
$SKETCHINC
 40
0.1
  9
$FILLETRAD
 40
0.0
  9
$AUNITS
 70
     1
  9
$AUPREC
 70
     4
  9
$MENU
  1
acad
  9
$ELEVATION
 40
0.0
  9
$PELEVATION
 40
0.0
  9
$THICKNESS
 40
0.0
  9
$LIMCHECK
 70
     0
  9
$CHAMFERA
 40
0.0
  9
$CHAMFERB
 40
0.0
  9
$CHAMFERC
 40
0.0
  9
$CHAMFERD
 40
0.0
  9
$SKPOLY
 70
     0
  9
$TDCREATE
 40
2446473.519117013
  9
$TDUCREATE
 40
2446473.185783680
  9
$TDUPDATE
 40
2452557.377596492
  9
$TDUUPDATE
 40
2452557.044263159
  9
$TDINDWG
 40
0.0038903704
  9
$TDUSRTIMER
 40
0.0038897917
  9
$USRTIMER
 70
     1
  9
$ANGBASE
 50
0.0
  9
$ANGDIR
 70
     0
  9
$PDMODE
 70
     0
  9
$PDSIZE
 40
0.0
  9
$PLINEWID
 40
0.0
  9
$SPLFRAME
 70
     0
  9
$SPLINETYPE
 70
     6
  9
$SPLINESEGS
 70
     8
  9
$HANDSEED
  5
644
  9
$SURFTAB1
 70
     6
  9
$SURFTAB2
 70
     6
  9
$SURFTYPE
 70
     6
  9
$SURFU
 70
     6
  9
$SURFV
 70
     6
  9
$UCSBASE
  2

  9
$UCSNAME
  2

  9
$UCSORG
 10
0.0
 20
0.0
 30
0.0
  9
$UCSXDIR
 10
1.0
 20
0.0
 30
0.0
  9
$UCSYDIR
 10
0.0
 20
1.0
 30
0.0
  9
$UCSORTHOREF
  2

  9
$UCSORTHOVIEW
 70
     0
  9
$UCSORGTOP
 10
0.0
 20
0.0
 30
0.0
  9
$UCSORGBOTTOM
 10
0.0
 20
0.0
 30
0.0
  9
$UCSORGLEFT
 10
0.0
 20
0.0
 30
0.0
  9
$UCSORGRIGHT
 10
0.0
 20
0.0
 30
0.0
  9
$UCSORGFRONT
 10
0.0
 20
0.0
 30
0.0
  9
$UCSORGBACK
 10
0.0
 20
0.0
 30
0.0
  9
$PUCSBASE
  2

  9
$PUCSNAME
  2

  9
$PUCSORG
 10
0.0
 20
0.0
 30
0.0
  9
$PUCSXDIR
 10
1.0
 20
0.0
 30
0.0
  9
$PUCSYDIR
 10
0.0
 20
1.0
 30
0.0
  9
$PUCSORTHOREF
  2

  9
$PUCSORTHOVIEW
 70
     0
  9
$PUCSORGTOP
 10
0.0
 20
0.0
 30
0.0
  9
$PUCSORGBOTTOM
 10
0.0
 20
0.0
 30
0.0
  9
$PUCSORGLEFT
 10
0.0
 20
0.0
 30
0.0
  9
$PUCSORGRIGHT
 10
0.0
 20
0.0
 30
0.0
  9
$PUCSORGFRONT
 10
0.0
 20
0.0
 30
0.0
  9
$PUCSORGBACK
 10
0.0
 20
0.0
 30
0.0
  9
$USERI1
 70
     0
  9
$USERI2
 70
     0
  9
$USERI3
 70
     0
  9
$USERI4
 70
     0
  9
$USERI5
 70
     0
  9
$USERR1
 40
0.0
  9
$USERR2
 40
0.0
  9
$USERR3
 40
0.0
  9
$USERR4
 40
0.0
  9
$USERR5
 40
0.0
  9
$WORLDVIEW
 70
     1
  9
$SHADEDGE
 70
     3
  9
$SHADEDIF
 70
    70
  9
$TILEMODE
 70
     1
  9
$MAXACTVP
 70
    16
  9
$PINSBASE
 10
0.0
 20
0.0
 30
0.0
  9
$PLIMCHECK
 70
     0
  9
$PEXTMIN
 10
1.000000000000000E+20
 20
1.000000000000000E+20
 30
1.000000000000000E+20
  9
$PEXTMAX
 10
-1.000000000000000E+20
 20
-1.000000000000000E+20
 30
-1.000000000000000E+20
  9
$PLIMMIN
 10
0.0
 20
0.0
  9
$PLIMMAX
 10
12.0
 20
9.0
  9
$UNITMODE
 70
     0
  9
$VISRETAIN
 70
     0
  9
$PLINEGEN
 70
     1
  9
$PSLTSCALE
 70
     0
  9
$TREEDEPTH
 70
  3020
  9
$CMLSTYLE
  2
Standard
  9
$CMLJUST
 70
     0
  9
$CMLSCALE
 40
1.0
  9
$PROXYGRAPHICS
 70
     1
  9
$MEASUREMENT
 70
     0
  9
$CELWEIGHT
370
    -1
  9
$ENDCAPS
280
     0
  9
$JOINSTYLE
280
     0
  9
$LWDISPLAY
290
     0
  9
$INSUNITS
 70
     0
  9
$HYPERLINKBASE
  1

  9
$STYLESHEET
  1

  9
$XEDIT
290
     1
  9
$CEPSNTYPE
380
     0
  9
$PSTYLEMODE
290
     1
  9
$FINGERPRINTGUID
  2
{591064E6-658E-4B01-9408-49AFC6289EE7}
  9
$VERSIONGUID
  2
{68792F30-98A0-4F12-82FE-26A566609833}
  9
$EXTNAMES
290
     1
  9
$PSVPSCALE
 40
0.0
  9
$OLESTARTUP
290
     0
  0
ENDSEC
  0
SECTION
  2
CLASSES
  0
CLASS
  1
ACDBDICTIONARYWDFLT
  2
AcDbDictionaryWithDefault
  3
AutoCAD 2000
 90
        0
280
     0
281
     0
  0
CLASS
  1
ACDBPLACEHOLDER
  2
AcDbPlaceHolder
  3
AutoCAD 2000
 90
        0
280
     0
281
     0
  0
CLASS
  1
LAYOUT
  2
AcDbLayout
  3
AutoCAD 2000
 90
        0
280
     0
281
     0
  0
CLASS
  1
DICTIONARYVAR
  2
AcDbDictionaryVar
  3
AutoCAD 2000
 90
        0
280
     0
281
     0
  0
ENDSEC
  0
SECTION
  2
TABLES
  0
TABLE
  2
VPORT
  5
32B
330
0
100
AcDbSymbolTable
 70
     2
  0
VPORT
  5
643
330
32B
100
AcDbSymbolTableRecord
100
AcDbViewportTableRecord
  2
*Active
 70
     0
 10
0.0
 20
0.0
 11
1.0
 21
1.0
 12
6.915067250273748
 22
5.021773597169191
 13
0.0
 23
0.0
 14
0.5
 24
1.0
 15
0.25
 25
0.0
 16
0.0
 26
0.0
 36
1.0
 17
0.0
 27
0.0
 37
0.0
 40
12.64360430384276
 41
1.892494929006085
 42
50.0
 43
0.0
 44
0.0
 50
0.0
 51
0.0
 71
     0
 72
   100
 73
     1
 74
     1
 75
     0
 76
     0
 77
     0
 78
     0
281
     0
 65
     1
110
0.0
120
0.0
130
0.0
111
1.0
121
0.0
131
0.0
112
0.0
122
1.0
132
0.0
 79
     0
146
0.0
  0
ENDTAB
  0
TABLE
  2
LTYPE
  5
328
330
0
100
AcDbSymbolTable
 70
     1
  0
LTYPE
  5
336
330
328
100
AcDbSymbolTableRecord
100
AcDbLinetypeTableRecord
  2
ByBlock
 70
     0
  3

 72
    65
 73
     0
 40
0.0
  0
LTYPE
  5
337
330
328
100
AcDbSymbolTableRecord
100
AcDbLinetypeTableRecord
  2
ByLayer
 70
     0
  3

 72
    65
 73
     0
 40
0.0
  0
LTYPE
  5
338
330
328
100
AcDbSymbolTableRecord
100
AcDbLinetypeTableRecord
  2
CONTINUOUS
 70
     0
  3
Solid line
 72
    65
 73
     0
 40
0.0
  0
ENDTAB
  0
TABLE
  2
LAYER
  5
325
330
0
100
AcDbSymbolTable
 70
     8
  0
LAYER
  5
333
330
325
100
AcDbSymbolTableRecord
100
AcDbLayerTableRecord
  2
0
 70
     0
 62
     7
  6
CONTINUOUS
370
    -3
390
332
  0
LAYER
  5
346
330
325
100
AcDbSymbolTableRecord
100
AcDbLayerTableRecord
  2
CYAN
 70
     0
 62
     4
  6
CONTINUOUS
370
    -3
390
332
  0
LAYER
  5
347
330
325
100
AcDbSymbolTableRecord
100
AcDbLayerTableRecord
  2
WHITE
 70
     0
 62
     7
  6
CONTINUOUS
370
    -3
390
332
  0
LAYER
  5
348
330
325
100
AcDbSymbolTableRecord
100
AcDbLayerTableRecord
  2
GREEN
 70
     0
 62
     3
  6
CONTINUOUS
370
    -3
390
332
  0
LAYER
  5
349
330
325
100
AcDbSymbolTableRecord
100
AcDbLayerTableRecord
  2
BLUE
 70
     0
 62
     5
  6
CONTINUOUS
370
    -3
390
332
  0
LAYER
  5
34A
330
325
100
AcDbSymbolTableRecord
100
AcDbLayerTableRecord
  2
YELLOW
 70
     0
 62
     2
  6
CONTINUOUS
370
    -3
390
332
  0
LAYER
  5
34B
330
325
100
AcDbSymbolTableRecord
100
AcDbLayerTableRecord
  2
RED
 70
     0
 62
     1
  6
CONTINUOUS
370
    -3
390
332
  0
LAYER
  5
34C
330
325
100
AcDbSymbolTableRecord
100
AcDbLayerTableRecord
  2
MAGENTA
 70
     0
 62
     6
  6
CONTINUOUS
370
    -3
390
332
  0
ENDTAB
  0
TABLE
  2
STYLE
  5
326
330
0
100
AcDbSymbolTable
 70
     1
  0
STYLE
  5
334
330
326
100
AcDbSymbolTableRecord
100
AcDbTextStyleTableRecord
  2
STANDARD
 70
     0
 40
0.0
 41
1.0
 50
0.0
 71
     0
 42
0.2
  3
txt
  4

  0
ENDTAB
  0
TABLE
  2
VIEW
  5
329
330
0
100
AcDbSymbolTable
 70
     0
  0
ENDTAB
  0
TABLE
  2
UCS
  5
32A
330
0
100
AcDbSymbolTable
 70
     0
  0
ENDTAB
  0
TABLE
  2
APPID
  5
32C
330
0
100
AcDbSymbolTable
 70
     1
  0
APPID
  5
335
330
32C
100
AcDbSymbolTableRecord
100
AcDbRegAppTableRecord
  2
ACAD
 70
     0
  0
ENDTAB
  0
TABLE
  2
DIMSTYLE
  5
32D
330
0
100
AcDbSymbolTable
 70
     1
100
AcDbDimStyleTable
 71
     0
  0
DIMSTYLE
105
34D
330
32D
100
AcDbSymbolTableRecord
100
AcDbDimStyleTableRecord
  2
STANDARD
 70
     0
275
     1
279
     2
340
334
  0
ENDTAB
  0
TABLE
  2
BLOCK_RECORD
  5
324
330
0
100
AcDbSymbolTable
 70
     2
  0
BLOCK_RECORD
  5
341
330
324
100
AcDbSymbolTableRecord
100
AcDbBlockTableRecord
  2
*Model_Space
340
344
  0
BLOCK_RECORD
  5
33D
330
324
100
AcDbSymbolTableRecord
100
AcDbBlockTableRecord
  2
*Paper_Space
340
340
  0
BLOCK_RECORD
  5
34F
330
324
100
AcDbSymbolTableRecord
100
AcDbBlockTableRecord
  2
$MODEL_SPACE
340
0
  0
BLOCK_RECORD
  5
352
330
324
100
AcDbSymbolTableRecord
100
AcDbBlockTableRecord
  2
$PAPER_SPACE
340
0
  0
ENDTAB
  0
ENDSEC
  0
SECTION
  2
BLOCKS
  0
BLOCK
  5
342
330
341
100
AcDbEntity
  8
0
100
AcDbBlockBegin
  2
*Model_Space
 70
     0
 10
0.0
 20
0.0
 30
0.0
  3
*Model_Space
  1

  0
ENDBLK
  5
343
330
341
100
AcDbEntity
  8
0
100
AcDbBlockEnd
  0
BLOCK
  5
33E
330
33D
100
AcDbEntity
 67
     1
  8
0
100
AcDbBlockBegin
  2
*Paper_Space
 70
     0
 10
0.0
 20
0.0
 30
0.0
  3
*Paper_Space
  1

  0
ENDBLK
  5
33F
330
33D
100
AcDbEntity
 67
     1
  8
0
100
AcDbBlockEnd
  0
BLOCK
  5
350
330
34F
100
AcDbEntity
  8
0
100
AcDbBlockBegin
  2
$MODEL_SPACE
 70
     0
 10
0.0
 20
0.0
 30
0.0
  3
$MODEL_SPACE
  1

  0
ENDBLK
  5
351
330
34F
100
AcDbEntity
  8
0
100
AcDbBlockEnd
  0
BLOCK
  5
353
330
352
100
AcDbEntity
  8
0
100
AcDbBlockBegin
  2
$PAPER_SPACE
 70
     0
 10
0.0
 20
0.0
 30
0.0
  3
$PAPER_SPACE
  1

  0
ENDBLK
  5
354
330
352
100
AcDbEntity
  8
0
100
AcDbBlockEnd
  0
ENDSEC
  0
SECTION
  2
ENTITIES
  0
LINE
  5
355
330
341
100
AcDbEntity
  8
YELLOW
100
AcDbLine
 10
4.944203138353764
 20
6.103972999999999
 30
0.0
 11
4.807672138353765
 21
5.987472999999999
 31
0.0
  0
LINE
  5
356
330
341
100
AcDbEntity
  8
CYAN
100
AcDbLine
 10
8.654011138353766
 20
9.930588999999999
 30
0.0
 11
8.651896138353762
 21
9.685041
 31
0.0
  0
LINE
  5
357
330
341
100
AcDbEntity
  8
GREEN
100
AcDbLine
 10
8.192434138353762
 20
7.804205999999999
 30
0.0
 11
8.351587138353762
 21
9.53907
 31
0.0
  0
LINE
  5
358
330
341
100
AcDbEntity
  8
CYAN
100
AcDbLine
 10
9.354378138353762
 20
7.676872999999998
 30
0.0
 11
8.962962138353763
 21
7.399414999999998
 31
0.0
  0
ARC
  5
359
330
341
100
AcDbEntity
  8
RED
100
AcDbCircle
 10
1.238209138353764
 20
1.870281
 30
0.0
 40
0.9186609999999999
100
AcDbArc
 50
239.1976629999998
 51
290.766542
  0
ARC
  5
35A
330
341
100
AcDbEntity
  8
YELLOW
100
AcDbCircle
 10
1.373384138353765
 20
1.798186999999999
 30
0.0
 40
0.986378
100
AcDbArc
 50
234.1976649999998
 51
296.4661259999999
  0
ARC
  5
35B
330
341
100
AcDbEntity
  8
YELLOW
100
AcDbCircle
 10
0.1137041383537642
 20
-0.086732
 30
0.0
 40
1.283366999999999
100
AcDbArc
 50
58.07920300000001
 51
93.06313199999999
  0
LINE
  5
35C
330
341
100
AcDbEntity
  8
CYAN
100
AcDbLine
 10
6.385493138353765
 20
5.693817
 30
0.0
 11
6.563450138353764
 21
5.571450999999999
 31
0.0
  0
ARC
  5
35D
330
341
100
AcDbEntity
  8
BLUE
100
AcDbCircle
 10
3.737005138353763
 20
3.334226
 30
0.0
 40
0.128019
100
AcDbArc
 50
207.3126119999999
 51
284.2385489999999
  0
ARC
  5
35E
330
341
100
AcDbEntity
  8
BLUE
100
AcDbCircle
 10
3.089545138353764
 20
2.778433
 30
0.0
 40
0.435907
100
AcDbArc
 50
8.256049999999973
 51
93.17164899999999
  0
ARC
  5
35F
330
341
100
AcDbEntity
  8
BLUE
100
AcDbCircle
 10
3.241626138353765
 20
3.100570999999999
 30
0.0
 40
0.4010030000000002
100
AcDbArc
 50
38.60433600000001
 51
97.81070899999999
  0
ARC
  5
360
330
341
100
AcDbEntity
  8
BLUE
100
AcDbCircle
 10
3.266170138353763
 20
3.064625999999999
 30
0.0
 40
0.360636
100
AcDbArc
 50
37.84443599999999
 51
105.9749229999998
  0
LINE
  5
361
330
341
100
AcDbEntity
  8
BLUE
100
AcDbLine
 10
3.621608138353765
 20
3.277251
 30
0.0
 11
3.554999138353764
 21
3.350772
 31
0.0
  0
ARC
  5
362
330
341
100
AcDbEntity
  8
BLUE
100
AcDbCircle
 10
4.552315138353764
 20
4.6368
 30
0.0
 40
0.9384689999999999
100
AcDbArc
 50
63.83288200000002
 51
95.65113399999999
  0
LINE
  5
363
330
341
100
AcDbEntity
  8
YELLOW
100
AcDbLine
 10
4.661261138353764
 20
5.701815999999999
 30
0.0
 11
4.478636138353764
 21
6.398649999999999
 31
0.0
  0
LINE
  5
364
330
341
100
AcDbEntity
  8
YELLOW
100
AcDbLine
 10
4.452157138353764
 20
6.418620999999999
 30
0.0
 11
4.517294138353762
 21
6.471401
 31
0.0
  0
LINE
  5
365
330
341
100
AcDbEntity
  8
YELLOW
100
AcDbLine
 10
4.425739138353764
 20
6.379043
 30
0.0
 11
4.452157138353764
 21
6.418620999999999
 31
0.0
  0
LINE
  5
366
330
341
100
AcDbEntity
  8
YELLOW
100
AcDbLine
 10
4.423097138353766
 20
6.342291
 30
0.0
 11
4.425739138353764
 21
6.379043
 31
0.0
  0
LINE
  5
367
330
341
100
AcDbEntity
  8
YELLOW
100
AcDbLine
 10
4.600099138353764
 20
5.663807
 30
0.0
 11
4.423097138353766
 21
6.342291
 31
0.0
  0
LINE
  5
368
330
341
100
AcDbEntity
  8
YELLOW
100
AcDbLine
 10
4.367619138353764
 20
6.376216
 30
0.0
 11
4.498631138353764
 21
6.481385999999998
 31
0.0
  0
LINE
  5
369
330
341
100
AcDbEntity
  8
YELLOW
100
AcDbLine
 10
4.338559138353764
 20
6.328155999999999
 30
0.0
 11
4.367619138353764
 21
6.376216
 31
0.0
  0
LINE
  5
36A
330
341
100
AcDbEntity
  8
YELLOW
100
AcDbLine
 10
4.327992138353764
 20
6.257481
 30
0.0
 11
4.338559138353764
 21
6.328155999999999
 31
0.0
  0
LINE
  5
36B
330
341
100
AcDbEntity
  8
YELLOW
100
AcDbLine
 10
4.499710138353764
 20
5.598784999999999
 30
0.0
 11
4.327992138353764
 21
6.257481
 31
0.0
  0
LINE
  5
36C
330
341
100
AcDbEntity
  8
YELLOW
100
AcDbLine
 10
4.351768138353764
 20
6.396004999999999
 30
0.0
 11
4.474823138353763
 21
6.495487999999999
 31
0.0
  0
LINE
  5
36D
330
341
100
AcDbEntity
  8
YELLOW
100
AcDbLine
 10
4.277797138353764
 20
6.314021
 30
0.0
 11
4.351768138353764
 21
6.396004999999999
 31
0.0
  0
LINE
  5
36E
330
341
100
AcDbEntity
  8
YELLOW
100
AcDbLine
 10
4.259305138353765
 20
6.234865
 30
0.0
 11
4.277797138353764
 21
6.314021
 31
0.0
  0
LINE
  5
36F
330
341
100
AcDbEntity
  8
YELLOW
100
AcDbLine
 10
4.428381138353764
 20
5.553552999999999
 30
0.0
 11
4.259305138353765
 21
6.234865
 31
0.0
  0
LINE
  5
370
330
341
100
AcDbEntity
  8
YELLOW
100
AcDbLine
 10
4.349126138353764
 20
6.427101999999998
 30
0.0
 11
4.474823138353763
 21
6.495487999999999
 31
0.0
  0
LINE
  5
371
330
341
100
AcDbEntity
  8
YELLOW
100
AcDbLine
 10
4.267230138353764
 20
6.356427
 30
0.0
 11
4.349126138353764
 21
6.427101999999998
 31
0.0
  0
LINE
  5
372
330
341
100
AcDbEntity
  8
YELLOW
100
AcDbLine
 10
4.195901138353764
 20
6.237692
 30
0.0
 11
4.267230138353764
 21
6.356427
 31
0.0
  0
LINE
  5
373
330
341
100
AcDbEntity
  8
YELLOW
100
AcDbLine
 10
4.359694138353765
 20
5.511147
 30
0.0
 11
4.195901138353764
 21
6.237692
 31
0.0
  0
ARC
  5
374
330
341
100
AcDbEntity
  8
CYAN
100
AcDbCircle
 10
6.973082138353763
 20
7.281344999999998
 30
0.0
 40
0.349199
100
AcDbArc
 50
63.726408
 51
119.710642
  0
ARC
  5
375
330
341
100
AcDbEntity
  8
CYAN
100
AcDbCircle
 10
9.189245138353763
 20
4.782975
 30
0.0
 40
3.6867
100
AcDbArc
 50
123.8854639999999
 51
138.466518
  0
ARC
  5
376
330
341
100
AcDbEntity
  8
CYAN
100
AcDbCircle
 10
6.773181138353765
 20
6.852081
 30
0.0
 40
0.511028
100
AcDbArc
 50
132.7284979999998
 51
192.0054529999999
  0
ARC
  5
377
330
341
100
AcDbEntity
  8
BLUE
100
AcDbCircle
 10
2.225121138353765
 20
1.842179999999999
 30
0.0
 40
2.083358
100
AcDbArc
 50
46.299273
 51
102.0326359999999
  0
LINE
  5
378
330
341
100
AcDbEntity
  8
CYAN
100
AcDbLine
 10
6.317828138353764
 20
6.236901999999998
 30
0.0
 11
6.257539138353764
 21
6.239088999999998
 31
0.0
  0
LINE
  5
379
330
341
100
AcDbEntity
  8
RED
100
AcDbLine
 10
7.186503138353764
 20
5.926771999999998
 30
0.0
 11
7.126381138353765
 21
5.884337
 31
0.0
  0
LINE
  5
37A
330
341
100
AcDbEntity
  8
RED
100
AcDbLine
 10
7.479441138353764
 20
6.182752999999999
 30
0.0
 11
7.414202138353764
 21
6.136211
 31
0.0
  0
LINE
  5
37B
330
341
100
AcDbEntity
  8
RED
100
AcDbLine
 10
7.505025138353762
 20
6.164957
 30
0.0
 11
7.479441138353764
 21
6.182752999999999
 31
0.0
  0
LINE
  5
37C
330
341
100
AcDbEntity
  8
RED
100
AcDbLine
 10
7.446822138353763
 20
6.128242
 30
0.0
 11
7.505025138353762
 21
6.164957
 31
0.0
  0
LINE
  5
37D
330
341
100
AcDbEntity
  8
RED
100
AcDbLine
 10
7.485837138353763
 20
6.101988999999998
 30
0.0
 11
7.446822138353763
 21
6.128242
 31
0.0
  0
LINE
  5
37E
330
341
100
AcDbEntity
  8
RED
100
AcDbLine
 10
7.538285138353765
 20
6.137579999999999
 30
0.0
 11
7.485837138353763
 21
6.101988999999998
 31
0.0
  0
LINE
  5
37F
330
341
100
AcDbEntity
  8
RED
100
AcDbLine
 10
7.561402138353765
 20
6.120810999999998
 30
0.0
 11
7.538285138353765
 21
6.137579999999999
 31
0.0
  0
LINE
  5
380
330
341
100
AcDbEntity
  8
RED
100
AcDbLine
 10
7.498629138353765
 20
6.077348999999999
 30
0.0
 11
7.561402138353765
 21
6.120810999999998
 31
0.0
  0
ARC
  5
381
330
341
100
AcDbEntity
  8
RED
100
AcDbCircle
 10
7.091629138353765
 20
5.850073
 30
0.0
 40
0.047053
100
AcDbArc
 50
330.4167489999999
 51
114.6362899999999
  0
ARC
  5
382
330
341
100
AcDbEntity
  8
RED
100
AcDbCircle
 10
7.244411138353764
 20
5.974696999999999
 30
0.0
 40
0.061586
100
AcDbArc
 50
349.744007
 51
114.0103799999999
  0
LINE
  5
383
330
341
100
AcDbEntity
  8
RED
100
AcDbLine
 10
5.85897371646842
 20
5.043457239907776
 30
0.0
 11
5.943550138353764
 21
5.119186
 31
0.0
  0
ARC
  5
384
330
341
100
AcDbEntity
  8
RED
100
AcDbCircle
 10
5.712151138353764
 20
4.916126999999999
 30
0.0
 40
0.071059
100
AcDbArc
 50
354.2514489999999
 51
111.4749249999999
  0
ARC
  5
385
330
341
100
AcDbEntity
  8
RED
100
AcDbCircle
 10
5.829513138353764
 20
4.989285999999998
 30
0.0
 40
0.061664
100
AcDbArc
 50
11.29113899999998
 51
113.2501709999999
  0
ARC
  5
386
330
341
100
AcDbEntity
  8
RED
100
AcDbCircle
 10
5.900400138353766
 20
5.032581999999998
 30
0.0
 40
0.096994
100
AcDbArc
 50
355.660904
 51
122.4740909999999
  0
LINE
  5
387
330
341
100
AcDbEntity
  8
BLUE
100
AcDbLine
 10
4.908711138353766
 20
4.045208999999998
 30
0.0
 11
4.830839138353764
 21
4.185992999999998
 31
0.0
  0
LINE
  5
388
330
341
100
AcDbEntity
  8
BLUE
100
AcDbLine
 10
4.982202138353764
 20
3.878671999999999
 30
0.0
 11
4.908711138353766
 21
4.045208999999998
 31
0.0
  0
ARC
  5
389
330
341
100
AcDbEntity
  8
BLUE
100
AcDbCircle
 10
3.528458138353765
 20
3.161458999999998
 30
0.0
 40
1.657372
100
AcDbArc
 50
38.13731400000001
 51
100.1780099999999
  0
LINE
  5
38A
330
341
100
AcDbEntity
  8
CYAN
100
AcDbLine
 10
6.778803138353763
 20
6.613755
 30
0.0
 11
6.647090138353764
 21
6.618301999999999
 31
0.0
  0
LINE
  5
38B
330
341
100
AcDbEntity
  8
CYAN
100
AcDbLine
 10
6.761807138353765
 20
6.691048
 30
0.0
 11
6.778803138353763
 21
6.613755
 31
0.0
  0
ARC
  5
38C
330
341
100
AcDbEntity
  8
CYAN
100
AcDbCircle
 10
6.951141138353764
 20
5.603930999999999
 30
0.0
 40
1.16093
100
AcDbArc
 50
26.54315899999999
 51
64.312557
  0
LINE
  5
38D
330
341
100
AcDbEntity
  8
CYAN
100
AcDbLine
 10
8.914347138353765
 20
7.730229999999998
 30
0.0
 11
8.521765138353762
 21
7.478644999999998
 31
0.0
  0
ARC
  5
38E
330
341
100
AcDbEntity
  8
BLUE
100
AcDbCircle
 10
3.242843138353764
 20
3.070482999999999
 30
0.0
 40
0.308606
100
AcDbArc
 50
26.76093999999996
 51
109.676167
  0
ARC
  5
38F
330
341
100
AcDbEntity
  8
BLUE
100
AcDbCircle
 10
3.700695138353764
 20
2.890737
 30
0.0
 40
0.184784
100
AcDbArc
 50
196.144388
 51
298.8232089999998
  0
ARC
  5
390
330
341
100
AcDbEntity
  8
GREEN
100
AcDbCircle
 10
6.656262138353763
 20
5.44784
 30
0.0
 40
1.351703
100
AcDbArc
 50
20.06398699999997
 51
109.8711219999999
  0
ARC
  5
391
330
341
100
AcDbEntity
  8
WHITE
100
AcDbCircle
 10
3.433512138353763
 20
2.118945999999998
 30
0.0
 40
0.072819
100
AcDbArc
 50
168.050114
 51
283.6247579999998
  0
ARC
  5
392
330
341
100
AcDbEntity
  8
BLUE
100
AcDbCircle
 10
3.829283138353764
 20
3.084611
 30
0.0
 40
0.193836
100
AcDbArc
 50
208.123984
 51
271.832535
  0
ARC
  5
393
330
341
100
AcDbEntity
  8
BLUE
100
AcDbCircle
 10
3.902716138353763
 20
3.492394
 30
0.0
 40
0.407321
100
AcDbArc
 50
210.579889
 51
256.941145
  0
ARC
  5
394
330
341
100
AcDbEntity
  8
WHITE
100
AcDbCircle
 10
3.350844138353763
 20
2.639129999999998
 30
0.0
 40
0.11762
100
AcDbArc
 50
359.366372
 51
105.7563339999999
  0
ARC
  5
395
330
341
100
AcDbEntity
  8
BLUE
100
AcDbCircle
 10
8.623126138353763
 20
7.36005
 30
0.0
 40
0.417765
100
AcDbArc
 50
58.305325
 51
100.1766939999998
  0
ARC
  5
396
330
341
100
AcDbEntity
  8
BLUE
100
AcDbCircle
 10
8.725016138353765
 20
7.448713999999999
 30
0.0
 40
0.420319
100
AcDbArc
 50
43.675834
 51
107.1042139999999
  0
ARC
  5
397
330
341
100
AcDbEntity
  8
BLUE
100
AcDbCircle
 10
8.849644138353765
 20
7.466491999999999
 30
0.0
 40
0.513806
100
AcDbArc
 50
33.977832
 51
112.4446849999998
  0
ARC
  5
398
330
341
100
AcDbEntity
  8
BLUE
100
AcDbCircle
 10
8.952630138353763
 20
7.501326999999999
 30
0.0
 40
0.550195
100
AcDbArc
 50
38.59917599999999
 51
120.256056
  0
ARC
  5
399
330
341
100
AcDbEntity
  8
BLUE
100
AcDbCircle
 10
8.538349138353762
 20
7.543825999999998
 30
0.0
 40
0.163298
100
AcDbArc
 50
43.796083
 51
101.6208669999999
  0
ARC
  5
39A
330
341
100
AcDbEntity
  8
CYAN
100
AcDbCircle
 10
8.494305138353766
 20
7.541342999999998
 30
0.0
 40
0.103231
100
AcDbArc
 50
39.47947899999999
 51
131.4561469999999
  0
LINE
  5
39B
330
341
100
AcDbEntity
  8
CYAN
100
AcDbLine
 10
8.521765138353762
 20
7.478644999999998
 30
0.0
 11
8.472561138353762
 21
7.539511
 31
0.0
  0
LINE
  5
39C
330
341
100
AcDbEntity
  8
CYAN
100
AcDbLine
 10
9.410035138353762
 20
7.659777
 30
0.0
 11
9.354378138353762
 21
7.676872999999998
 31
0.0
  0
ARC
  5
39D
330
341
100
AcDbEntity
  8
CYAN
100
AcDbCircle
 10
9.033065138353766
 20
6.882113
 30
0.0
 40
0.857009
100
AcDbArc
 50
68.11788400000001
 51
122.6072609999998
  0
ARC
  5
39E
330
341
100
AcDbEntity
  8
CYAN
100
AcDbCircle
 10
9.478622138353763
 20
7.679161999999999
 30
0.0
 40
0.189891
100
AcDbArc
 50
30.02386299999996
 51
119.4135549999999
  0
ARC
  5
39F
330
341
100
AcDbEntity
  8
WHITE
100
AcDbCircle
 10
0.8039211383537645
 20
2.209543999999998
 30
0.0
 40
0.9838389999999998
100
AcDbArc
 50
254.9243879999999
 51
287.9946209999999
  0
ARC
  5
3A0
330
341
100
AcDbEntity
  8
WHITE
100
AcDbCircle
 10
0.6005701383537652
 20
1.857388999999999
 30
0.0
 40
0.600128
100
AcDbArc
 50
219.7654499999999
 51
264.9775809999998
  0
LINE
  5
3A1
330
341
100
AcDbEntity
  8
RED
100
AcDbLine
 10
0.0859531383537657
 20
1.240547999999999
 30
0.0
 11
0.0637381383537648
 21
1.240547999999999
 31
0.0
  0
LINE
  5
3A2
330
341
100
AcDbEntity
  8
RED
100
AcDbLine
 10
0.125941138353765
 20
1.240547999999999
 30
0.0
 11
0.0859531383537657
 21
1.240547999999999
 31
0.0
  0
LINE
  5
3A3
330
341
100
AcDbEntity
  8
RED
100
AcDbLine
 10
0.1703711383537652
 20
1.235792999999999
 30
0.0
 11
0.125941138353765
 21
1.240547999999999
 31
0.0
  0
LINE
  5
3A4
330
341
100
AcDbEntity
  8
RED
100
AcDbLine
 10
0.2592331383537658
 20
1.22153
 30
0.0
 11
0.1703711383537652
 21
1.235792999999999
 31
0.0
  0
LINE
  5
3A5
330
341
100
AcDbEntity
  8
RED
100
AcDbLine
 10
0.3880811383537654
 20
1.193003
 30
0.0
 11
0.2592331383537658
 21
1.22153
 31
0.0
  0
LINE
  5
3A6
330
341
100
AcDbEntity
  8
RED
100
AcDbLine
 10
0.5309801383537655
 20
1.164217999999999
 30
0.0
 11
0.3880811383537654
 21
1.193003
 31
0.0
  0
LINE
  5
3A7
330
341
100
AcDbEntity
  8
RED
100
AcDbLine
 10
0.6412151383537648
 20
1.133634999999999
 30
0.0
 11
0.5309801383537655
 21
1.164217999999999
 31
0.0
  0
LINE
  5
3A8
330
341
100
AcDbEntity
  8
RED
100
AcDbLine
 10
0.7681701383537654
 20
1.083984999999999
 30
0.0
 11
0.6412151383537648
 21
1.133634999999999
 31
0.0
  0
LINE
  5
3A9
330
341
100
AcDbEntity
  8
CYAN
100
AcDbLine
 10
4.944203138353764
 20
6.103972999999999
 30
0.0
 11
4.972836138353764
 21
5.983259999999999
 31
0.0
  0
LINE
  5
3AA
330
341
100
AcDbEntity
  8
CYAN
100
AcDbLine
 10
5.125821138353764
 20
6.491094999999999
 30
0.0
 11
5.178897138353764
 21
6.400888
 31
0.0
  0
LINE
  5
3AB
330
341
100
AcDbEntity
  8
CYAN
100
AcDbLine
 10
5.350615138353765
 20
6.457684999999998
 30
0.0
 11
5.406814138353764
 21
6.330726
 31
0.0
  0
ARC
  5
3AC
330
341
100
AcDbEntity
  8
GREEN
100
AcDbCircle
 10
5.557013138353764
 20
5.765068
 30
0.0
 40
0.438541
100
AcDbArc
 50
54.836964
 51
117.614901
  0
LINE
  5
3AD
330
341
100
AcDbEntity
  8
YELLOW
100
AcDbLine
 10
4.647264138353764
 20
6.581239
 30
0.0
 11
4.628602138353763
 21
6.592650999999999
 31
0.0
  0
LINE
  5
3AE
330
341
100
AcDbEntity
  8
CYAN
100
AcDbLine
 10
8.083578138353765
 20
9.620227999999999
 30
0.0
 11
8.076340138353764
 21
9.629521999999999
 31
0.0
  0
LINE
  5
3AF
330
341
100
AcDbEntity
  8
CYAN
100
AcDbLine
 10
8.627840138353763
 20
9.93622
 30
0.0
 11
8.034362138353765
 21
9.607836
 31
0.0
  0
LINE
  5
3B0
330
341
100
AcDbEntity
  8
CYAN
100
AcDbLine
 10
8.655068138353765
 20
9.930588999999999
 30
0.0
 11
8.627840138353763
 21
9.93622
 31
0.0
  0
LINE
  5
3B1
330
341
100
AcDbEntity
  8
CYAN
100
AcDbLine
 10
8.343908138353762
 20
9.779080999999999
 30
0.0
 11
8.362143138353765
 21
9.771065
 31
0.0
  0
ARC
  5
3B2
330
341
100
AcDbEntity
  8
CYAN
100
AcDbCircle
 10
6.907645138353764
 20
7.024879
 30
0.0
 40
0.500624
100
AcDbArc
 50
68.97949799999998
 51
123.1656019999998
  0
ARC
  5
3B3
330
341
100
AcDbEntity
  8
CYAN
100
AcDbCircle
 10
6.814342138353764
 20
7.039847999999999
 30
0.0
 40
0.409775
100
AcDbArc
 50
55.77939999999998
 51
137.0424379999998
  0
ARC
  5
3B4
330
341
100
AcDbEntity
  8
CYAN
100
AcDbCircle
 10
6.712741138353765
 20
6.765263
 30
0.0
 40
0.54032
100
AcDbArc
 50
59.56400399999999
 51
121.6038119999999
  0
ARC
  5
3B5
330
341
100
AcDbEntity
  8
CYAN
100
AcDbCircle
 10
6.523055138353764
 20
6.537793999999998
 30
0.0
 40
0.4696680000000001
100
AcDbArc
 50
61.41158599999999
 51
123.302096
  0
ARC
  5
3B6
330
341
100
AcDbEntity
  8
CYAN
100
AcDbCircle
 10
7.117817138353764
 20
7.612842999999998
 30
0.0
 40
0.174588
100
AcDbArc
 50
64.38727400000002
 51
128.0044059999999
  0
ARC
  5
3B7
330
341
100
AcDbEntity
  8
CYAN
100
AcDbCircle
 10
7.056127138353764
 20
7.358996
 30
0.0
 40
0.34274
100
AcDbArc
 50
72.10035600000001
 51
131.873956
  0
ARC
  5
3B8
330
341
100
AcDbEntity
  8
CYAN
100
AcDbCircle
 10
6.609787138353764
 20
6.614704999999999
 30
0.0
 40
0.5426979999999999
100
AcDbArc
 50
54.77464899999998
 51
124.172806
  0
ARC
  5
3B9
330
341
100
AcDbEntity
  8
GREEN
100
AcDbCircle
 10
8.743542138353765
 20
7.530075
 30
0.0
 40
0.114905
100
AcDbArc
 50
327.62498
 51
238.2052299999999
  0
ARC
  5
3BA
330
341
100
AcDbEntity
  8
MAGENTA
100
AcDbCircle
 10
8.383822138353762
 20
7.006216
 30
0.0
 40
0.199898
100
AcDbArc
 50
142.763823
 51
293.7210729999998
  0
ARC
  5
3BB
330
341
100
AcDbEntity
  8
MAGENTA
100
AcDbCircle
 10
8.801542138353765
 20
7.269725999999998
 30
0.0
 40
0.20135
100
AcDbArc
 50
333.042167
 51
128.4184349999998
  0
CIRCLE
  5
3BC
330
341
100
AcDbEntity
  8
GREEN
100
AcDbCircle
 10
8.997207138353765
 20
7.580421
 30
0.0
 40
0.124676
  0
ARC
  5
3BD
330
341
100
AcDbEntity
  8
GREEN
100
AcDbCircle
 10
9.487229138353763
 20
7.200769999999999
 30
0.0
 40
0.200166
100
AcDbArc
 50
31.132252
 51
330.9007849999999
  0
ARC
  5
3BE
330
341
100
AcDbEntity
  8
MAGENTA
100
AcDbCircle
 10
8.623371138353762
 20
6.640106
 30
0.0
 40
0.181814
100
AcDbArc
 50
125.891312
 51
313.666441
  0
ARC
  5
3BF
330
341
100
AcDbEntity
  8
CYAN
100
AcDbCircle
 10
7.923308138353764
 20
6.39982
 30
0.0
 40
0.670519
100
AcDbArc
 50
354.0412639999999
 51
101.218647
  0
ARC
  5
3C0
330
341
100
AcDbEntity
  8
YELLOW
100
AcDbCircle
 10
8.202490138353763
 20
6.466747999999999
 30
0.0
 40
0.22795
100
AcDbArc
 50
240.5716159999998
 51
166.4936459999998
  0
ARC
  5
3C1
330
341
100
AcDbEntity
  8
RED
100
AcDbCircle
 10
7.880271138353763
 20
6.777384999999999
 30
0.0
 40
0.219803
100
AcDbArc
 50
286.3130869999998
 51
199.016693
  0
ARC
  5
3C2
330
341
100
AcDbEntity
  8
CYAN
100
AcDbCircle
 10
7.569833138353764
 20
6.186455999999998
 30
0.0
 40
0.528879
100
AcDbArc
 50
355.877276
 51
102.236256
  0
ARC
  5
3C3
330
341
100
AcDbEntity
  8
BLUE
100
AcDbCircle
 10
9.575341138353763
 20
6.856105
 30
0.0
 40
0.14248
100
AcDbArc
 50
338.09274
 51
44.87395499999998
  0
ARC
  5
3C4
330
341
100
AcDbEntity
  8
BLUE
100
AcDbCircle
 10
9.655083138353763
 20
6.876149999999999
 30
0.0
 40
0.182683
100
AcDbArc
 50
315.12714
 51
66.35651599999999
  0
ARC
  5
3C5
330
341
100
AcDbEntity
  8
BLUE
100
AcDbCircle
 10
9.639562138353763
 20
6.894266
 30
0.0
 40
0.270014
100
AcDbArc
 50
336.1589299999999
 51
59.08117199999999
  0
ARC
  5
3C6
330
341
100
AcDbEntity
  8
BLUE
100
AcDbCircle
 10
9.680210138353762
 20
6.957986999999999
 30
0.0
 40
0.326156
100
AcDbArc
 50
335.978951
 51
59.670855
  0
ARC
  5
3C7
330
341
100
AcDbEntity
  8
BLUE
100
AcDbCircle
 10
9.783248138353766
 20
7.018203999999998
 30
0.0
 40
0.306137
100
AcDbArc
 50
325.097077
 51
71.51873700000002
  0
ARC
  5
3C8
330
341
100
AcDbEntity
  8
BLUE
100
AcDbCircle
 10
9.769351138353766
 20
7.047514999999998
 30
0.0
 40
0.402095
100
AcDbArc
 50
335.868984
 51
71.499123
  0
ARC
  5
3C9
330
341
100
AcDbEntity
  8
YELLOW
100
AcDbCircle
 10
-0.0363018616462352
 20
0.132692
 30
0.0
 40
0.873343
100
AcDbArc
 50
23.29824799999999
 51
86.77340800000001
  0
ARC
  5
3CA
330
341
100
AcDbEntity
  8
YELLOW
100
AcDbCircle
 10
0.2196511383537647
 20
0.403445
 30
0.0
 40
0.762407
100
AcDbArc
 50
8.036031000000011
 51
104.2880669999999
  0
ARC
  5
3CB
330
341
100
AcDbEntity
  8
YELLOW
100
AcDbCircle
 10
0.0648581383537668
 20
0.249521
 30
0.0
 40
0.7983630000000001
100
AcDbArc
 50
16.78765000000002
 51
93.332756
  0
ARC
  5
3CC
330
341
100
AcDbEntity
  8
RED
100
AcDbCircle
 10
7.672397138353765
 20
4.528000999999999
 30
0.0
 40
0.210501
100
AcDbArc
 50
28.390447
 51
74.54496
  0
ARC
  5
3CD
330
341
100
AcDbEntity
  8
RED
100
AcDbCircle
 10
7.450023138353762
 20
4.466317
 30
0.0
 40
0.077567
100
AcDbArc
 50
67.80871100000002
 51
258.2967659999998
  0
ARC
  5
3CE
330
341
100
AcDbEntity
  8
RED
100
AcDbCircle
 10
8.249955138353763
 20
4.834951999999999
 30
0.0
 40
0.080596
100
AcDbArc
 50
174.034875
 51
248.8159569999999
  0
ARC
  5
3CF
330
341
100
AcDbEntity
  8
RED
100
AcDbCircle
 10
7.872689138353765
 20
4.806646999999999
 30
0.0
 40
0.088901
100
AcDbArc
 50
39.00768
 51
132.4529349999999
  0
ARC
  5
3D0
330
341
100
AcDbEntity
  8
RED
100
AcDbCircle
 10
7.696970138353765
 20
4.374005
 30
0.0
 40
0.081727
100
AcDbArc
 50
25.84864099999998
 51
200.4972469999999
  0
ARC
  5
3D1
330
341
100
AcDbEntity
  8
RED
100
AcDbCircle
 10
7.686619138353765
 20
4.398104
 30
0.0
 40
0.252715
100
AcDbArc
 50
15.92948899999999
 51
208.3955959999999
  0
ARC
  5
3D2
330
341
100
AcDbEntity
  8
RED
100
AcDbCircle
 10
8.445518138353765
 20
4.844541
 30
0.0
 40
0.084075
100
AcDbArc
 50
218.7398309999999
 51
305.2306879999998
  0
ARC
  5
3D3
330
341
100
AcDbEntity
  8
RED
100
AcDbCircle
 10
7.916769138353764
 20
4.938298999999998
 30
0.0
 40
0.095899
100
AcDbArc
 50
43.20654999999997
 51
186.854327
  0
ARC
  5
3D4
330
341
100
AcDbEntity
  8
RED
100
AcDbCircle
 10
8.434954138353765
 20
4.8604
 30
0.0
 40
0.076061
100
AcDbArc
 50
35.312672
 51
178.3401419999999
  0
ARC
  5
3D5
330
341
100
AcDbEntity
  8
YELLOW
100
AcDbCircle
 10
0.5296521383537645
 20
1.002434
 30
0.0
 40
0.5247390000000001
100
AcDbArc
 50
184.1677469999999
 51
272.2433749999999
  0
LINE
  5
3D6
330
341
100
AcDbEntity
  8
WHITE
100
AcDbLine
 10
0.1576261383537645
 20
1.555529999999999
 30
0.0
 11
1.078649138353763
 21
3.098075999999998
 31
0.0
  0
LINE
  5
3D7
330
341
100
AcDbEntity
  8
WHITE
100
AcDbLine
 10
0.029027138353765
 20
1.142686
 30
0.0
 11
0.1576261383537645
 21
1.555529999999999
 31
0.0
  0
LINE
  5
3D8
330
341
100
AcDbEntity
  8
YELLOW
100
AcDbLine
 10
0.007594138353765
 20
0.9592
 30
0.0
 11
0.029027138353765
 21
1.142686
 31
0.0
  0
LINE
  5
3D9
330
341
100
AcDbEntity
  8
YELLOW
100
AcDbLine
 10
0.8220561383537654
 20
0.477548
 30
0.0
 11
0.5434241383537639
 21
0.477548
 31
0.0
  0
LINE
  5
3DA
330
341
100
AcDbEntity
  8
RED
100
AcDbLine
 10
0.3933921383537662
 20
1.234428999999999
 30
0.0
 11
0.0825781383537656
 21
1.301444
 31
0.0
  0
LINE
  5
3DB
330
341
100
AcDbEntity
  8
RED
100
AcDbLine
 10
0.6505901383537652
 20
1.165621999999999
 30
0.0
 11
0.3933921383537662
 21
1.234428999999999
 31
0.0
  0
LINE
  5
3DC
330
341
100
AcDbEntity
  8
RED
100
AcDbLine
 10
1.036388138353764
 20
1.050942999999999
 30
0.0
 11
0.6505901383537652
 21
1.165621999999999
 31
0.0
  0
LINE
  5
3DD
330
341
100
AcDbEntity
  8
RED
100
AcDbLine
 10
1.207854138353765
 20
1.050942999999999
 30
0.0
 11
1.036388138353764
 21
1.050942999999999
 31
0.0
  0
LINE
  5
3DE
330
341
100
AcDbEntity
  8
RED
100
AcDbLine
 10
1.522528138353765
 20
1.100384999999999
 30
0.0
 11
1.207854138353765
 21
1.050942999999999
 31
0.0
  0
LINE
  5
3DF
330
341
100
AcDbEntity
  8
WHITE
100
AcDbLine
 10
1.112299138353763
 20
1.27383
 30
0.0
 11
1.239009138353764
 21
1.329984999999999
 31
0.0
  0
LINE
  5
3E0
330
341
100
AcDbEntity
  8
WHITE
100
AcDbLine
 10
1.121186138353764
 20
1.411710999999999
 30
0.0
 11
1.325205138353764
 21
1.536547999999998
 31
0.0
  0
LINE
  5
3E1
330
341
100
AcDbEntity
  8
WHITE
100
AcDbLine
 10
0.9935221383537662
 20
1.372044
 30
0.0
 11
1.121186138353764
 21
1.411710999999999
 31
0.0
  0
LINE
  5
3E2
330
341
100
AcDbEntity
  8
WHITE
100
AcDbLine
 10
0.7363231383537645
 20
1.326171999999999
 30
0.0
 11
0.9935221383537662
 21
1.372044
 31
0.0
  0
LINE
  5
3E3
330
341
100
AcDbEntity
  8
WHITE
100
AcDbLine
 10
0.6235631383537648
 20
1.321374999999999
 30
0.0
 11
0.7363231383537645
 21
1.326171999999999
 31
0.0
  0
LINE
  5
3E4
330
341
100
AcDbEntity
  8
WHITE
100
AcDbLine
 10
0.4362581383537664
 20
1.372044
 30
0.0
 11
0.6235631383537648
 21
1.321374999999999
 31
0.0
  0
LINE
  5
3E5
330
341
100
AcDbEntity
  8
WHITE
100
AcDbLine
 10
0.286226138353765
 20
1.417914999999998
 30
0.0
 11
0.4362581383537664
 21
1.372044
 31
0.0
  0
LINE
  5
3E6
330
341
100
AcDbEntity
  8
WHITE
100
AcDbLine
 10
0.1621721383537658
 20
1.553415999999999
 30
0.0
 11
0.286226138353765
 21
1.417914999999998
 31
0.0
  0
LINE
  5
3E7
330
341
100
AcDbEntity
  8
WHITE
100
AcDbLine
 10
0.7577561383537664
 20
1.349107999999999
 30
0.0
 11
0.8649231383537648
 21
1.532594
 31
0.0
  0
LINE
  5
3E8
330
341
100
AcDbEntity
  8
WHITE
100
AcDbLine
 10
0.329092138353765
 20
1.463786999999999
 30
0.0
 11
0.7577561383537664
 21
1.349107999999999
 31
0.0
  0
LINE
  5
3E9
330
341
100
AcDbEntity
  8
WHITE
100
AcDbLine
 10
0.4362581383537664
 20
1.624336999999999
 30
0.0
 11
0.329092138353765
 21
1.463786999999999
 31
0.0
  0
LINE
  5
3EA
330
341
100
AcDbEntity
  8
WHITE
100
AcDbLine
 10
0.8664721383537655
 20
1.533180999999999
 30
0.0
 11
0.4362581383537664
 21
1.624336999999999
 31
0.0
  0
LINE
  5
3EB
330
341
100
AcDbEntity
  8
WHITE
100
AcDbLine
 10
1.079255138353762
 20
1.945438
 30
0.0
 11
1.166743138353764
 21
2.081547
 31
0.0
  0
LINE
  5
3EC
330
341
100
AcDbEntity
  8
WHITE
100
AcDbLine
 10
0.7148901383537645
 20
2.037180999999999
 30
0.0
 11
1.079255138353762
 21
1.945438
 31
0.0
  0
LINE
  5
3ED
330
341
100
AcDbEntity
  8
WHITE
100
AcDbLine
 10
0.7791901383537656
 20
2.151859999999999
 30
0.0
 11
0.7148901383537645
 21
2.037180999999999
 31
0.0
  0
LINE
  5
3EE
330
341
100
AcDbEntity
  8
WHITE
100
AcDbLine
 10
1.166743138353764
 20
2.081547
 30
0.0
 11
0.7791901383537656
 21
2.151859999999999
 31
0.0
  0
LINE
  5
3EF
330
341
100
AcDbEntity
  8
YELLOW
100
AcDbLine
 10
1.400753138353764
 20
0.638099
 30
0.0
 11
1.818057138353764
 21
0.8027689999999999
 31
0.0
  0
LINE
  5
3F0
330
341
100
AcDbEntity
  8
YELLOW
100
AcDbLine
 10
1.250721138353764
 20
0.5922270000000001
 30
0.0
 11
1.400753138353764
 21
0.638099
 31
0.0
  0
LINE
  5
3F1
330
341
100
AcDbEntity
  8
YELLOW
100
AcDbLine
 10
1.036388138353764
 20
0.52342
 30
0.0
 11
1.250721138353764
 21
0.5922270000000001
 31
0.0
  0
LINE
  5
3F2
330
341
100
AcDbEntity
  8
YELLOW
100
AcDbLine
 10
0.8220561383537654
 20
0.477548
 30
0.0
 11
1.036388138353764
 21
0.52342
 31
0.0
  0
LINE
  5
3F3
330
341
100
AcDbEntity
  8
CYAN
100
AcDbLine
 10
6.317828138353764
 20
6.236901999999998
 30
0.0
 11
5.031135138353763
 21
5.341671999999999
 31
0.0
  0
LINE
  5
3F4
330
341
100
AcDbEntity
  8
CYAN
100
AcDbLine
 10
6.919217138353764
 20
6.582569
 30
0.0
 11
7.084120964217508
 21
6.582611528554542
 31
0.0
  0
LINE
  5
3F5
330
341
100
AcDbEntity
  8
CYAN
100
AcDbLine
 10
9.201251138353763
 20
7.151725999999999
 30
0.0
 11
8.857471138353766
 21
7.504682999999998
 31
0.0
  0
POINT
  5
3F6
330
341
100
AcDbEntity
  8
CYAN
100
AcDbPoint
 10
9.469770138353766
 20
7.660549999999999
 30
0.0
  0
POINT
  5
3F7
330
341
100
AcDbEntity
  8
CYAN
100
AcDbPoint
 10
9.555503138353765
 20
7.706421999999998
 30
0.0
  0
POINT
  5
3F8
330
341
100
AcDbEntity
  8
CYAN
100
AcDbPoint
 10
9.641236138353763
 20
7.752294
 30
0.0
  0
POINT
  5
3F9
330
341
100
AcDbEntity
  8
CYAN
100
AcDbPoint
 10
9.641236138353763
 20
7.5
 30
0.0
  0
POINT
  5
3FA
330
341
100
AcDbEntity
  8
CYAN
100
AcDbPoint
 10
9.726969138353766
 20
7.545872
 30
0.0
  0
POINT
  5
3FB
330
341
100
AcDbEntity
  8
CYAN
100
AcDbPoint
 10
9.812702138353763
 20
7.614678999999999
 30
0.0
  0
LINE
  5
3FC
330
341
100
AcDbEntity
  8
CYAN
100
AcDbLine
 10
7.966255138353765
 20
5.846535
 30
0.0
 11
7.926267138353765
 21
5.912455999999998
 31
0.0
  0
LINE
  5
3FD
330
341
100
AcDbEntity
  8
CYAN
100
AcDbLine
 10
6.991242138353764
 20
5.618039999999999
 30
0.0
 11
5.830467138353764
 21
4.797551999999999
 31
0.0
  0
LINE
  5
3FE
330
341
100
AcDbEntity
  8
CYAN
100
AcDbLine
 10
6.532373138353764
 20
5.799906
 30
0.0
 11
5.268859138353764
 21
4.908256999999998
 31
0.0
  0
LINE
  5
3FF
330
341
100
AcDbEntity
  8
CYAN
100
AcDbLine
 10
6.400661138353766
 20
5.977224999999998
 30
0.0
 11
5.118827138353764
 21
5.160549999999998
 31
0.0
  0
LINE
  5
400
330
341
100
AcDbEntity
  8
CYAN
100
AcDbLine
 10
5.619120138353764
 20
6.427616
 30
0.0
 11
5.341249138353764
 21
6.223813999999999
 31
0.0
  0
LINE
  5
401
330
341
100
AcDbEntity
  8
CYAN
100
AcDbLine
 10
4.850505138353764
 20
6.02376
 30
0.0
 11
4.938136138353764
 21
5.880474999999998
 31
0.0
  0
LINE
  5
402
330
341
100
AcDbEntity
  8
YELLOW
100
AcDbLine
 10
4.807672138353765
 20
5.987472999999999
 30
0.0
 11
4.890881138353766
 21
5.848133999999999
 31
0.0
  0
LINE
  5
403
330
341
100
AcDbEntity
  8
CYAN
100
AcDbLine
 10
5.210119138353763
 20
6.060102999999998
 30
0.0
 11
4.864521138353764
 21
6.236664
 31
0.0
  0
LINE
  5
404
330
341
100
AcDbEntity
  8
CYAN
100
AcDbLine
 10
4.872927138353763
 20
6.317362
 30
0.0
 11
4.834554138353763
 21
6.4229
 31
0.0
  0
LINE
  5
405
330
341
100
AcDbEntity
  8
YELLOW
100
AcDbLine
 10
4.535735138353763
 20
6.461026
 30
0.0
 11
4.475304138353764
 21
6.494938
 31
0.0
  0
LINE
  5
406
330
341
100
AcDbEntity
  8
CYAN
100
AcDbLine
 10
4.826095138353766
 20
6.628077
 30
0.0
 11
4.682742138353765
 21
6.628220999999999
 31
0.0
  0
LINE
  5
407
330
341
100
AcDbEntity
  8
CYAN
100
AcDbLine
 10
4.799229138353764
 20
6.537018999999999
 30
0.0
 11
4.826095138353766
 21
6.628077
 31
0.0
  0
LINE
  5
408
330
341
100
AcDbEntity
  8
CYAN
100
AcDbLine
 10
11.58938813835376
 20
5.498618999999999
 30
0.0
 11
11.14898513835375
 21
5.169013999999998
 31
0.0
  0
LINE
  5
409
330
341
100
AcDbEntity
  8
CYAN
100
AcDbLine
 10
8.688933138353762
 20
6.890645
 30
0.0
 11
8.637977138353765
 21
6.944581999999999
 31
0.0
  0
LINE
  5
40A
330
341
100
AcDbEntity
  8
CYAN
100
AcDbLine
 10
8.741041138353763
 20
4.747705999999999
 30
0.0
 11
8.728179138353763
 21
4.804777999999998
 31
0.0
  0
LINE
  5
40B
330
341
100
AcDbEntity
  8
CYAN
100
AcDbLine
 10
8.871094592821005
 20
4.902918210271701
 30
0.0
 11
8.815239138353764
 21
4.75659
 31
0.0
  0
LINE
  5
40C
330
341
100
AcDbEntity
  8
CYAN
100
AcDbLine
 10
8.891073138353762
 20
4.770641999999999
 30
0.0
 11
8.871094592821005
 21
4.902918210271701
 31
0.0
  0
LINE
  5
40D
330
341
100
AcDbEntity
  8
CYAN
100
AcDbLine
 10
9.004369138353766
 20
4.991103999999999
 30
0.0
 11
8.980353138353763
 21
4.878665999999999
 31
0.0
  0
LINE
  5
40E
330
341
100
AcDbEntity
  8
CYAN
100
AcDbLine
 10
9.062539138353763
 20
4.908256999999998
 30
0.0
 11
9.004369138353766
 21
4.991103999999999
 31
0.0
  0
LINE
  5
40F
330
341
100
AcDbEntity
  8
CYAN
100
AcDbLine
 10
9.167504487564412
 20
5.102103796826948
 30
0.0
 11
9.105406138353762
 21
4.885321
 31
0.0
  0
LINE
  5
410
330
341
100
AcDbEntity
  8
CYAN
100
AcDbLine
 10
9.212572138353763
 20
4.885321
 30
0.0
 11
9.167504487564412
 21
5.102103796826948
 31
0.0
  0
LINE
  5
411
330
341
100
AcDbEntity
  8
CYAN
100
AcDbLine
 10
9.384671138353764
 20
4.88856
 30
0.0
 11
9.365758138353763
 21
4.845190999999999
 31
0.0
  0
LINE
  5
412
330
341
100
AcDbEntity
  8
CYAN
100
AcDbLine
 10
9.411689138353764
 20
4.853864999999998
 30
0.0
 11
9.384671138353764
 21
4.88856
 31
0.0
  0
LINE
  5
413
330
341
100
AcDbEntity
  8
CYAN
100
AcDbLine
 10
9.578465364112007
 20
5.027639526116415
 30
0.0
 11
9.506255138353763
 21
4.868322
 31
0.0
  0
LINE
  5
414
330
341
100
AcDbEntity
  8
CYAN
100
AcDbLine
 10
9.608925138353763
 20
4.885669
 30
0.0
 11
9.578465364112007
 21
5.027639526116415
 31
0.0
  0
LINE
  5
415
330
341
100
AcDbEntity
  8
CYAN
100
AcDbLine
 10
9.276052138353763
 20
5.174720999999999
 30
0.0
 11
9.234005138353763
 21
5.114678999999998
 31
0.0
  0
LINE
  5
416
330
341
100
AcDbEntity
  8
CYAN
100
AcDbLine
 10
9.319738138353763
 20
5.114678999999998
 30
0.0
 11
9.276052138353763
 21
5.174720999999999
 31
0.0
  0
LINE
  5
417
330
341
100
AcDbEntity
  8
CYAN
100
AcDbLine
 10
9.45750632630191
 20
5.29698321001602
 30
0.0
 11
9.384038138353766
 21
5.114678999999998
 31
0.0
  0
LINE
  5
418
330
341
100
AcDbEntity
  8
CYAN
100
AcDbLine
 10
9.491204138353763
 20
5.091743
 30
0.0
 11
9.45750632630191
 21
5.29698321001602
 31
0.0
  0
LINE
  5
419
330
341
100
AcDbEntity
  8
CYAN
100
AcDbLine
 10
9.708894138353763
 20
5.119862
 30
0.0
 11
9.684103138353762
 21
5.022935999999999
 31
0.0
  0
LINE
  5
41A
330
341
100
AcDbEntity
  8
CYAN
100
AcDbLine
 10
9.726969138353766
 20
5.045872
 30
0.0
 11
9.708894138353763
 21
5.119862
 31
0.0
  0
LINE
  5
41B
330
341
100
AcDbEntity
  8
CYAN
100
AcDbLine
 10
9.855889019631138
 20
5.224419541402961
 30
0.0
 11
9.812702138353763
 21
5.045872
 31
0.0
  0
LINE
  5
41C
330
341
100
AcDbEntity
  8
CYAN
100
AcDbLine
 10
9.919868138353763
 20
5.0
 30
0.0
 11
9.855889019631138
 21
5.224419541402961
 31
0.0
  0
LINE
  5
41D
330
341
100
AcDbEntity
  8
CYAN
100
AcDbLine
 10
10.15563313835376
 20
5.068806999999999
 30
0.0
 11
10.13420013835376
 21
5.0
 31
0.0
  0
LINE
  5
41E
330
341
100
AcDbEntity
  8
CYAN
100
AcDbLine
 10
10.17706713835375
 20
5.0
 30
0.0
 11
10.15563313835376
 21
5.068806999999999
 31
0.0
  0
LINE
  5
41F
330
341
100
AcDbEntity
  8
CYAN
100
AcDbLine
 10
10.25263863597902
 20
5.020903832499611
 30
0.0
 11
10.26773441089186
 21
5.149403701127588
 31
0.0
  0
LINE
  5
420
330
341
100
AcDbEntity
  8
CYAN
100
AcDbLine
 10
10.33523306120214
 20
5.043776134869089
 30
0.0
 11
10.26773441089186
 21
5.149403701127588
 31
0.0
  0
LINE
  5
421
330
341
100
AcDbEntity
  8
CYAN
100
AcDbLine
 10
9.614832138353763
 20
5.402549999999998
 30
0.0
 11
9.598370138353763
 21
5.298165
 31
0.0
  0
LINE
  5
422
330
341
100
AcDbEntity
  8
CYAN
100
AcDbLine
 10
9.662669138353763
 20
5.321100999999999
 30
0.0
 11
9.614832138353763
 21
5.402549999999998
 31
0.0
  0
LINE
  5
423
330
341
100
AcDbEntity
  8
CYAN
100
AcDbLine
 10
9.761452817971582
 20
5.501233342343899
 30
0.0
 11
9.687279138353762
 21
5.261533999999999
 31
0.0
  0
LINE
  5
424
330
341
100
AcDbEntity
  8
CYAN
100
AcDbLine
 10
9.834135138353763
 20
5.298165
 30
0.0
 11
9.761452817971582
 21
5.501233342343899
 31
0.0
  0
LINE
  5
425
330
341
100
AcDbEntity
  8
CYAN
100
AcDbLine
 10
9.984484138353762
 20
5.313576999999999
 30
0.0
 11
9.941301138353763
 21
5.229358
 31
0.0
  0
LINE
  5
426
330
341
100
AcDbEntity
  8
CYAN
100
AcDbLine
 10
10.04846713835376
 20
5.206421999999998
 30
0.0
 11
9.984484138353762
 21
5.313576999999999
 31
0.0
  0
LINE
  5
427
330
341
100
AcDbEntity
  8
CYAN
100
AcDbLine
 10
10.15027984098627
 20
5.433234576364852
 30
0.0
 11
10.1827510454056
 21
5.203882251455445
 31
0.0
  0
LINE
  5
428
330
341
100
AcDbEntity
  8
CYAN
100
AcDbLine
 10
10.10651003750734
 20
5.264875057774059
 30
0.0
 11
10.15027984098627
 21
5.433234576364852
 31
0.0
  0
LINE
  5
429
330
341
100
AcDbEntity
  8
CYAN
100
AcDbLine
 10
10.45569913835376
 20
5.275229
 30
0.0
 11
10.45569913835376
 21
5.160549999999998
 31
0.0
  0
LINE
  5
42A
330
341
100
AcDbEntity
  8
CYAN
100
AcDbLine
 10
10.49856513835375
 20
5.137615
 30
0.0
 11
10.45569913835376
 21
5.275229
 31
0.0
  0
LINE
  5
42B
330
341
100
AcDbEntity
  8
CYAN
100
AcDbLine
 10
10.57184156246031
 20
5.363201394184767
 30
0.0
 11
10.56286513835376
 21
5.137615
 31
0.0
  0
LINE
  5
42C
330
341
100
AcDbEntity
  8
CYAN
100
AcDbLine
 10
10.67003113835376
 20
5.137615
 30
0.0
 11
10.57184156246031
 21
5.363201394184767
 31
0.0
  0
LINE
  5
42D
330
341
100
AcDbEntity
  8
CYAN
100
AcDbLine
 10
10.83016513835375
 20
5.177687999999998
 30
0.0
 11
10.80044513835376
 21
5.122752999999999
 31
0.0
  0
LINE
  5
42E
330
341
100
AcDbEntity
  8
CYAN
100
AcDbLine
 10
10.86799113835376
 20
5.131426999999999
 30
0.0
 11
10.83016513835375
 21
5.177687999999998
 31
0.0
  0
LINE
  5
42F
330
341
100
AcDbEntity
  8
CYAN
100
AcDbLine
 10
10.96928614764948
 20
5.290005287025945
 30
0.0
 11
10.92722913835376
 21
5.206421999999998
 31
0.0
  0
LINE
  5
430
330
341
100
AcDbEntity
  8
CYAN
100
AcDbLine
 10
11.01659413835376
 20
5.148774999999998
 30
0.0
 11
10.96928614764948
 21
5.290005287025945
 31
0.0
  0
LINE
  5
431
330
341
100
AcDbEntity
  8
CYAN
100
AcDbLine
 10
9.644049138353762
 20
5.805093
 30
0.0
 11
9.362604138353763
 21
5.573394
 31
0.0
  0
LINE
  5
432
330
341
100
AcDbEntity
  8
CYAN
100
AcDbLine
 10
9.683728138353762
 20
5.623172
 30
0.0
 11
9.644049138353762
 21
5.805093
 31
0.0
  0
LINE
  5
433
330
341
100
AcDbEntity
  8
CYAN
100
AcDbLine
 10
9.473832138353763
 20
5.663420999999999
 30
0.0
 11
9.362604138353763
 21
5.848624
 31
0.0
  0
LINE
  5
434
330
341
100
AcDbEntity
  8
CYAN
100
AcDbLine
 10
9.885753138353763
 20
5.584368999999999
 30
0.0
 11
9.473832138353763
 21
5.663420999999999
 31
0.0
  0
LINE
  5
435
330
341
100
AcDbEntity
  8
CYAN
100
AcDbLine
 10
9.885297791034803
 20
5.584456385970264
 30
0.0
 11
9.877002138353763
 21
5.504586999999999
 31
0.0
  0
LINE
  5
436
330
341
100
AcDbEntity
  8
CYAN
100
AcDbLine
 10
9.984168138353762
 20
5.481651
 30
0.0
 11
9.885297791034803
 21
5.584456385970264
 31
0.0
  0
LINE
  5
437
330
341
100
AcDbEntity
  8
CYAN
100
AcDbLine
 10
10.10606713835376
 20
5.732812
 30
0.0
 11
10.09133413835376
 21
5.504586999999999
 31
0.0
  0
LINE
  5
438
330
341
100
AcDbEntity
  8
CYAN
100
AcDbLine
 10
10.15563313835376
 20
5.527523
 30
0.0
 11
10.10606713835376
 21
5.732812
 31
0.0
  0
LINE
  5
439
330
341
100
AcDbEntity
  8
CYAN
100
AcDbLine
 10
10.31140813835376
 20
5.547769999999998
 30
0.0
 11
10.30566613835376
 21
5.412843999999999
 31
0.0
  0
LINE
  5
43A
330
341
100
AcDbEntity
  8
CYAN
100
AcDbLine
 10
10.36996613835376
 20
5.412843999999999
 30
0.0
 11
10.31140813835376
 21
5.547769999999998
 31
0.0
  0
LINE
  5
43B
330
341
100
AcDbEntity
  8
CYAN
100
AcDbLine
 10
10.48708928043203
 20
5.672137659516753
 30
0.0
 11
10.43426513835375
 21
5.412843999999999
 31
0.0
  0
LINE
  5
43C
330
341
100
AcDbEntity
  8
CYAN
100
AcDbLine
 10
10.54143113835376
 20
5.458715999999999
 30
0.0
 11
10.48708928043203
 21
5.672137659516753
 31
0.0
  0
LINE
  5
43D
330
341
100
AcDbEntity
  8
CYAN
100
AcDbLine
 10
10.75451313835376
 20
5.489944999999999
 30
0.0
 11
10.71289713835376
 21
5.366971999999999
 31
0.0
  0
LINE
  5
43E
330
341
100
AcDbEntity
  8
CYAN
100
AcDbLine
 10
10.77719713835376
 20
5.366971999999999
 30
0.0
 11
10.75451313835376
 21
5.489944999999999
 31
0.0
  0
LINE
  5
43F
330
341
100
AcDbEntity
  8
CYAN
100
AcDbLine
 10
10.91560955830835
 20
5.604882012612
 30
0.0
 11
10.86293013835376
 21
5.366971999999999
 31
0.0
  0
LINE
  5
440
330
341
100
AcDbEntity
  8
CYAN
100
AcDbLine
 10
10.94866313835376
 20
5.412843999999999
 30
0.0
 11
10.91560955830835
 21
5.604882012612
 31
0.0
  0
LINE
  5
441
330
341
100
AcDbEntity
  8
CYAN
100
AcDbLine
 10
11.07333313835376
 20
5.371402999999999
 30
0.0
 11
11.03439513835376
 21
5.321100999999999
 31
0.0
  0
LINE
  5
442
330
341
100
AcDbEntity
  8
CYAN
100
AcDbLine
 10
11.12012813835375
 20
5.321100999999999
 30
0.0
 11
11.07333313835376
 21
5.371402999999999
 31
0.0
  0
LINE
  5
443
330
341
100
AcDbEntity
  8
CYAN
100
AcDbLine
 10
11.29313457243059
 20
5.545629999677283
 30
0.0
 11
11.18442813835376
 21
5.321100999999999
 31
0.0
  0
LINE
  5
444
330
341
100
AcDbEntity
  8
CYAN
100
AcDbLine
 10
11.27016113835376
 20
5.344037
 30
0.0
 11
11.29313457243059
 21
5.545629999677283
 31
0.0
  0
LINE
  5
445
330
341
100
AcDbEntity
  8
CYAN
100
AcDbLine
 10
11.37732713835376
 20
5.344037
 30
0.0
 11
11.33446113835375
 21
5.275229
 31
0.0
  0
LINE
  5
446
330
341
100
AcDbEntity
  8
CYAN
100
AcDbLine
 10
11.44162713835376
 20
5.252294
 30
0.0
 11
11.37732713835376
 21
5.344037
 31
0.0
  0
LINE
  5
447
330
341
100
AcDbEntity
  8
CYAN
100
AcDbLine
 10
11.58995633405944
 20
5.499044247206705
 30
0.0
 11
11.48449313835376
 21
5.275229
 31
0.0
  0
LINE
  5
448
330
341
100
AcDbEntity
  8
CYAN
100
AcDbLine
 10
11.59165913835376
 20
5.321100999999999
 30
0.0
 11
11.58995633405944
 21
5.499044247206705
 31
0.0
  0
LINE
  5
449
330
341
100
AcDbEntity
  8
CYAN
100
AcDbLine
 10
11.87327909565956
 20
5.454577143552524
 30
0.0
 11
11.76312513835376
 21
5.252294
 31
0.0
  0
LINE
  5
44A
330
341
100
AcDbEntity
  8
CYAN
100
AcDbLine
 10
11.88929413835376
 20
5.270208
 30
0.0
 11
11.87327909565956
 21
5.454577143552524
 31
0.0
  0
LINE
  5
44B
330
341
100
AcDbEntity
  8
GREEN
100
AcDbLine
 10
4.826095138353766
 20
6.628077
 30
0.0
 11
4.924154138353764
 21
6.736984999999999
 31
0.0
  0
LINE
  5
44C
330
341
100
AcDbEntity
  8
GREEN
100
AcDbLine
 10
5.097394138353764
 20
6.720182999999999
 30
0.0
 11
4.916637138353764
 21
6.618053999999998
 31
0.0
  0
LINE
  5
44D
330
341
100
AcDbEntity
  8
GREEN
100
AcDbLine
 10
5.033094138353764
 20
6.605504999999999
 30
0.0
 11
5.097394138353764
 21
6.720182999999999
 31
0.0
  0
LINE
  5
44E
330
341
100
AcDbEntity
  8
GREEN
100
AcDbLine
 10
5.230463138353764
 20
6.706769999999998
 30
0.0
 11
5.070500138353764
 21
6.599783999999998
 31
0.0
  0
LINE
  5
44F
330
341
100
AcDbEntity
  8
GREEN
100
AcDbLine
 10
5.185142138353764
 20
6.587984999999999
 30
0.0
 11
5.230463138353764
 21
6.706769999999998
 31
0.0
  0
LINE
  5
450
330
341
100
AcDbEntity
  8
GREEN
100
AcDbLine
 10
5.413058138353766
 20
6.688215999999999
 30
0.0
 11
5.267788138353764
 21
6.577672999999998
 31
0.0
  0
LINE
  5
451
330
341
100
AcDbEntity
  8
GREEN
100
AcDbLine
 10
5.353738138353763
 20
6.567938999999999
 30
0.0
 11
5.413058138353766
 21
6.688215999999999
 31
0.0
  0
LINE
  5
452
330
341
100
AcDbEntity
  8
GREEN
100
AcDbLine
 10
5.604378138353764
 20
6.670393999999999
 30
0.0
 11
5.440325138353764
 21
6.559632999999998
 31
0.0
  0
LINE
  5
453
330
341
100
AcDbEntity
  8
GREEN
100
AcDbLine
 10
5.522396138353763
 20
6.549144
 30
0.0
 11
5.604378138353764
 21
6.670393999999999
 31
0.0
  0
LINE
  5
454
330
341
100
AcDbEntity
  8
GREEN
100
AcDbLine
 10
5.804690138353763
 20
6.651375999999999
 30
0.0
 11
5.613709138353764
 21
6.539157999999999
 31
0.0
  0
LINE
  5
455
330
341
100
AcDbEntity
  8
GREEN
100
AcDbLine
 10
5.718351138353765
 20
6.52632
 30
0.0
 11
5.804690138353763
 21
6.651375999999999
 31
0.0
  0
LINE
  5
456
330
341
100
AcDbEntity
  8
GREEN
100
AcDbLine
 10
5.961105138353763
 20
6.636084
 30
0.0
 11
5.773672138353766
 21
6.520614
 31
0.0
  0
LINE
  5
457
330
341
100
AcDbEntity
  8
GREEN
100
AcDbLine
 10
8.312377138353765
 20
7.821100999999998
 30
0.0
 11
8.175156138353765
 21
7.801750999999998
 31
0.0
  0
LINE
  5
458
330
341
100
AcDbEntity
  8
GREEN
100
AcDbLine
 10
8.633875138353765
 20
8.073394
 30
0.0
 11
8.312377138353765
 21
7.821100999999998
 31
0.0
  0
LINE
  5
459
330
341
100
AcDbEntity
  8
YELLOW
100
AcDbLine
 10
7.862279138353764
 20
9.334861999999999
 30
0.0
 11
7.000843138353763
 21
6.842903999999998
 31
0.0
  0
LINE
  5
45A
330
341
100
AcDbEntity
  8
YELLOW
100
AcDbLine
 10
7.235339138353762
 20
6.897117999999998
 30
0.0
 11
6.890833138353764
 21
6.973017999999998
 31
0.0
  0
LINE
  5
45B
330
341
100
AcDbEntity
  8
YELLOW
100
AcDbLine
 10
7.262842138353764
 20
7.172836999999999
 30
0.0
 11
6.978498138353764
 21
7.205586999999999
 31
0.0
  0
LINE
  5
45C
330
341
100
AcDbEntity
  8
YELLOW
100
AcDbLine
 10
7.338112138353762
 20
7.406733
 30
0.0
 11
7.074666138353764
 21
7.454750999999999
 31
0.0
  0
LINE
  5
45D
330
341
100
AcDbEntity
  8
YELLOW
100
AcDbLine
 10
7.416278138353765
 20
7.637531
 30
0.0
 11
7.161161138353763
 21
7.684419
 31
0.0
  0
LINE
  5
45E
330
341
100
AcDbEntity
  8
YELLOW
100
AcDbLine
 10
7.500875138353762
 20
7.885394999999999
 30
0.0
 11
7.249542138353763
 21
7.91495
 31
0.0
  0
LINE
  5
45F
330
341
100
AcDbEntity
  8
YELLOW
100
AcDbLine
 10
7.585364138353765
 20
8.138987
 30
0.0
 11
7.347882138353765
 21
8.165138
 31
0.0
  0
LINE
  5
460
330
341
100
AcDbEntity
  8
YELLOW
100
AcDbLine
 10
7.664411138353765
 20
8.374153999999997
 30
0.0
 11
7.439043138353764
 21
8.416147999999997
 31
0.0
  0
LINE
  5
461
330
341
100
AcDbEntity
  8
YELLOW
100
AcDbLine
 10
7.746309138353765
 20
8.624233
 30
0.0
 11
7.519050138353764
 21
8.622683999999997
 31
0.0
  0
LINE
  5
462
330
341
100
AcDbEntity
  8
YELLOW
100
AcDbLine
 10
7.819412138353762
 20
8.853210999999998
 30
0.0
 11
7.613955138353762
 21
8.875085
 31
0.0
  0
LINE
  5
463
330
341
100
AcDbEntity
  8
YELLOW
100
AcDbLine
 10
7.898297138353765
 20
9.079632999999999
 30
0.0
 11
7.704331138353762
 21
9.096672000000001
 31
0.0
  0
LINE
  5
464
330
341
100
AcDbEntity
  8
YELLOW
100
AcDbLine
 10
7.985147138353764
 20
9.336764
 30
0.0
 11
7.797979138353762
 21
9.334861999999999
 31
0.0
  0
LINE
  5
465
330
341
100
AcDbEntity
  8
CYAN
100
AcDbLine
 10
8.229558138353763
 20
9.380364
 30
0.0
 11
7.990878138353764
 21
9.357797999999997
 31
0.0
  0
LINE
  5
466
330
341
100
AcDbEntity
  8
CYAN
100
AcDbLine
 10
8.205168138353766
 20
9.198905000000001
 30
0.0
 11
7.922904138353764
 21
9.150886000000001
 31
0.0
  0
LINE
  5
467
330
341
100
AcDbEntity
  8
CYAN
100
AcDbLine
 10
8.177665138353765
 20
9.013026999999999
 30
0.0
 11
7.862279138353764
 21
8.96789
 31
0.0
  0
LINE
  5
468
330
341
100
AcDbEntity
  8
CYAN
100
AcDbLine
 10
8.151610138353763
 20
8.830246999999998
 30
0.0
 11
7.807104138353762
 21
8.807012
 31
0.0
  0
LINE
  5
469
330
341
100
AcDbEntity
  8
CYAN
100
AcDbLine
 10
7.833159138353765
 20
8.644369000000001
 30
0.0
 11
7.753546138353763
 21
8.638173
 31
0.0
  0
LINE
  5
46A
330
341
100
AcDbEntity
  8
CYAN
100
AcDbLine
 10
8.111080138353765
 20
8.551429999999999
 30
0.0
 11
7.701436138353765
 21
8.486373
 31
0.0
  0
LINE
  5
46B
330
341
100
AcDbEntity
  8
CYAN
100
AcDbLine
 10
7.763679138353762
 20
8.394982999999999
 30
0.0
 11
7.664411138353765
 21
8.374153999999997
 31
0.0
  0
LINE
  5
46C
330
341
100
AcDbEntity
  8
CYAN
100
AcDbLine
 10
7.715911138353765
 20
8.210653999999998
 30
0.0
 11
7.602743138353765
 21
8.191180000000001
 31
0.0
  0
LINE
  5
46D
330
341
100
AcDbEntity
  8
CYAN
100
AcDbLine
 10
8.048837138353762
 20
8.117714999999998
 30
0.0
 11
7.550589138353764
 21
8.030215
 31
0.0
  0
LINE
  5
46E
330
341
100
AcDbEntity
  8
CYAN
100
AcDbLine
 10
8.024230138353765
 20
7.961267999999998
 30
0.0
 11
7.481542138353765
 21
7.826283999999998
 31
0.0
  0
LINE
  5
46F
330
341
100
AcDbEntity
  8
CYAN
100
AcDbLine
 10
7.995280138353765
 20
7.753705
 30
0.0
 11
7.416278138353765
 21
7.637531
 31
0.0
  0
LINE
  5
470
330
341
100
AcDbEntity
  8
CYAN
100
AcDbLine
 10
7.834607138353763
 20
7.546141
 30
0.0
 11
7.356930138353765
 21
7.459397999999998
 31
0.0
  0
LINE
  5
471
330
341
100
AcDbEntity
  8
CYAN
100
AcDbLine
 10
7.804209138353765
 20
7.36491
 30
0.0
 11
7.288897138353764
 21
7.248736999999998
 31
0.0
  0
LINE
  5
472
330
341
100
AcDbEntity
  8
CYAN
100
AcDbLine
 10
7.407592138353765
 20
7.084545
 30
0.0
 11
7.259947138353764
 21
7.067505999999998
 31
0.0
  0
LINE
  5
473
330
341
100
AcDbEntity
  8
CYAN
100
AcDbLine
 10
6.297003138353765
 20
6.799805
 30
0.0
 11
6.294765138353763
 21
6.749061
 31
0.0
  0
LINE
  5
474
330
341
100
AcDbEntity
  8
CYAN
100
AcDbLine
 10
6.361954138353763
 20
6.811926999999999
 30
0.0
 11
6.297003138353765
 21
6.799805
 31
0.0
  0
LINE
  5
475
330
341
100
AcDbEntity
  8
CYAN
100
AcDbLine
 10
6.576286138353764
 20
6.880733999999999
 30
0.0
 11
6.361954138353763
 21
6.811926999999999
 31
0.0
  0
LINE
  5
476
330
341
100
AcDbEntity
  8
CYAN
100
AcDbLine
 10
6.747751138353764
 20
6.949540999999999
 30
0.0
 11
6.576286138353764
 21
6.880733999999999
 31
0.0
  0
LINE
  5
477
330
341
100
AcDbEntity
  8
CYAN
100
AcDbLine
 10
6.922812138353764
 20
7.060867
 30
0.0
 11
6.747751138353764
 21
6.949540999999999
 31
0.0
  0
LINE
  5
478
330
341
100
AcDbEntity
  8
CYAN
100
AcDbLine
 10
8.591008138353762
 20
6.330275
 30
0.0
 11
8.427078138353763
 21
6.431135
 31
0.0
  0
LINE
  5
479
330
341
100
AcDbEntity
  8
RED
100
AcDbLine
 10
7.151691138353764
 20
5.938749999999998
 30
0.0
 11
7.071832138353763
 21
5.894162999999998
 31
0.0
  0
LINE
  5
47A
330
341
100
AcDbEntity
  8
RED
100
AcDbLine
 10
5.783257138353761
 20
4.908256999999998
 30
0.0
 11
5.873617138353765
 21
4.695647
 31
0.0
  0
LINE
  5
47B
330
341
100
AcDbEntity
  8
CYAN
100
AcDbLine
 10
6.400661138353766
 20
5.977224999999998
 30
0.0
 11
6.343873138353765
 21
6.152245999999998
 31
0.0
  0
LINE
  5
47C
330
341
100
AcDbEntity
  8
CYAN
100
AcDbLine
 10
6.343873138353765
 20
6.152245999999998
 30
0.0
 11
6.317828138353764
 21
6.236901999999998
 31
0.0
  0
LINE
  5
47D
330
341
100
AcDbEntity
  8
CYAN
100
AcDbLine
 10
5.054527138353764
 20
5.298165
 30
0.0
 11
6.343873138353765
 21
6.152245999999998
 31
0.0
  0
LINE
  5
47E
330
341
100
AcDbEntity
  8
CYAN
100
AcDbLine
 10
9.160590138353763
 20
7.730177
 30
0.0
 11
8.857471138353766
 21
7.504682999999998
 31
0.0
  0
LINE
  5
47F
330
341
100
AcDbEntity
  8
BLUE
100
AcDbLine
 10
9.195312138353763
 20
7.360186999999999
 30
0.0
 11
9.063462138353763
 21
7.475857999999998
 31
0.0
  0
LINE
  5
480
330
341
100
AcDbEntity
  8
BLUE
100
AcDbLine
 10
9.319738138353763
 20
7.477064
 30
0.0
 11
9.202439138353764
 21
7.569919999999999
 31
0.0
  0
LINE
  5
481
330
341
100
AcDbEntity
  8
BLUE
100
AcDbLine
 10
9.126839138353766
 20
7.293578
 30
0.0
 11
9.319738138353763
 21
7.477064
 31
0.0
  0
LINE
  5
482
330
341
100
AcDbEntity
  8
BLUE
100
AcDbLine
 10
8.998240138353763
 20
7.431192999999998
 30
0.0
 11
9.126839138353766
 21
7.293578
 31
0.0
  0
LINE
  5
483
330
341
100
AcDbEntity
  8
BLUE
100
AcDbLine
 10
9.202145138353763
 20
7.571016999999998
 30
0.0
 11
8.998240138353763
 21
7.431192999999998
 31
0.0
  0
LINE
  5
484
330
341
100
AcDbEntity
  8
BLUE
100
AcDbLine
 10
8.675406138353762
 20
7.979508999999998
 30
0.0
 11
8.467079138353764
 21
7.642177
 31
0.0
  0
LINE
  5
485
330
341
100
AcDbEntity
  8
CYAN
100
AcDbLine
 10
9.726969138353766
 20
7.224770999999998
 30
0.0
 11
9.726969138353766
 21
7.155962999999999
 31
0.0
  0
LINE
  5
486
330
341
100
AcDbEntity
  8
CYAN
100
AcDbLine
 10
10.10540713835376
 20
6.212247999999999
 30
0.0
 11
9.657559138353763
 21
5.975678
 31
0.0
  0
LINE
  5
487
330
341
100
AcDbEntity
  8
CYAN
100
AcDbLine
 10
10.09133413835376
 20
6.215595999999998
 30
0.0
 11
9.362385138353763
 21
5.848599
 31
0.0
  0
LINE
  5
488
330
341
100
AcDbEntity
  8
GREEN
100
AcDbLine
 10
12.98895113835376
 20
5.484162
 30
0.0
 11
10.09133413835376
 21
6.215595999999998
 31
0.0
  0
CIRCLE
  5
489
330
341
100
AcDbEntity
  8
BLUE
100
AcDbCircle
 10
3.270882138353763
 20
2.345131999999999
 30
0.0
 40
0.198339
  0
CIRCLE
  5
48A
330
341
100
AcDbEntity
  8
BLUE
100
AcDbCircle
 10
3.284731138353763
 20
2.339449999999998
 30
0.0
 40
0.055138
  0
LINE
  5
48B
330
341
100
AcDbEntity
  8
RED
100
AcDbLine
 10
7.926579138353765
 20
4.931193
 30
0.0
 11
7.948012138353765
 21
4.816513999999998
 31
0.0
  0
LINE
  5
48C
330
341
100
AcDbEntity
  8
RED
100
AcDbLine
 10
7.821284138353765
 20
4.927012
 30
0.0
 11
7.926579138353765
 21
4.931193
 31
0.0
  0
LINE
  5
48D
330
341
100
AcDbEntity
  8
RED
100
AcDbLine
 10
7.797979138353762
 20
4.770641999999999
 30
0.0
 11
7.821284138353765
 21
4.927012
 31
0.0
  0
LINE
  5
48E
330
341
100
AcDbEntity
  8
RED
100
AcDbLine
 10
7.776546138353762
 20
4.770641999999999
 30
0.0
 11
7.540781138353763
 21
4.610091999999998
 31
0.0
  0
LINE
  5
48F
330
341
100
AcDbEntity
  8
RED
100
AcDbLine
 10
7.840846138353763
 20
4.770641999999999
 30
0.0
 11
7.776546138353762
 21
4.770641999999999
 31
0.0
  0
LINE
  5
490
330
341
100
AcDbEntity
  8
RED
100
AcDbLine
 10
7.883712138353763
 20
4.724770999999999
 30
0.0
 11
7.840846138353763
 21
4.770641999999999
 31
0.0
  0
LINE
  5
491
330
341
100
AcDbEntity
  8
RED
100
AcDbLine
 10
7.883712138353763
 20
4.655962999999998
 30
0.0
 11
7.883712138353763
 21
4.724770999999999
 31
0.0
  0
LINE
  5
492
330
341
100
AcDbEntity
  8
RED
100
AcDbLine
 10
7.827560138353763
 20
4.605601
 30
0.0
 11
7.883712138353763
 21
4.655962999999998
 31
0.0
  0
LINE
  5
493
330
341
100
AcDbEntity
  8
RED
100
AcDbLine
 10
8.140911138353763
 20
4.977064
 30
0.0
 11
7.900917138353762
 21
4.811602999999998
 31
0.0
  0
LINE
  5
494
330
341
100
AcDbEntity
  8
RED
100
AcDbLine
 10
8.183777138353763
 20
4.931193
 30
0.0
 11
8.140911138353763
 21
4.977064
 31
0.0
  0
LINE
  5
495
330
341
100
AcDbEntity
  8
RED
100
AcDbLine
 10
7.995598138353765
 20
4.822339
 30
0.0
 11
8.183777138353763
 21
4.931193
 31
0.0
  0
LINE
  5
496
330
341
100
AcDbEntity
  8
RED
100
AcDbLine
 10
8.355243138353763
 20
4.862384999999998
 30
0.0
 11
8.376676138353765
 21
4.793578
 31
0.0
  0
LINE
  5
497
330
341
100
AcDbEntity
  8
RED
100
AcDbLine
 10
7.801847138353764
 20
4.800195999999998
 30
0.0
 11
8.355243138353763
 21
4.862384999999998
 31
0.0
  0
LINE
  5
498
330
341
100
AcDbEntity
  8
RED
100
AcDbLine
 10
8.033745138353765
 20
4.724770999999999
 30
0.0
 11
7.967382138353762
 21
4.818983999999999
 31
0.0
  0
LINE
  5
499
330
341
100
AcDbEntity
  8
RED
100
AcDbLine
 10
8.376676138353765
 20
4.793578
 30
0.0
 11
7.884599138353762
 21
4.692339999999998
 31
0.0
  0
LINE
  5
49A
330
341
100
AcDbEntity
  8
CYAN
100
AcDbLine
 10
12.61339213835376
 20
5.429228
 30
0.0
 11
9.626229138353762
 21
5.980712999999998
 31
0.0
  0
LINE
  5
49B
330
341
100
AcDbEntity
  8
GREEN
100
AcDbLine
 10
11.61640613835376
 20
5.831114999999999
 30
0.0
 11
11.35432613835376
 21
5.663420999999999
 31
0.0
  0
LINE
  5
49C
330
341
100
AcDbEntity
  8
GREEN
100
AcDbLine
 10
11.44162713835376
 20
5.642201999999999
 30
0.0
 11
11.61640613835376
 21
5.831114999999999
 31
0.0
  0
LINE
  5
49D
330
341
100
AcDbEntity
  8
GREEN
100
AcDbLine
 10
12.13786513835376
 20
5.698115999999999
 30
0.0
 11
11.91361113835376
 21
5.559334999999999
 31
0.0
  0
LINE
  5
49E
330
341
100
AcDbEntity
  8
GREEN
100
AcDbLine
 10
11.99466713835376
 20
5.541987999999999
 30
0.0
 11
12.13786513835376
 21
5.698115999999999
 31
0.0
  0
LINE
  5
49F
330
341
100
AcDbEntity
  8
MAGENTA
100
AcDbLine
 10
8.673621138353762
 20
7.426389999999998
 30
0.0
 11
8.224673138353765
 21
7.127175
 31
0.0
  0
LINE
  5
4A0
330
341
100
AcDbEntity
  8
RED
100
AcDbLine
 10
7.067720138353764
 20
5.777173
 30
0.0
 11
7.138529138353765
 21
5.572283999999998
 31
0.0
  0
LINE
  5
4A1
330
341
100
AcDbEntity
  8
CYAN
100
AcDbLine
 10
6.374030138353764
 20
6.05757
 30
0.0
 11
7.121264138353764
 21
5.921295999999999
 31
0.0
  0
LINE
  5
4A2
330
341
100
AcDbEntity
  8
CYAN
100
AcDbLine
 10
6.250386138353764
 20
6.285015999999999
 30
0.0
 11
7.366871138353762
 21
6.110201999999999
 31
0.0
  0
LINE
  5
4A3
330
341
100
AcDbEntity
  8
CYAN
100
AcDbLine
 10
6.361954138353763
 20
6.422017999999999
 30
0.0
 11
7.646966099696942
 21
6.247466930794704
 31
0.0
  0
LINE
  5
4A4
330
341
100
AcDbEntity
  8
CYAN
100
AcDbLine
 10
9.384038138353766
 20
7.844036999999998
 30
0.0
 11
9.235956138353763
 21
7.714222999999998
 31
0.0
  0
LINE
  5
4A5
330
341
100
AcDbEntity
  8
CYAN
100
AcDbLine
 10
9.641236138353763
 20
7.775228999999998
 30
0.0
 11
9.749938138353762
 21
7.750709999999999
 31
0.0
  0
LINE
  5
4A6
330
341
100
AcDbEntity
  8
CYAN
100
AcDbLine
 10
9.405471138353762
 20
7.660549999999999
 30
0.0
 11
9.641236138353763
 21
7.775228999999998
 31
0.0
  0
LINE
  5
4A7
330
341
100
AcDbEntity
  8
CYAN
100
AcDbLine
 10
9.132357138353762
 20
7.703386
 30
0.0
 11
8.928059138353765
 21
7.731563999999999
 31
0.0
  0
LINE
  5
4A8
330
341
100
AcDbEntity
  8
CYAN
100
AcDbLine
 10
9.384038138353766
 20
7.614678999999999
 30
0.0
 11
9.132357138353762
 21
7.703386
 31
0.0
  0
LINE
  5
4A9
330
341
100
AcDbEntity
  8
CYAN
100
AcDbLine
 10
9.769835138353762
 20
7.362384999999997
 30
0.0
 11
9.384038138353766
 21
7.614678999999999
 31
0.0
  0
LINE
  5
4AA
330
341
100
AcDbEntity
  8
CYAN
100
AcDbLine
 10
9.843868138353762
 20
7.238160999999998
 30
0.0
 11
9.769835138353762
 21
7.362384999999997
 31
0.0
  0
LINE
  5
4AB
330
341
100
AcDbEntity
  8
BLUE
100
AcDbLine
 10
10.13630813835376
 20
6.883129
 30
0.0
 11
9.751243138353762
 21
6.736124
 31
0.0
  0
LINE
  5
4AC
330
341
100
AcDbEntity
  8
GREEN
100
AcDbLine
 10
2.332508138353766
 20
3.738532
 30
0.0
 11
2.503974138353764
 21
3.830274999999998
 31
0.0
  0
LINE
  5
4AD
330
341
100
AcDbEntity
  8
GREEN
100
AcDbLine
 10
2.139609138353764
 20
3.784403999999998
 30
0.0
 11
2.332508138353766
 21
3.738532
 31
0.0
  0
LINE
  5
4AE
330
341
100
AcDbEntity
  8
GREEN
100
AcDbLine
 10
2.289642138353766
 20
3.876146999999999
 30
0.0
 11
2.139609138353764
 21
3.784403999999998
 31
0.0
  0
LINE
  5
4AF
330
341
100
AcDbEntity
  8
GREEN
100
AcDbLine
 10
2.505665138353764
 20
3.829669999999999
 30
0.0
 11
2.289642138353766
 21
3.876146999999999
 31
0.0
  0
LINE
  5
4B0
330
341
100
AcDbEntity
  8
GREEN
100
AcDbLine
 10
2.632573138353763
 20
3.646789
 30
0.0
 11
2.804039138353764
 21
3.738532
 31
0.0
  0
LINE
  5
4B1
330
341
100
AcDbEntity
  8
GREEN
100
AcDbLine
 10
2.408414138353765
 20
3.705607
 30
0.0
 11
2.632573138353763
 21
3.646789
 31
0.0
  0
LINE
  5
4B2
330
341
100
AcDbEntity
  8
GREEN
100
AcDbLine
 10
2.562816138353762
 20
3.799383999999998
 30
0.0
 11
2.408414138353765
 21
3.705607
 31
0.0
  0
LINE
  5
4B3
330
341
100
AcDbEntity
  8
GREEN
100
AcDbLine
 10
2.802153138353765
 20
3.738418999999999
 30
0.0
 11
2.562816138353762
 21
3.799383999999998
 31
0.0
  0
LINE
  5
4B4
330
341
100
AcDbEntity
  8
BLUE
100
AcDbLine
 10
1.496613138353763
 20
3.692661
 30
0.0
 11
1.603779138353764
 21
3.761467999999999
 31
0.0
  0
LINE
  5
4B5
330
341
100
AcDbEntity
  8
BLUE
100
AcDbLine
 10
1.410880138353763
 20
3.623852999999999
 30
0.0
 11
1.496613138353763
 21
3.692661
 31
0.0
  0
LINE
  5
4B6
330
341
100
AcDbEntity
  8
BLUE
100
AcDbLine
 10
1.346580138353764
 20
3.486238999999998
 30
0.0
 11
1.410880138353763
 21
3.623852999999999
 31
0.0
  0
LINE
  5
4B7
330
341
100
AcDbEntity
  8
WHITE
100
AcDbLine
 10
1.078649138353763
 20
3.098075999999998
 30
0.0
 11
1.346580138353764
 21
3.486238999999998
 31
0.0
  0
LINE
  5
4B8
330
341
100
AcDbEntity
  8
RED
100
AcDbLine
 10
2.375375138353764
 20
1.536697
 30
0.0
 11
1.518046138353764
 21
1.100916999999999
 31
0.0
  0
LINE
  5
4B9
330
341
100
AcDbEntity
  8
RED
100
AcDbLine
 10
2.589707138353764
 20
1.605504999999999
 30
0.0
 11
2.375375138353764
 21
1.536697
 31
0.0
  0
LINE
  5
4BA
330
341
100
AcDbEntity
  8
RED
100
AcDbLine
 10
2.825472138353764
 20
1.605504999999999
 30
0.0
 11
2.589707138353764
 21
1.605504999999999
 31
0.0
  0
LINE
  5
4BB
330
341
100
AcDbEntity
  8
RED
100
AcDbLine
 10
3.125537138353764
 20
1.605504999999999
 30
0.0
 11
2.825472138353764
 21
1.605504999999999
 31
0.0
  0
LINE
  5
4BC
330
341
100
AcDbEntity
  8
YELLOW
100
AcDbLine
 10
3.918566138353764
 20
2.041284
 30
0.0
 11
3.125537138353764
 21
1.605504999999999
 31
0.0
  0
LINE
  5
4BD
330
341
100
AcDbEntity
  8
YELLOW
100
AcDbLine
 10
5.761823138353764
 20
3.394494999999999
 30
0.0
 11
3.918566138353764
 21
2.041284
 31
0.0
  0
LINE
  5
4BE
330
341
100
AcDbEntity
  8
YELLOW
100
AcDbLine
 10
5.997589138353764
 20
3.509173999999998
 30
0.0
 11
5.761823138353764
 21
3.394494999999999
 31
0.0
  0
LINE
  5
4BF
330
341
100
AcDbEntity
  8
RED
100
AcDbLine
 10
2.311075138353765
 20
1.376147
 30
0.0
 11
1.560912138353764
 21
1.009174
 31
0.0
  0
LINE
  5
4C0
330
341
100
AcDbEntity
  8
RED
100
AcDbLine
 10
2.654007138353764
 20
1.513760999999999
 30
0.0
 11
2.311075138353765
 21
1.376147
 31
0.0
  0
LINE
  5
4C1
330
341
100
AcDbEntity
  8
RED
100
AcDbLine
 10
2.825472138353764
 20
1.536697
 30
0.0
 11
2.654007138353764
 21
1.513760999999999
 31
0.0
  0
LINE
  5
4C2
330
341
100
AcDbEntity
  8
RED
100
AcDbLine
 10
3.082671138353764
 20
1.582568999999999
 30
0.0
 11
2.825472138353764
 21
1.536697
 31
0.0
  0
LINE
  5
4C3
330
341
100
AcDbEntity
  8
YELLOW
100
AcDbLine
 10
3.940000138353764
 20
2.041284
 30
0.0
 11
3.082671138353764
 21
1.582568999999999
 31
0.0
  0
LINE
  5
4C4
330
341
100
AcDbEntity
  8
YELLOW
100
AcDbLine
 10
5.826123138353764
 20
3.348623999999999
 30
0.0
 11
3.940000138353764
 21
2.041284
 31
0.0
  0
LINE
  5
4C5
330
341
100
AcDbEntity
  8
YELLOW
100
AcDbLine
 10
6.029322138353764
 20
3.468367999999999
 30
0.0
 11
5.826123138353764
 21
3.348623999999999
 31
0.0
  0
LINE
  5
4C6
330
341
100
AcDbEntity
  8
YELLOW
100
AcDbLine
 10
3.875700138353765
 20
1.972476999999998
 30
0.0
 11
1.818111138353764
 21
0.917431
 31
0.0
  0
LINE
  5
4C7
330
341
100
AcDbEntity
  8
YELLOW
100
AcDbLine
 10
4.090032138353763
 20
2.06422
 30
0.0
 11
3.875700138353765
 21
1.972476999999998
 31
0.0
  0
LINE
  5
4C8
330
341
100
AcDbEntity
  8
YELLOW
100
AcDbLine
 10
5.868989138353764
 20
3.325687999999999
 30
0.0
 11
4.090032138353763
 21
2.06422
 31
0.0
  0
LINE
  5
4C9
330
341
100
AcDbEntity
  8
YELLOW
100
AcDbLine
 10
6.053339138353766
 20
3.426605999999999
 30
0.0
 11
5.868989138353764
 21
3.325687999999999
 31
0.0
  0
LINE
  5
4CA
330
341
100
AcDbEntity
  8
YELLOW
100
AcDbLine
 10
5.721280819239048
 20
2.911669634332478
 30
0.0
 11
1.818111138353764
 21
0.802752
 31
0.0
  0
LINE
  5
4CB
330
341
100
AcDbEntity
  8
YELLOW
100
AcDbLine
 10
6.104374138353763
 20
3.371992999999999
 30
0.0
 11
5.960275138353765
 21
3.278828999999999
 31
0.0
  0
LINE
  5
4CC
330
341
100
AcDbEntity
  8
YELLOW
100
AcDbLine
 10
5.933289138353766
 20
3.302751999999999
 30
0.0
 11
6.150027183200179
 21
3.103954473432548
 31
0.0
  0
LINE
  5
4CD
330
341
100
AcDbEntity
  8
YELLOW
100
AcDbLine
 10
5.585017138353764
 20
3.455518
 30
0.0
 11
5.933289138353766
 21
3.302751999999999
 31
0.0
  0
LINE
  5
4CE
330
341
100
AcDbEntity
  8
WHITE
100
AcDbLine
 10
5.957993138353764
 20
3.622568999999999
 30
0.0
 11
5.585017138353764
 21
3.455518
 31
0.0
  0
LINE
  5
4CF
330
341
100
AcDbEntity
  8
WHITE
100
AcDbLine
 10
2.075310138353763
 20
1.399083
 30
0.0
 11
1.668078138353765
 21
1.215595999999999
 31
0.0
  0
LINE
  5
4D0
330
341
100
AcDbEntity
  8
WHITE
100
AcDbLine
 10
1.903844138353765
 20
1.651375999999999
 30
0.0
 11
2.075310138353763
 21
1.399083
 31
0.0
  0
LINE
  5
4D1
330
341
100
AcDbEntity
  8
WHITE
100
AcDbLine
 10
1.518046138353764
 20
1.444954
 30
0.0
 11
1.903844138353765
 21
1.651375999999999
 31
0.0
  0
LINE
  5
4D2
330
341
100
AcDbEntity
  8
WHITE
100
AcDbLine
 10
1.668078138353765
 20
1.215595999999999
 30
0.0
 11
1.518046138353764
 21
1.444954
 31
0.0
  0
LINE
  5
4D3
330
341
100
AcDbEntity
  8
WHITE
100
AcDbLine
 10
1.753811138353766
 20
1.720183
 30
0.0
 11
1.495413138353764
 21
1.604135
 31
0.0
  0
LINE
  5
4D4
330
341
100
AcDbEntity
  8
WHITE
100
AcDbLine
 10
1.668078138353765
 20
1.834862
 30
0.0
 11
1.753811138353766
 21
1.720183
 31
0.0
  0
LINE
  5
4D5
330
341
100
AcDbEntity
  8
WHITE
100
AcDbLine
 10
1.560912138353764
 20
1.903669999999999
 30
0.0
 11
1.668078138353765
 21
1.834862
 31
0.0
  0
LINE
  5
4D6
330
341
100
AcDbEntity
  8
WHITE
100
AcDbLine
 10
1.325147138353764
 20
1.720183
 30
0.0
 11
1.560912138353764
 21
1.903669999999999
 31
0.0
  0
LINE
  5
4D7
330
341
100
AcDbEntity
  8
WHITE
100
AcDbLine
 10
1.496613138353763
 20
1.605504999999999
 30
0.0
 11
1.325147138353764
 21
1.720183
 31
0.0
  0
LINE
  5
4D8
330
341
100
AcDbEntity
  8
WHITE
100
AcDbLine
 10
3.318436138353764
 20
2.752294
 30
0.0
 11
1.325147138353764
 21
1.536697
 31
0.0
  0
LINE
  5
4D9
330
341
100
AcDbEntity
  8
WHITE
100
AcDbLine
 10
3.425602138353764
 20
2.431192999999999
 30
0.0
 11
3.468469138353763
 21
2.637614999999999
 31
0.0
  0
LINE
  5
4DA
330
341
100
AcDbEntity
  8
WHITE
100
AcDbLine
 10
3.361303138353764
 20
2.133027999999999
 30
0.0
 11
3.425602138353764
 21
2.431192999999999
 31
0.0
  0
LINE
  5
4DB
330
341
100
AcDbEntity
  8
WHITE
100
AcDbLine
 10
4.540130138353764
 20
2.591743
 30
0.0
 11
3.452151138353764
 21
2.048176999999999
 31
0.0
  0
LINE
  5
4DC
330
341
100
AcDbEntity
  8
WHITE
100
AcDbLine
 10
2.868339138353766
 20
2.178898999999999
 30
0.0
 11
1.239414138353764
 21
1.330275
 31
0.0
  0
LINE
  5
4DD
330
341
100
AcDbEntity
  8
WHITE
100
AcDbLine
 10
3.211270138353763
 20
1.766054999999998
 30
0.0
 11
2.868339138353766
 21
2.178898999999999
 31
0.0
  0
LINE
  5
4DE
330
341
100
AcDbEntity
  8
WHITE
100
AcDbLine
 10
4.582996138353764
 20
2.614679
 30
0.0
 11
3.211270138353763
 21
1.766054999999998
 31
0.0
  0
LINE
  5
4DF
330
341
100
AcDbEntity
  8
WHITE
100
AcDbLine
 10
5.894229138353765
 20
3.715733
 30
0.0
 11
4.582996138353764
 21
2.614679
 31
0.0
  0
LINE
  5
4E0
330
341
100
AcDbEntity
  8
WHITE
100
AcDbLine
 10
5.789157138353765
 20
3.947033999999998
 30
0.0
 11
4.561563138353764
 21
2.614679
 31
0.0
  0
LINE
  5
4E1
330
341
100
AcDbEntity
  8
WHITE
100
AcDbLine
 10
5.744126138353764
 20
4.056259999999999
 30
0.0
 11
4.540130138353764
 21
2.591743
 31
0.0
  0
LINE
  5
4E2
330
341
100
AcDbEntity
  8
RED
100
AcDbLine
 10
1.260847138353764
 20
3.348623999999999
 30
0.0
 11
1.282192138353765
 21
3.303691
 31
0.0
  0
LINE
  5
4E3
330
341
100
AcDbEntity
  8
RED
100
AcDbLine
 10
1.196548138353765
 20
3.256880999999999
 30
0.0
 11
1.260847138353764
 21
3.348623999999999
 31
0.0
  0
LINE
  5
4E4
330
341
100
AcDbEntity
  8
RED
100
AcDbLine
 10
1.196548138353765
 20
3.165137999999999
 30
0.0
 11
1.196548138353765
 21
3.256880999999999
 31
0.0
  0
LINE
  5
4E5
330
341
100
AcDbEntity
  8
RED
100
AcDbLine
 10
1.282280138353764
 20
3.302751999999999
 30
0.0
 11
1.196548138353765
 21
3.165137999999999
 31
0.0
  0
LINE
  5
4E6
330
341
100
AcDbEntity
  8
RED
100
AcDbLine
 10
1.346580138353764
 20
3.165137999999999
 30
0.0
 11
1.260847138353764
 21
3.027522999999999
 31
0.0
  0
LINE
  5
4E7
330
341
100
AcDbEntity
  8
RED
100
AcDbLine
 10
1.282280138353764
 20
3.233944999999999
 30
0.0
 11
1.346580138353764
 21
3.165137999999999
 31
0.0
  0
LINE
  5
4E8
330
341
100
AcDbEntity
  8
RED
100
AcDbLine
 10
1.153681138353764
 20
3.073393999999999
 30
0.0
 11
1.282280138353764
 21
3.233944999999999
 31
0.0
  0
LINE
  5
4E9
330
341
100
AcDbEntity
  8
RED
100
AcDbLine
 10
1.259396138353764
 20
3.030119
 30
0.0
 11
1.153681138353764
 21
3.073393999999999
 31
0.0
  0
LINE
  5
4EA
330
341
100
AcDbEntity
  8
RED
100
AcDbLine
 10
1.368013138353765
 20
3.09633
 30
0.0
 11
1.453746138353764
 21
2.958715999999999
 31
0.0
  0
LINE
  5
4EB
330
341
100
AcDbEntity
  8
RED
100
AcDbLine
 10
1.303714138353764
 20
3.004586999999999
 30
0.0
 11
1.368013138353765
 21
3.09633
 31
0.0
  0
LINE
  5
4EC
330
341
100
AcDbEntity
  8
RED
100
AcDbLine
 10
1.346580138353764
 20
2.775228999999999
 30
0.0
 11
1.303714138353764
 21
3.004586999999999
 31
0.0
  0
LINE
  5
4ED
330
341
100
AcDbEntity
  8
RED
100
AcDbLine
 10
1.410880138353763
 20
2.775228999999999
 30
0.0
 11
1.346580138353764
 21
2.775228999999999
 31
0.0
  0
LINE
  5
4EE
330
341
100
AcDbEntity
  8
RED
100
AcDbLine
 10
1.453746138353764
 20
2.958715999999999
 30
0.0
 11
1.410880138353763
 21
2.775228999999999
 31
0.0
  0
LINE
  5
4EF
330
341
100
AcDbEntity
  8
BLUE
100
AcDbLine
 10
1.668078138353765
 20
3.073393999999999
 30
0.0
 11
1.432313138353763
 21
2.683485999999999
 31
0.0
  0
LINE
  5
4F0
330
341
100
AcDbEntity
  8
RED
100
AcDbLine
 10
1.839544138353764
 20
2.889908
 30
0.0
 11
2.053876138353763
 21
2.866972
 31
0.0
  0
LINE
  5
4F1
330
341
100
AcDbEntity
  8
RED
100
AcDbLine
 10
1.689512138353763
 20
2.729358
 30
0.0
 11
1.839544138353764
 21
2.889908
 31
0.0
  0
LINE
  5
4F2
330
341
100
AcDbEntity
  8
RED
100
AcDbLine
 10
1.753811138353766
 20
2.66055
 30
0.0
 11
1.689512138353763
 21
2.729358
 31
0.0
  0
LINE
  5
4F3
330
341
100
AcDbEntity
  8
RED
100
AcDbLine
 10
2.075310138353763
 20
2.706421999999999
 30
0.0
 11
1.753811138353766
 21
2.66055
 31
0.0
  0
LINE
  5
4F4
330
341
100
AcDbEntity
  8
RED
100
AcDbLine
 10
2.053876138353763
 20
2.866972
 30
0.0
 11
2.075310138353763
 21
2.706421999999999
 31
0.0
  0
LINE
  5
4F5
330
341
100
AcDbEntity
  8
RED
100
AcDbLine
 10
2.161042138353765
 20
2.866972
 30
0.0
 11
2.417149138353764
 21
2.890718999999998
 31
0.0
  0
LINE
  5
4F6
330
341
100
AcDbEntity
  8
RED
100
AcDbLine
 10
2.182476138353764
 20
2.706421999999999
 30
0.0
 11
2.161042138353765
 21
2.866972
 31
0.0
  0
LINE
  5
4F7
330
341
100
AcDbEntity
  8
RED
100
AcDbLine
 10
2.546840138353764
 20
2.706421999999999
 30
0.0
 11
2.182476138353764
 21
2.706421999999999
 31
0.0
  0
LINE
  5
4F8
330
341
100
AcDbEntity
  8
RED
100
AcDbLine
 10
2.418241138353764
 20
2.889908
 30
0.0
 11
2.546840138353764
 21
2.706421999999999
 31
0.0
  0
LINE
  5
4F9
330
341
100
AcDbEntity
  8
RED
100
AcDbLine
 10
2.804039138353764
 20
2.889908
 30
0.0
 11
2.696873138353764
 21
3.027522999999999
 31
0.0
  0
LINE
  5
4FA
330
341
100
AcDbEntity
  8
RED
100
AcDbLine
 10
2.611140138353763
 20
2.729358
 30
0.0
 11
2.804039138353764
 21
2.889908
 31
0.0
  0
LINE
  5
4FB
330
341
100
AcDbEntity
  8
RED
100
AcDbLine
 10
2.525407138353764
 20
2.958715999999999
 30
0.0
 11
2.611140138353763
 21
2.729358
 31
0.0
  0
LINE
  5
4FC
330
341
100
AcDbEntity
  8
RED
100
AcDbLine
 10
2.697225138353764
 20
3.026634
 30
0.0
 11
2.525407138353764
 21
2.958715999999999
 31
0.0
  0
LINE
  5
4FD
330
341
100
AcDbEntity
  8
BLUE
100
AcDbLine
 10
3.789967138353763
 20
2.729358
 30
0.0
 11
5.678081138353764
 21
4.210460999999999
 31
0.0
  0
LINE
  5
4FE
330
341
100
AcDbEntity
  8
BLUE
100
AcDbLine
 10
1.668078138353765
 20
3.073393999999999
 30
0.0
 11
3.063672138353766
 21
3.214526999999999
 31
0.0
  0
LINE
  5
4FF
330
341
100
AcDbEntity
  8
BLUE
100
AcDbLine
 10
1.353840138353765
 20
3.498851
 30
0.0
 11
1.668078138353765
 21
3.073393999999999
 31
0.0
  0
LINE
  5
500
330
341
100
AcDbEntity
  8
BLUE
100
AcDbLine
 10
2.501782138353763
 20
3.288152999999998
 30
0.0
 11
3.166877138353764
 21
3.410864
 31
0.0
  0
LINE
  5
501
330
341
100
AcDbEntity
  8
BLUE
100
AcDbLine
 10
1.796678138353765
 20
3.233944999999999
 30
0.0
 11
2.501782138353763
 21
3.288152999999998
 31
0.0
  0
LINE
  5
502
330
341
100
AcDbEntity
  8
BLUE
100
AcDbLine
 10
1.466196138353764
 20
3.666130999999999
 30
0.0
 11
1.796678138353765
 21
3.233944999999999
 31
0.0
  0
LINE
  5
503
330
341
100
AcDbEntity
  8
BLUE
100
AcDbLine
 10
1.689512138353763
 20
3.165137999999999
 30
0.0
 11
1.407575138353764
 21
3.610370999999999
 31
0.0
  0
LINE
  5
504
330
341
100
AcDbEntity
  8
BLUE
100
AcDbLine
 10
2.467380138353763
 20
3.226798
 30
0.0
 11
1.689512138353763
 21
3.165137999999999
 31
0.0
  0
LINE
  5
505
330
341
100
AcDbEntity
  8
BLUE
100
AcDbLine
 10
3.138044138353763
 20
3.358490999999999
 30
0.0
 11
2.467380138353763
 21
3.226798
 31
0.0
  0
LINE
  5
506
330
341
100
AcDbEntity
  8
BLUE
100
AcDbLine
 10
3.658334138353764
 20
2.993240999999999
 30
0.0
 11
3.515983138353766
 21
3.210139999999999
 31
0.0
  0
LINE
  5
507
330
341
100
AcDbEntity
  8
BLUE
100
AcDbLine
 10
5.590358138353765
 20
4.220182999999999
 30
0.0
 11
3.832834138353764
 21
2.889908
 31
0.0
  0
LINE
  5
508
330
341
100
AcDbEntity
  8
BLUE
100
AcDbLine
 10
5.418892138353764
 20
4.610091999999998
 30
0.0
 11
3.661368138353764
 21
3.348623999999999
 31
0.0
  0
LINE
  5
509
330
341
100
AcDbEntity
  8
BLUE
100
AcDbLine
 10
3.768534138353763
 20
3.211008999999999
 30
0.0
 11
3.661368138353764
 21
3.348623999999999
 31
0.0
  0
LINE
  5
50A
330
341
100
AcDbEntity
  8
BLUE
100
AcDbLine
 10
3.811400138353766
 20
3.09633
 30
0.0
 11
3.768534138353763
 21
3.211008999999999
 31
0.0
  0
LINE
  5
50B
330
341
100
AcDbEntity
  8
BLUE
100
AcDbLine
 10
5.589234138353765
 20
4.283526
 30
0.0
 11
3.811400138353766
 21
3.09633
 31
0.0
  0
LINE
  5
50C
330
341
100
AcDbEntity
  8
BLUE
100
AcDbLine
 10
4.925928138353763
 20
5.527523
 30
0.0
 11
2.626359138353763
 21
3.890035999999999
 31
0.0
  0
LINE
  5
50D
330
341
100
AcDbEntity
  8
BLUE
100
AcDbLine
 10
3.768534138353763
 20
3.211008999999999
 30
0.0
 11
5.461758138353764
 21
4.449540999999999
 31
0.0
  0
LINE
  5
50E
330
341
100
AcDbEntity
  8
BLUE
100
AcDbLine
 10
3.073679138353763
 20
3.466222999999999
 30
0.0
 11
3.191770138353764
 21
3.497280999999999
 31
0.0
  0
LINE
  5
50F
330
341
100
AcDbEntity
  8
BLUE
100
AcDbLine
 10
2.525407138353764
 20
3.348623999999999
 30
0.0
 11
3.073679138353763
 21
3.466222999999999
 31
0.0
  0
LINE
  5
510
330
341
100
AcDbEntity
  8
BLUE
100
AcDbLine
 10
1.860977138353764
 20
3.325687999999999
 30
0.0
 11
2.525407138353764
 21
3.348623999999999
 31
0.0
  0
LINE
  5
511
330
341
100
AcDbEntity
  8
BLUE
100
AcDbLine
 10
1.560912138353764
 20
3.692661
 30
0.0
 11
1.860977138353764
 21
3.325687999999999
 31
0.0
  0
LINE
  5
512
330
341
100
AcDbEntity
  8
BLUE
100
AcDbLine
 10
1.603779138353764
 20
3.761467999999999
 30
0.0
 11
1.560912138353764
 21
3.692661
 31
0.0
  0
LINE
  5
513
330
341
100
AcDbEntity
  8
BLUE
100
AcDbLine
 10
4.821290138353765
 20
5.802163
 30
0.0
 11
1.603779138353764
 21
3.761467999999999
 31
0.0
  0
CIRCLE
  5
514
330
341
100
AcDbEntity
  8
RED
100
AcDbCircle
 10
7.967882138353765
 20
4.936944
 30
0.0
 40
0.066113
  0
CIRCLE
  5
515
330
341
100
AcDbEntity
  8
RED
100
AcDbCircle
 10
8.508629138353764
 20
4.83945
 30
0.0
 40
0.065119
  0
ARC
  5
516
330
341
100
AcDbEntity
  8
RED
100
AcDbCircle
 10
7.371233138353765
 20
4.474196
 30
0.0
 40
0.217288
100
AcDbArc
 50
38.71278199999999
 51
286.6839999999999
  0
ARC
  5
517
330
341
100
AcDbEntity
  8
MAGENTA
100
AcDbCircle
 10
9.173758138353763
 20
6.959141999999999
 30
0.0
 40
0.195698
100
AcDbArc
 50
328.811282
 51
117.309548
  0
LINE
  5
518
330
341
100
AcDbEntity
  8
GREEN
100
AcDbLine
 10
7.926267138353765
 20
5.912455999999998
 30
0.0
 11
5.589234138353765
 21
4.283526
 31
0.0
  0
LINE
  5
519
330
341
100
AcDbEntity
  8
CYAN
100
AcDbLine
 10
5.568924138353763
 20
4.311926999999998
 30
0.0
 11
7.916541138353764
 21
5.913611999999999
 31
0.0
  0
LINE
  5
51A
330
341
100
AcDbEntity
  8
CYAN
100
AcDbLine
 10
7.776546138353762
 20
5.917430999999998
 30
0.0
 11
5.504625138353764
 21
4.380733999999999
 31
0.0
  0
LINE
  5
51B
330
341
100
AcDbEntity
  8
CYAN
100
AcDbLine
 10
7.926267138353765
 20
5.912455999999998
 30
0.0
 11
7.776546138353762
 21
5.917430999999998
 31
0.0
  0
LINE
  5
51C
330
341
100
AcDbEntity
  8
GREEN
100
AcDbLine
 10
5.483192138353764
 20
4.426605999999999
 30
0.0
 11
7.854938138353762
 21
6.068583999999999
 31
0.0
  0
LINE
  5
51D
330
341
100
AcDbEntity
  8
CYAN
100
AcDbLine
 10
5.702504138353765
 20
4.577821
 30
0.0
 11
5.441834138353764
 21
4.66439
 31
0.0
  0
LINE
  5
51E
330
341
100
AcDbEntity
  8
CYAN
100
AcDbLine
 10
5.773925138353765
 20
4.762521999999998
 30
0.0
 11
5.461758138353764
 21
4.541283999999999
 31
0.0
  0
LINE
  5
51F
330
341
100
AcDbEntity
  8
CYAN
100
AcDbLine
 10
5.657865138353765
 20
4.816658999999999
 30
0.0
 11
5.773925138353765
 21
4.762521999999998
 31
0.0
  0
LINE
  5
520
330
341
100
AcDbEntity
  8
RED
100
AcDbLine
 10
5.823027138353763
 20
4.660618
 30
0.0
 11
5.726311138353764
 21
4.867611
 31
0.0
  0
LINE
  5
521
330
341
100
AcDbEntity
  8
CYAN
100
AcDbLine
 10
5.906352138353764
 20
4.850095999999998
 30
0.0
 11
6.050682138353765
 21
4.818251
 31
0.0
  0
LINE
  5
522
330
341
100
AcDbEntity
  8
CYAN
100
AcDbLine
 10
5.906352138353764
 20
4.850095999999998
 30
0.0
 11
5.783257138353761
 21
4.908256999999998
 31
0.0
  0
LINE
  5
523
330
341
100
AcDbEntity
  8
CYAN
100
AcDbLine
 10
6.073001138353764
 20
4.967921999999998
 30
0.0
 11
6.211921138353765
 21
4.931193
 31
0.0
  0
LINE
  5
524
330
341
100
AcDbEntity
  8
CYAN
100
AcDbLine
 10
6.447686138353764
 20
5.091743
 30
0.0
 11
6.187572138353766
 21
5.155808
 31
0.0
  0
LINE
  5
525
330
341
100
AcDbEntity
  8
CYAN
100
AcDbLine
 10
6.379508138353766
 20
5.291072999999999
 30
0.0
 11
6.613989138353765
 21
5.207696999999999
 31
0.0
  0
LINE
  5
526
330
341
100
AcDbEntity
  8
CYAN
100
AcDbLine
 10
6.764897138353764
 20
5.314506999999998
 30
0.0
 11
6.521305138353763
 21
5.393343999999999
 31
0.0
  0
LINE
  5
527
330
341
100
AcDbEntity
  8
CYAN
100
AcDbLine
 10
6.927687138353764
 20
5.426403999999998
 30
0.0
 11
6.685284138353765
 21
5.509055
 31
0.0
  0
LINE
  5
528
330
341
100
AcDbEntity
  8
CYAN
100
AcDbLine
 10
6.991242138353764
 20
5.618039999999999
 30
0.0
 11
6.880653138353763
 21
5.646443999999998
 31
0.0
  0
LINE
  5
529
330
341
100
AcDbEntity
  8
CYAN
100
AcDbLine
 10
7.138842138353765
 20
5.572108999999999
 30
0.0
 11
6.991242138353764
 21
5.618039999999999
 31
0.0
  0
LINE
  5
52A
330
341
100
AcDbEntity
  8
RED
100
AcDbLine
 10
7.176278138353763
 20
5.59806
 30
0.0
 11
7.104634138353764
 21
5.802203999999998
 31
0.0
  0
LINE
  5
52B
330
341
100
AcDbEntity
  8
CYAN
100
AcDbLine
 10
7.533625138353762
 20
5.842145999999999
 30
0.0
 11
7.205692138353764
 21
5.899394
 31
0.0
  0
LINE
  5
52C
330
341
100
AcDbEntity
  8
RED
100
AcDbLine
 10
7.533625138353762
 20
5.842145999999999
 30
0.0
 11
7.420598138353764
 21
6.030807
 31
0.0
  0
LINE
  5
52D
330
341
100
AcDbEntity
  8
RED
100
AcDbLine
 10
7.498629138353765
 20
6.077348999999999
 30
0.0
 11
7.596123138353764
 21
5.886732
 31
0.0
  0
LINE
  5
52E
330
341
100
AcDbEntity
  8
CYAN
100
AcDbLine
 10
7.785765138353764
 20
6.018144999999999
 30
0.0
 11
7.498629138353765
 21
6.077348999999999
 31
0.0
  0
LINE
  5
52F
330
341
100
AcDbEntity
  8
CYAN
100
AcDbLine
 10
6.919217138353764
 20
6.582569
 30
0.0
 11
6.897353138353763
 21
6.678919999999998
 31
0.0
  0
LINE
  5
530
330
341
100
AcDbEntity
  8
CYAN
100
AcDbLine
 10
7.173940138353763
 20
6.654675
 30
0.0
 11
6.741271138353765
 21
6.692575999999998
 31
0.0
  0
LINE
  5
531
330
341
100
AcDbEntity
  8
CYAN
100
AcDbLine
 10
5.147676138353764
 20
5.485446999999998
 30
0.0
 11
5.116454138353764
 21
5.575655
 31
0.0
  0
LINE
  5
532
330
341
100
AcDbEntity
  8
CYAN
100
AcDbLine
 10
5.357972138353765
 20
5.627915999999999
 30
0.0
 11
5.325306138353765
 21
5.723247999999999
 31
0.0
  0
LINE
  5
533
330
341
100
AcDbEntity
  8
CYAN
100
AcDbLine
 10
5.548025138353764
 20
5.755025999999999
 30
0.0
 11
5.521299138353763
 21
5.856714
 31
0.0
  0
LINE
  5
534
330
341
100
AcDbEntity
  8
CYAN
100
AcDbLine
 10
5.714322138353765
 20
5.869425999999998
 30
0.0
 11
5.676091138353764
 21
5.963302999999998
 31
0.0
  0
LINE
  5
535
330
341
100
AcDbEntity
  8
CYAN
100
AcDbLine
 10
5.909086138353766
 20
6.000708
 30
0.0
 11
5.872166138353763
 21
6.087664
 31
0.0
  0
LINE
  5
536
330
341
100
AcDbEntity
  8
CYAN
100
AcDbLine
 10
6.099773138353764
 20
6.134304
 30
0.0
 11
6.069518138353764
 21
6.234714999999999
 31
0.0
  0
LINE
  5
537
330
341
100
AcDbEntity
  8
CYAN
100
AcDbLine
 10
6.257539138353764
 20
6.239088999999998
 30
0.0
 11
6.239207138353764
 21
6.345502999999999
 31
0.0
  0
LINE
  5
538
330
341
100
AcDbEntity
  8
CYAN
100
AcDbLine
 10
6.426253138353764
 20
6.467889999999999
 30
0.0
 11
6.469120138353765
 21
6.330275
 31
0.0
  0
LINE
  5
539
330
341
100
AcDbEntity
  8
CYAN
100
AcDbLine
 10
6.608851138353764
 20
6.595569
 30
0.0
 11
6.693370138353764
 21
6.273147999999999
 31
0.0
  0
LINE
  5
53A
330
341
100
AcDbEntity
  8
CYAN
100
AcDbLine
 10
7.118781750079217
 20
5.546809388566758
 30
0.0
 11
7.118257020017628
 21
5.548859818198563
 31
0.0
  0
LINE
  5
53B
330
341
100
AcDbEntity
  8
CYAN
100
AcDbLine
 10
7.428331394778306
 20
6.146290919258589
 30
0.0
 11
7.354857361920526
 21
6.498718336809009
 31
0.0
  0
LINE
  5
53C
330
341
100
AcDbEntity
  8
CYAN
100
AcDbLine
 10
7.854938138353762
 20
6.068583999999999
 30
0.0
 11
7.088964138353763
 21
6.727420999999999
 31
0.0
  0
LINE
  5
53D
330
341
100
AcDbEntity
  8
CYAN
100
AcDbLine
 10
5.011661138353764
 20
5.389908
 30
0.0
 11
6.257539138353764
 21
6.239088999999998
 31
0.0
  0
LINE
  5
53E
330
341
100
AcDbEntity
  8
GREEN
100
AcDbLine
 10
6.812051138353765
 20
6.743119
 30
0.0
 11
4.968794138353763
 21
5.481651
 31
0.0
  0
LINE
  5
53F
330
341
100
AcDbEntity
  8
CYAN
100
AcDbLine
 10
6.794326138353763
 20
6.792467999999999
 30
0.0
 11
6.812051138353765
 21
6.743119
 31
0.0
  0
LINE
  5
540
330
341
100
AcDbEntity
  8
GREEN
100
AcDbLine
 10
4.925928138353763
 20
5.527523
 30
0.0
 11
6.794326138353763
 21
6.792467999999999
 31
0.0
  0
LINE
  5
541
330
341
100
AcDbEntity
  8
CYAN
100
AcDbLine
 10
5.422425138353764
 20
6.203767
 30
0.0
 11
4.807362138353764
 21
6.327384999999999
 31
0.0
  0
LINE
  5
542
330
341
100
AcDbEntity
  8
CYAN
100
AcDbLine
 10
5.333159138353765
 20
6.261467999999998
 30
0.0
 11
5.350615138353765
 21
6.457684999999998
 31
0.0
  0
LINE
  5
543
330
341
100
AcDbEntity
  8
CYAN
100
AcDbLine
 10
5.225993138353763
 20
6.353210999999999
 30
0.0
 11
5.268859138353764
 21
6.261467999999998
 31
0.0
  0
LINE
  5
544
330
341
100
AcDbEntity
  8
CYAN
100
AcDbLine
 10
5.225993138353763
 20
6.261467999999998
 30
0.0
 11
5.225993138353763
 21
6.353210999999999
 31
0.0
  0
LINE
  5
545
330
341
100
AcDbEntity
  8
CYAN
100
AcDbLine
 10
5.118827138353764
 20
6.330275
 30
0.0
 11
5.125821138353764
 21
6.494436
 31
0.0
  0
LINE
  5
546
330
341
100
AcDbEntity
  8
CYAN
100
AcDbLine
 10
5.032156138353766
 20
6.400888
 30
0.0
 11
5.075960138353764
 21
6.307338999999998
 31
0.0
  0
LINE
  5
547
330
341
100
AcDbEntity
  8
CYAN
100
AcDbLine
 10
5.011661138353764
 20
6.307338999999998
 30
0.0
 11
5.032156138353766
 21
6.400888
 31
0.0
  0
LINE
  5
548
330
341
100
AcDbEntity
  8
CYAN
100
AcDbLine
 10
4.968794138353763
 20
6.513760999999998
 30
0.0
 11
5.005322138353764
 21
6.424507
 31
0.0
  0
LINE
  5
549
330
341
100
AcDbEntity
  8
CYAN
100
AcDbLine
 10
4.925928138353763
 20
6.376146999999999
 30
0.0
 11
4.968794138353763
 21
6.513760999999998
 31
0.0
  0
LINE
  5
54A
330
341
100
AcDbEntity
  8
CYAN
100
AcDbLine
 10
4.935370138353763
 20
6.300657
 30
0.0
 11
4.968794138353763
 21
6.192661
 31
0.0
  0
LINE
  5
54B
330
341
100
AcDbEntity
  8
CYAN
100
AcDbLine
 10
4.904148138353765
 20
6.217132
 30
0.0
 11
4.935370138353763
 21
6.300657
 31
0.0
  0
LINE
  5
54C
330
341
100
AcDbEntity
  8
CYAN
100
AcDbLine
 10
5.122699138353763
 20
6.267247
 30
0.0
 11
5.161693138353764
 21
6.123852999999999
 31
0.0
  0
LINE
  5
54D
330
341
100
AcDbEntity
  8
CYAN
100
AcDbLine
 10
5.092491138353763
 20
6.149850999999999
 30
0.0
 11
5.122699138353763
 21
6.267247
 31
0.0
  0
LINE
  5
54E
330
341
100
AcDbEntity
  8
CYAN
100
AcDbLine
 10
4.925928138353763
 20
5.963302999999998
 30
0.0
 11
4.944203138353764
 21
6.103972999999999
 31
0.0
  0
LINE
  5
54F
330
341
100
AcDbEntity
  8
YELLOW
100
AcDbLine
 10
4.775895138353766
 20
6.376146999999999
 30
0.0
 11
5.038401138353765
 21
5.949849999999999
 31
0.0
  0
LINE
  5
550
330
341
100
AcDbEntity
  8
YELLOW
100
AcDbLine
 10
4.949195138353764
 20
6.516334999999998
 30
0.0
 11
4.775895138353766
 21
6.376146999999999
 31
0.0
  0
LINE
  5
551
330
341
100
AcDbEntity
  8
CYAN
100
AcDbLine
 10
5.118827138353764
 20
6.490826
 30
0.0
 11
4.866683138353764
 21
6.233837
 31
0.0
  0
LINE
  5
552
330
341
100
AcDbEntity
  8
CYAN
100
AcDbLine
 10
4.944203138353764
 20
6.103972999999999
 30
0.0
 11
5.347493138353764
 21
6.464367
 31
0.0
  0
LINE
  5
553
330
341
100
AcDbEntity
  8
CYAN
100
AcDbLine
 10
5.734640138353764
 20
6.410910999999999
 30
0.0
 11
4.799229138353764
 21
6.537018999999999
 31
0.0
  0
LINE
  5
554
330
341
100
AcDbEntity
  8
CYAN
100
AcDbLine
 10
4.826095138353766
 20
6.628077
 30
0.0
 11
5.880981138353765
 21
6.508488999999999
 31
0.0
  0
LINE
  5
555
330
341
100
AcDbEntity
  8
GREEN
100
AcDbLine
 10
4.821290138353765
 20
5.802163
 30
0.0
 11
6.057624138353763
 21
6.626400999999999
 31
0.0
  0
LINE
  5
556
330
341
100
AcDbEntity
  8
YELLOW
100
AcDbLine
 10
4.478636138353764
 20
6.398649999999999
 30
0.0
 11
4.647264138353764
 21
6.581239
 31
0.0
  0
LINE
  5
557
330
341
100
AcDbEntity
  8
YELLOW
100
AcDbLine
 10
4.682742138353765
 20
6.628220999999999
 30
0.0
 11
4.474823138353763
 21
6.495487999999999
 31
0.0
  0
LINE
  5
558
330
341
100
AcDbEntity
  8
GREEN
100
AcDbLine
 10
4.861628138353764
 20
6.743119
 30
0.0
 11
4.682742138353765
 21
6.628220999999999
 31
0.0
  0
LINE
  5
559
330
341
100
AcDbEntity
  8
GREEN
100
AcDbLine
 10
6.057624138353763
 20
6.626400999999999
 30
0.0
 11
4.861628138353764
 21
6.743119
 31
0.0
  0
LINE
  5
55A
330
341
100
AcDbEntity
  8
GREEN
100
AcDbLine
 10
6.190488138353765
 20
6.720182999999999
 30
0.0
 11
6.057624138353763
 21
6.626400999999999
 31
0.0
  0
LINE
  5
55B
330
341
100
AcDbEntity
  8
CYAN
100
AcDbLine
 10
7.133768138353763
 20
7.843315999999997
 30
0.0
 11
7.249542138353763
 21
7.91495
 31
0.0
  0
LINE
  5
55C
330
341
100
AcDbEntity
  8
CYAN
100
AcDbLine
 10
9.555503138353765
 20
7.247705999999998
 30
0.0
 11
9.898435138353763
 21
7.431192999999998
 31
0.0
  0
LINE
  5
55D
330
341
100
AcDbEntity
  8
CYAN
100
AcDbLine
 10
9.717958138353763
 20
7.028428999999999
 30
0.0
 11
9.555503138353765
 21
7.247705999999998
 31
0.0
  0
LINE
  5
55E
330
341
100
AcDbEntity
  8
CYAN
100
AcDbLine
 10
8.799510138353763
 20
6.958616
 30
0.0
 11
8.742305138353762
 21
7.015026999999999
 31
0.0
  0
LINE
  5
55F
330
341
100
AcDbEntity
  8
CYAN
100
AcDbLine
 10
8.033745138353765
 20
7.133027999999999
 30
0.0
 11
8.521765138353762
 21
7.478644999999998
 31
0.0
  0
LINE
  5
560
330
341
100
AcDbEntity
  8
MAGENTA
100
AcDbLine
 10
8.976750138353763
 20
7.177147999999998
 30
0.0
 11
8.463490138353762
 21
6.824150999999999
 31
0.0
  0
LINE
  5
561
330
341
100
AcDbEntity
  8
CYAN
100
AcDbLine
 10
9.041190138353766
 20
7.106408999999999
 30
0.0
 11
8.976750138353763
 21
7.177147999999998
 31
0.0
  0
LINE
  5
562
330
341
100
AcDbEntity
  8
MAGENTA
100
AcDbLine
 10
8.517059138353765
 20
6.786919
 30
0.0
 11
9.082511138353766
 21
7.132088
 31
0.0
  0
LINE
  5
563
330
341
100
AcDbEntity
  8
MAGENTA
100
AcDbLine
 10
8.749874138353762
 20
6.508547
 30
0.0
 11
9.340783138353764
 21
6.857178999999999
 31
0.0
  0
LINE
  5
564
330
341
100
AcDbEntity
  8
RED
100
AcDbLine
 10
7.219282138353762
 20
5.917430999999998
 30
0.0
 11
7.151691138353764
 21
5.938749999999998
 31
0.0
  0
LINE
  5
565
330
341
100
AcDbEntity
  8
RED
100
AcDbLine
 10
7.186412138353764
 20
5.927602999999999
 30
0.0
 11
7.277327138353764
 21
6.025330999999999
 31
0.0
  0
LINE
  5
566
330
341
100
AcDbEntity
  8
RED
100
AcDbLine
 10
7.219282138353762
 20
6.03211
 30
0.0
 11
7.151691138353764
 21
5.938749999999998
 31
0.0
  0
LINE
  5
567
330
341
100
AcDbEntity
  8
RED
100
AcDbLine
 10
7.414202138353764
 20
6.136211
 30
0.0
 11
7.219282138353762
 21
6.03211
 31
0.0
  0
LINE
  5
568
330
341
100
AcDbEntity
  8
RED
100
AcDbLine
 10
7.498629138353765
 20
6.077348999999999
 30
0.0
 11
7.414202138353764
 21
6.136211
 31
0.0
  0
LINE
  5
569
330
341
100
AcDbEntity
  8
RED
100
AcDbLine
 10
7.305015138353764
 20
5.963302999999998
 30
0.0
 11
7.498629138353765
 21
6.077348999999999
 31
0.0
  0
LINE
  5
56A
330
341
100
AcDbEntity
  8
RED
100
AcDbLine
 10
7.219282138353762
 20
5.917430999999998
 30
0.0
 11
7.305015138353764
 21
5.963302999999998
 31
0.0
  0
LINE
  5
56B
330
341
100
AcDbEntity
  8
RED
100
AcDbLine
 10
7.134056138353765
 20
5.825474999999999
 30
0.0
 11
7.219282138353762
 21
5.917430999999998
 31
0.0
  0
LINE
  5
56C
330
341
100
AcDbEntity
  8
RED
100
AcDbLine
 10
5.757557138353765
 20
4.971106999999999
 30
0.0
 11
5.85897371646842
 21
5.043457239907776
 31
0.0
  0
LINE
  5
56D
330
341
100
AcDbEntity
  8
RED
100
AcDbLine
 10
5.783257138353761
 20
4.908256999999998
 30
0.0
 11
5.397459138353764
 21
4.633027999999999
 31
0.0
  0
LINE
  5
56E
330
341
100
AcDbEntity
  8
RED
100
AcDbLine
 10
5.890423138353765
 20
5.0
 30
0.0
 11
5.783257138353761
 21
4.908256999999998
 31
0.0
  0
LINE
  5
56F
330
341
100
AcDbEntity
  8
RED
100
AcDbLine
 10
5.997589138353764
 20
5.022935999999999
 30
0.0
 11
5.890423138353765
 21
5.0
 31
0.0
  0
LINE
  5
570
330
341
100
AcDbEntity
  8
RED
100
AcDbLine
 10
7.134056138353765
 20
5.825474999999999
 30
0.0
 11
5.997589138353764
 21
5.022935999999999
 31
0.0
  0
LINE
  5
571
330
341
100
AcDbEntity
  8
RED
100
AcDbLine
 10
5.847556138353764
 20
5.114678999999998
 30
0.0
 11
7.069250138353765
 21
5.894495
 31
0.0
  0
LINE
  5
572
330
341
100
AcDbEntity
  8
RED
100
AcDbLine
 10
5.804690138353763
 20
5.045872
 30
0.0
 11
5.847556138353764
 21
5.114678999999998
 31
0.0
  0
LINE
  5
573
330
341
100
AcDbEntity
  8
RED
100
AcDbLine
 10
5.676091138353764
 20
4.977064
 30
0.0
 11
5.804690138353763
 21
5.045872
 31
0.0
  0
LINE
  5
574
330
341
100
AcDbEntity
  8
RED
100
AcDbLine
 10
5.354592138353765
 20
4.747705999999999
 30
0.0
 11
5.676091138353764
 21
4.977064
 31
0.0
  0
LINE
  5
575
330
341
100
AcDbEntity
  8
CYAN
100
AcDbLine
 10
5.460001138353764
 20
5.089260999999999
 30
0.0
 11
5.150870138353765
 21
5.180589999999999
 31
0.0
  0
LINE
  5
576
330
341
100
AcDbEntity
  8
CYAN
100
AcDbLine
 10
5.611791138353764
 20
5.229358
 30
0.0
 11
5.322337138353764
 21
5.287894999999998
 31
0.0
  0
LINE
  5
577
330
341
100
AcDbEntity
  8
CYAN
100
AcDbLine
 10
5.825768138353764
 20
5.347788999999998
 30
0.0
 11
5.525891138353763
 21
5.418970999999999
 31
0.0
  0
LINE
  5
578
330
341
100
AcDbEntity
  8
CYAN
100
AcDbLine
 10
5.994205138353764
 20
5.481986
 30
0.0
 11
5.730262138353764
 21
5.548002999999999
 31
0.0
  0
LINE
  5
579
330
341
100
AcDbEntity
  8
CYAN
100
AcDbLine
 10
6.174937138353763
 20
5.608946999999998
 30
0.0
 11
5.909480138353764
 21
5.662522
 31
0.0
  0
LINE
  5
57A
330
341
100
AcDbEntity
  8
CYAN
100
AcDbLine
 10
6.362432138353764
 20
5.714199999999999
 30
0.0
 11
6.057255138353763
 21
5.757952999999998
 31
0.0
  0
LINE
  5
57B
330
341
100
AcDbEntity
  8
CYAN
100
AcDbLine
 10
6.511812138353763
 20
5.828005
 30
0.0
 11
6.248342138353764
 21
5.879330999999999
 31
0.0
  0
LINE
  5
57C
330
341
100
AcDbEntity
  8
CYAN
100
AcDbLine
 10
5.268859138353764
 20
5.252294
 30
0.0
 11
5.188679138353764
 21
5.386166
 31
0.0
  0
LINE
  5
57D
330
341
100
AcDbEntity
  8
CYAN
100
AcDbLine
 10
5.490738138353764
 20
5.064263999999998
 30
0.0
 11
5.268859138353764
 21
5.252294
 31
0.0
  0
LINE
  5
57E
330
341
100
AcDbEntity
  8
CYAN
100
AcDbLine
 10
5.665305138353764
 20
4.969515
 30
0.0
 11
5.490738138353764
 21
5.064263999999998
 31
0.0
  0
LINE
  5
57F
330
341
100
AcDbEntity
  8
CYAN
100
AcDbLine
 10
5.654657138353765
 20
5.183486
 30
0.0
 11
5.827491138353764
 21
5.084157
 31
0.0
  0
LINE
  5
580
330
341
100
AcDbEntity
  8
CYAN
100
AcDbLine
 10
5.467645138353764
 20
5.381791999999999
 30
0.0
 11
5.654657138353765
 21
5.183486
 31
0.0
  0
LINE
  5
581
330
341
100
AcDbEntity
  8
CYAN
100
AcDbLine
 10
5.397459138353764
 20
5.527523
 30
0.0
 11
5.467645138353764
 21
5.381791999999999
 31
0.0
  0
LINE
  5
582
330
341
100
AcDbEntity
  8
CYAN
100
AcDbLine
 10
5.669972138353766
 20
5.510823999999999
 30
0.0
 11
5.585158138353764
 21
5.648603999999998
 31
0.0
  0
LINE
  5
583
330
341
100
AcDbEntity
  8
CYAN
100
AcDbLine
 10
5.852786138353764
 20
5.319809999999999
 30
0.0
 11
5.669972138353766
 21
5.510823999999999
 31
0.0
  0
LINE
  5
584
330
341
100
AcDbEntity
  8
CYAN
100
AcDbLine
 10
6.023899138353765
 20
5.227458999999999
 30
0.0
 11
5.852786138353764
 21
5.319809999999999
 31
0.0
  0
LINE
  5
585
330
341
100
AcDbEntity
  8
CYAN
100
AcDbLine
 10
6.019022138353764
 20
5.458715999999999
 30
0.0
 11
6.197988138353763
 21
5.338916999999999
 31
0.0
  0
LINE
  5
586
330
341
100
AcDbEntity
  8
CYAN
100
AcDbLine
 10
5.844710138353764
 20
5.622359999999999
 30
0.0
 11
6.019022138353764
 21
5.458715999999999
 31
0.0
  0
LINE
  5
587
330
341
100
AcDbEntity
  8
CYAN
100
AcDbLine
 10
5.757852138353763
 20
5.763421
 30
0.0
 11
5.844710138353764
 21
5.622359999999999
 31
0.0
  0
LINE
  5
588
330
341
100
AcDbEntity
  8
CYAN
100
AcDbLine
 10
6.034778138353765
 20
5.74446
 30
0.0
 11
5.959335138353765
 21
5.895922999999999
 31
0.0
  0
LINE
  5
589
330
341
100
AcDbEntity
  8
CYAN
100
AcDbLine
 10
6.211921138353765
 20
5.573394
 30
0.0
 11
6.034778138353765
 21
5.74446
 31
0.0
  0
LINE
  5
58A
330
341
100
AcDbEntity
  8
CYAN
100
AcDbLine
 10
6.383387138353763
 20
5.458715999999999
 30
0.0
 11
6.211921138353765
 21
5.573394
 31
0.0
  0
LINE
  5
58B
330
341
100
AcDbEntity
  8
CYAN
100
AcDbLine
 10
6.209363138353763
 20
5.854975999999999
 30
0.0
 11
6.385493138353765
 21
5.693817
 31
0.0
  0
LINE
  5
58C
330
341
100
AcDbEntity
  8
CYAN
100
AcDbLine
 10
6.141047138353766
 20
6.017110999999998
 30
0.0
 11
6.209363138353763
 21
5.854975999999999
 31
0.0
  0
LINE
  5
58D
330
341
100
AcDbEntity
  8
CYAN
100
AcDbLine
 10
6.532373138353764
 20
5.799906
 30
0.0
 11
6.400661138353766
 21
5.977224999999998
 31
0.0
  0
LINE
  5
58E
330
341
100
AcDbEntity
  8
CYAN
100
AcDbLine
 10
6.768462138353764
 20
5.703603
 30
0.0
 11
6.532373138353764
 21
5.799906
 31
0.0
  0
LINE
  5
58F
330
341
100
AcDbEntity
  8
CYAN
100
AcDbLine
 10
8.331907138353765
 20
5.029654999999999
 30
0.0
 11
8.200178138353765
 21
5.277378999999998
 31
0.0
  0
LINE
  5
590
330
341
100
AcDbEntity
  8
CYAN
100
AcDbLine
 10
8.633875138353765
 20
5.206421999999998
 30
0.0
 11
8.548142138353762
 21
5.458715999999999
 31
0.0
  0
LINE
  5
591
330
341
100
AcDbEntity
  8
CYAN
100
AcDbLine
 10
6.297654138353764
 20
3.990826
 30
0.0
 11
6.521652557597266
 21
3.867558169354588
 31
0.0
  0
LINE
  5
592
330
341
100
AcDbEntity
  8
CYAN
100
AcDbLine
 10
6.046218138353764
 20
4.530052999999998
 30
0.0
 11
6.297654138353764
 21
3.990826
 31
0.0
  0
LINE
  5
593
330
341
100
AcDbEntity
  8
CYAN
100
AcDbLine
 10
6.490553138353766
 20
4.12844
 30
0.0
 11
6.791847138353763
 21
3.985585
 31
0.0
  0
LINE
  5
594
330
341
100
AcDbEntity
  8
CYAN
100
AcDbLine
 10
6.233698138353764
 20
4.657433
 30
0.0
 11
6.490553138353766
 21
4.12844
 31
0.0
  0
LINE
  5
595
330
341
100
AcDbEntity
  8
CYAN
100
AcDbLine
 10
6.683452138353764
 20
4.266054999999999
 30
0.0
 11
6.426253138353764
 21
4.793578
 31
0.0
  0
LINE
  5
596
330
341
100
AcDbEntity
  8
CYAN
100
AcDbLine
 10
7.041018138353765
 20
4.094809999999998
 30
0.0
 11
6.683452138353764
 21
4.266054999999999
 31
0.0
  0
LINE
  5
597
330
341
100
AcDbEntity
  8
CYAN
100
AcDbLine
 10
6.872903138353763
 20
4.396786999999999
 30
0.0
 11
7.312633031508023
 21
4.211350258448343
 31
0.0
  0
LINE
  5
598
330
341
100
AcDbEntity
  8
CYAN
100
AcDbLine
 10
6.619152138353764
 20
4.931193
 30
0.0
 11
6.872903138353763
 21
4.396786999999999
 31
0.0
  0
LINE
  5
599
330
341
100
AcDbEntity
  8
CYAN
100
AcDbLine
 10
7.563923138353763
 20
7.073701999999999
 30
0.0
 11
8.100948138353762
 21
9.411115
 31
0.0
  0
LINE
  5
59A
330
341
100
AcDbEntity
  8
CYAN
100
AcDbLine
 10
8.339786138353762
 20
9.533485
 30
0.0
 11
7.992385138353763
 21
9.358449999999999
 31
0.0
  0
LINE
  5
59B
330
341
100
AcDbEntity
  8
YELLOW
100
AcDbLine
 10
7.240716138353763
 20
7.110091999999998
 30
0.0
 11
8.080683138353766
 21
9.620227999999999
 31
0.0
  0
LINE
  5
59C
330
341
100
AcDbEntity
  8
YELLOW
100
AcDbLine
 10
7.326448138353763
 20
6.926605999999999
 30
0.0
 11
7.240716138353763
 21
7.110091999999998
 31
0.0
  0
LINE
  5
59D
330
341
100
AcDbEntity
  8
CYAN
100
AcDbLine
 10
8.033745138353765
 20
9.380734
 30
0.0
 11
7.371405138353765
 21
6.95443
 31
0.0
  0
LINE
  5
59E
330
341
100
AcDbEntity
  8
CYAN
100
AcDbLine
 10
8.160295138353765
 20
9.443644
 30
0.0
 11
7.776706138353763
 21
7.210011999999998
 31
0.0
  0
LINE
  5
59F
330
341
100
AcDbEntity
  8
CYAN
100
AcDbLine
 10
7.930142138353764
 20
7.307597999999998
 30
0.0
 11
8.244251138353762
 21
9.485466
 31
0.0
  0
LINE
  5
5A0
330
341
100
AcDbEntity
  8
CYAN
100
AcDbLine
 10
8.362143138353765
 20
9.771065
 30
0.0
 11
8.140833138353766
 21
7.440442
 31
0.0
  0
LINE
  5
5A1
330
341
100
AcDbEntity
  8
GREEN
100
AcDbLine
 10
8.633875138353765
 20
8.623853
 30
0.0
 11
8.247146138353762
 21
8.560724
 31
0.0
  0
LINE
  5
5A2
330
341
100
AcDbEntity
  8
GREEN
100
AcDbLine
 10
8.651896138353762
 20
9.685041
 30
0.0
 11
8.339569138353763
 21
9.533678999999999
 31
0.0
  0
LINE
  5
5A3
330
341
100
AcDbEntity
  8
CYAN
100
AcDbLine
 10
7.326448138353763
 20
6.926605999999999
 30
0.0
 11
8.419543138353763
 21
7.614678999999999
 31
0.0
  0
LINE
  5
5A4
330
341
100
AcDbEntity
  8
YELLOW
100
AcDbLine
 10
7.026383138353764
 20
6.834861999999999
 30
0.0
 11
7.326448138353763
 21
6.926605999999999
 31
0.0
  0
LINE
  5
5A5
330
341
100
AcDbEntity
  8
YELLOW
100
AcDbLine
 10
6.854918138353764
 20
6.880733999999999
 30
0.0
 11
7.026383138353764
 21
6.834861999999999
 31
0.0
  0
LINE
  5
5A6
330
341
100
AcDbEntity
  8
YELLOW
100
AcDbLine
 10
7.605080138353763
 20
8.853210999999998
 30
0.0
 11
6.854918138353764
 21
6.880733999999999
 31
0.0
  0
LINE
  5
5A7
330
341
100
AcDbEntity
  8
YELLOW
100
AcDbLine
 10
7.797979138353762
 20
9.334861999999999
 30
0.0
 11
7.605080138353763
 21
8.853210999999998
 31
0.0
  0
LINE
  5
5A8
330
341
100
AcDbEntity
  8
YELLOW
100
AcDbLine
 10
8.033745138353765
 20
9.610092000000001
 30
0.0
 11
7.797979138353762
 21
9.334861999999999
 31
0.0
  0
LINE
  5
5A9
330
341
100
AcDbEntity
  8
CYAN
100
AcDbLine
 10
8.655068138353765
 20
9.930588999999999
 30
0.0
 11
8.082130138353765
 21
9.618679
 31
0.0
  0
LINE
  5
5AA
330
341
100
AcDbEntity
  8
GREEN
100
AcDbLine
 10
8.633875138353765
 20
8.073394
 30
0.0
 11
8.651896138353762
 21
9.685041
 31
0.0
  0
LINE
  5
5AB
330
341
100
AcDbEntity
  8
CYAN
100
AcDbLine
 10
8.419543138353763
 20
7.614678999999999
 30
0.0
 11
8.633875138353765
 21
8.073394
 31
0.0
  0
LINE
  5
5AC
330
341
100
AcDbEntity
  8
CYAN
100
AcDbLine
 10
8.232758138353766
 20
7.390253999999999
 30
0.0
 11
8.422235138353762
 21
7.255748999999999
 31
0.0
  0
LINE
  5
5AD
330
341
100
AcDbEntity
  8
CYAN
100
AcDbLine
 10
8.133329138353765
 20
7.326012999999998
 30
0.0
 11
8.287162138353762
 21
7.167417999999999
 31
0.0
  0
LINE
  5
5AE
330
341
100
AcDbEntity
  8
CYAN
100
AcDbLine
 10
9.570304138353762
 20
6.862397999999998
 30
0.0
 11
9.360016138353763
 21
7.01595
 31
0.0
  0
LINE
  5
5AF
330
341
100
AcDbEntity
  8
CYAN
100
AcDbLine
 10
9.419089138353763
 20
6.773384
 30
0.0
 11
9.328419138353766
 21
6.848359
 31
0.0
  0
LINE
  5
5B0
330
341
100
AcDbEntity
  8
CYAN
100
AcDbLine
 10
9.109981138353763
 20
6.720571999999998
 30
0.0
 11
9.185545138353763
 21
6.635194999999999
 31
0.0
  0
LINE
  5
5B1
330
341
100
AcDbEntity
  8
CYAN
100
AcDbLine
 10
9.059157138353763
 20
6.561689999999999
 30
0.0
 11
8.985446138353765
 21
6.645689999999999
 31
0.0
  0
LINE
  5
5B2
330
341
100
AcDbEntity
  8
CYAN
100
AcDbLine
 10
8.591008138353762
 20
6.376146999999999
 30
0.0
 11
8.099061138353762
 21
6.182744999999998
 31
0.0
  0
LINE
  5
5B3
330
341
100
AcDbEntity
  8
CYAN
100
AcDbLine
 10
8.096882138353763
 20
6.225891999999999
 30
0.0
 11
8.592578138353765
 21
6.419874
 31
0.0
  0
LINE
  5
5B4
330
341
100
AcDbEntity
  8
CYAN
100
AcDbLine
 10
8.584288138353766
 20
6.511122
 30
0.0
 11
8.093613138353765
 21
6.263208999999998
 31
0.0
  0
LINE
  5
5B5
330
341
100
AcDbEntity
  8
CYAN
100
AcDbLine
 10
8.035856138353763
 20
6.4358
 30
0.0
 11
8.515599138353763
 21
6.713893999999998
 31
0.0
  0
LINE
  5
5B6
330
341
100
AcDbEntity
  8
CYAN
100
AcDbLine
 10
8.374667138353762
 20
6.893853999999999
 30
0.0
 11
7.880021138353765
 21
6.614220999999999
 31
0.0
  0
LINE
  5
5B7
330
341
100
AcDbEntity
  8
CYAN
100
AcDbLine
 10
7.712246138353764
 20
6.697247999999999
 30
0.0
 11
8.102278138353762
 21
7.045932999999998
 31
0.0
  0
LINE
  5
5B8
330
341
100
AcDbEntity
  8
CYAN
100
AcDbLine
 10
7.959039138353762
 20
7.068766
 30
0.0
 11
7.581627138353765
 21
6.715818999999999
 31
0.0
  0
LINE
  5
5B9
330
341
100
AcDbEntity
  8
CYAN
100
AcDbLine
 10
7.926267138353765
 20
5.912455999999998
 30
0.0
 11
9.641236138353763
 21
6.903669999999999
 31
0.0
  0
LINE
  5
5BA
330
341
100
AcDbEntity
  8
CYAN
100
AcDbLine
 10
5.590358138353765
 20
4.220182999999999
 30
0.0
 11
7.966255138353765
 21
5.846535
 31
0.0
  0
LINE
  5
5BB
330
341
100
AcDbEntity
  8
GREEN
100
AcDbLine
 10
12.34861013835375
 20
5.646073
 30
0.0
 11
12.13246113835376
 21
5.515965999999999
 31
0.0
  0
LINE
  5
5BC
330
341
100
AcDbEntity
  8
GREEN
100
AcDbLine
 10
12.21351713835375
 20
5.501509999999998
 30
0.0
 11
12.34861013835375
 21
5.646073
 31
0.0
  0
LINE
  5
5BD
330
341
100
AcDbEntity
  8
GREEN
100
AcDbLine
 10
11.81904613835376
 20
5.776180999999999
 30
0.0
 11
11.55966713835375
 21
5.622943
 31
0.0
  0
LINE
  5
5BE
330
341
100
AcDbEntity
  8
GREEN
100
AcDbLine
 10
11.63802113835376
 20
5.611378
 30
0.0
 11
11.81904613835376
 21
5.776180999999999
 31
0.0
  0
LINE
  5
5BF
330
341
100
AcDbEntity
  8
GREEN
100
AcDbLine
 10
10.18171913835375
 20
6.192523999999998
 30
0.0
 11
9.806161138353763
 21
5.949657
 31
0.0
  0
LINE
  5
5C0
330
341
100
AcDbEntity
  8
GREEN
100
AcDbLine
 10
9.892620138353764
 20
5.932309
 30
0.0
 11
10.18171913835375
 21
6.192523999999998
 31
0.0
  0
LINE
  5
5C1
330
341
100
AcDbEntity
  8
GREEN
100
AcDbLine
 10
10.37084913835376
 20
6.143372
 30
0.0
 11
9.987185138353762
 21
5.917853
 31
0.0
  0
LINE
  5
5C2
330
341
100
AcDbEntity
  8
GREEN
100
AcDbLine
 10
10.11687513835376
 20
5.891830999999998
 30
0.0
 11
10.37084913835376
 21
6.143372
 31
0.0
  0
LINE
  5
5C3
330
341
100
AcDbEntity
  8
GREEN
100
AcDbLine
 10
10.60050713835376
 20
6.085547
 30
0.0
 11
10.23305513835376
 21
5.868700999999999
 31
0.0
  0
LINE
  5
5C4
330
341
100
AcDbEntity
  8
GREEN
100
AcDbLine
 10
10.31411013835376
 20
5.851353999999998
 30
0.0
 11
10.60050713835376
 21
6.085547
 31
0.0
  0
LINE
  5
5C5
330
341
100
AcDbEntity
  8
GREEN
100
AcDbLine
 10
10.78693613835375
 20
6.039285999999998
 30
0.0
 11
10.45460713835375
 21
5.825332
 31
0.0
  0
LINE
  5
5C6
330
341
100
AcDbEntity
  8
GREEN
100
AcDbLine
 10
10.53296113835376
 20
5.813766999999999
 30
0.0
 11
10.78693613835375
 21
6.039285999999998
 31
0.0
  0
LINE
  5
5C7
330
341
100
AcDbEntity
  8
GREEN
100
AcDbLine
 10
11.02740113835376
 20
5.978569999999999
 30
0.0
 11
10.65184313835376
 21
5.790637
 31
0.0
  0
LINE
  5
5C8
330
341
100
AcDbEntity
  8
GREEN
100
AcDbLine
 10
10.77342613835376
 20
5.770398
 30
0.0
 11
11.02740113835376
 21
5.978569999999999
 31
0.0
  0
LINE
  5
5C9
330
341
100
AcDbEntity
  8
GREEN
100
AcDbLine
 10
11.20572413835376
 20
5.9352
 30
0.0
 11
10.88960613835376
 21
5.747268
 31
0.0
  0
LINE
  5
5CA
330
341
100
AcDbEntity
  8
GREEN
100
AcDbLine
 10
10.97336413835376
 20
5.732812
 30
0.0
 11
11.20572413835376
 21
5.9352
 31
0.0
  0
LINE
  5
5CB
330
341
100
AcDbEntity
  8
GREEN
100
AcDbLine
 10
11.44078513835376
 20
5.874483999999998
 30
0.0
 11
11.09869513835376
 21
5.711008999999998
 31
0.0
  0
LINE
  5
5CC
330
341
100
AcDbEntity
  8
GREEN
100
AcDbLine
 10
11.26516513835376
 20
5.680768999999999
 30
0.0
 11
11.44078513835376
 21
5.874483999999998
 31
0.0
  0
LINE
  5
5CD
330
341
100
AcDbEntity
  8
GREEN
100
AcDbLine
 10
11.98656113835376
 20
5.738593999999999
 30
0.0
 11
11.76500913835375
 21
5.585357
 31
0.0
  0
LINE
  5
5CE
330
341
100
AcDbEntity
  8
GREEN
100
AcDbLine
 10
11.82742513835375
 20
5.573394
 30
0.0
 11
11.98656113835376
 21
5.738593999999999
 31
0.0
  0
LINE
  5
5CF
330
341
100
AcDbEntity
  8
GREEN
100
AcDbLine
 10
12.49991413835376
 20
5.608487
 30
0.0
 11
12.33510113835376
 21
5.481270999999999
 31
0.0
  0
LINE
  5
5D0
330
341
100
AcDbEntity
  8
GREEN
100
AcDbLine
 10
12.41615713835376
 20
5.466815
 30
0.0
 11
12.49991413835376
 21
5.608487
 31
0.0
  0
LINE
  5
5D1
330
341
100
AcDbEntity
  8
GREEN
100
AcDbLine
 10
12.71065913835376
 20
5.553552999999999
 30
0.0
 11
12.53233613835376
 21
5.443683999999999
 31
0.0
  0
LINE
  5
5D2
330
341
100
AcDbEntity
  8
GREEN
100
AcDbLine
 10
12.61371813835376
 20
5.429585999999999
 30
0.0
 11
12.71065913835376
 21
5.553552999999999
 31
0.0
  0
LINE
  5
5D3
330
341
100
AcDbEntity
  8
CYAN
100
AcDbLine
 10
12.57907613835376
 20
5.34374
 30
0.0
 11
12.61371813835376
 21
5.429585999999999
 31
0.0
  0
LINE
  5
5D4
330
341
100
AcDbEntity
  8
GREEN
100
AcDbLine
 10
12.91870213835376
 20
5.501509999999998
 30
0.0
 11
12.63770913835376
 21
5.316468999999999
 31
0.0
  0
LINE
  5
5D5
330
341
100
AcDbEntity
  8
CYAN
100
AcDbLine
 10
10.10606713835376
 20
5.732812
 30
0.0
 11
8.572072138353762
 21
4.701977
 31
0.0
  0
LINE
  5
5D6
330
341
100
AcDbEntity
  8
CYAN
100
AcDbLine
 10
9.309019138353763
 20
4.836517999999998
 30
0.0
 11
10.48702913835376
 21
5.672094999999998
 31
0.0
  0
LINE
  5
5D7
330
341
100
AcDbEntity
  8
CYAN
100
AcDbLine
 10
10.91662513835376
 20
5.605596
 30
0.0
 11
9.987185138353762
 21
4.952168
 31
0.0
  0
LINE
  5
5D8
330
341
100
AcDbEntity
  8
CYAN
100
AcDbLine
 10
10.74640813835376
 20
5.11408
 30
0.0
 11
11.29218313835375
 21
5.544878999999999
 31
0.0
  0
LINE
  5
5D9
330
341
100
AcDbEntity
  8
CYAN
100
AcDbLine
 10
11.87038113835376
 20
5.452358
 30
0.0
 11
11.57587813835376
 21
5.226839
 31
0.0
  0
LINE
  5
5DA
330
341
100
AcDbEntity
  8
CYAN
100
AcDbLine
 10
8.569575138353766
 20
4.701834999999999
 30
0.0
 11
7.647436138353764
 21
4.933278999999998
 31
0.0
  0
LINE
  5
5DB
330
341
100
AcDbEntity
  8
CYAN
100
AcDbLine
 10
9.211752138353766
 20
4.822060999999998
 30
0.0
 11
7.944640138353762
 21
5.122817999999998
 31
0.0
  0
LINE
  5
5DC
330
341
100
AcDbEntity
  8
CYAN
100
AcDbLine
 10
9.984168138353762
 20
4.954127999999998
 30
0.0
 11
8.200178138353765
 21
5.277378999999998
 31
0.0
  0
LINE
  5
5DD
330
341
100
AcDbEntity
  8
CYAN
100
AcDbLine
 10
10.58429813835376
 20
5.091743000000001
 30
0.0
 11
8.569575138353766
 21
5.458715999999999
 31
0.0
  0
LINE
  5
5DE
330
341
100
AcDbEntity
  8
GREEN
100
AcDbLine
 10
9.838112138353762
 20
6.605394999999998
 30
0.0
 11
10.47713213835375
 21
6.559632999999998
 31
0.0
  0
LINE
  5
5DF
330
341
100
AcDbEntity
  8
CYAN
100
AcDbLine
 10
9.984168138353762
 20
6.169724999999998
 30
0.0
 11
9.718415138353766
 21
6.597572999999998
 31
0.0
  0
LINE
  5
5E0
330
341
100
AcDbEntity
  8
CYAN
100
AcDbLine
 10
9.877002138353763
 20
6.123852999999999
 30
0.0
 11
9.602373138353764
 21
6.532061999999999
 31
0.0
  0
LINE
  5
5E1
330
341
100
AcDbEntity
  8
CYAN
100
AcDbLine
 10
9.657559138353763
 20
5.975678
 30
0.0
 11
9.448337138353762
 21
6.444954
 31
0.0
  0
LINE
  5
5E2
330
341
100
AcDbEntity
  8
CYAN
100
AcDbLine
 10
9.729831138353766
 20
6.033928999999998
 30
0.0
 11
9.280337138353763
 21
6.691057999999999
 31
0.0
  0
LINE
  5
5E3
330
341
100
AcDbEntity
  8
CYAN
100
AcDbLine
 10
9.516849138353766
 20
5.926185
 30
0.0
 11
9.169060138353762
 21
6.624903999999999
 31
0.0
  0
LINE
  5
5E4
330
341
100
AcDbEntity
  8
CYAN
100
AcDbLine
 10
9.362385138353763
 20
5.848599
 30
0.0
 11
9.151908138353762
 21
6.277066999999998
 31
0.0
  0
LINE
  5
5E5
330
341
100
AcDbEntity
  8
CYAN
100
AcDbLine
 10
9.215276138353763
 20
5.774385999999998
 30
0.0
 11
8.881952138353764
 21
6.462689
 31
0.0
  0
LINE
  5
5E6
330
341
100
AcDbEntity
  8
CYAN
100
AcDbLine
 10
9.069219138353766
 20
5.700173
 30
0.0
 11
8.831700138353763
 21
6.095379
 31
0.0
  0
LINE
  5
5E7
330
341
100
AcDbEntity
  8
CYAN
100
AcDbLine
 10
8.542689138353765
 20
6.267379
 30
0.0
 11
8.905103138353762
 21
5.618495
 31
0.0
  0
LINE
  5
5E8
330
341
100
AcDbEntity
  8
CYAN
100
AcDbLine
 10
8.739001138353764
 20
5.539525
 30
0.0
 11
8.390235138353762
 21
6.175468999999999
 31
0.0
  0
LINE
  5
5E9
330
341
100
AcDbEntity
  8
CYAN
100
AcDbLine
 10
8.550243496704133
 20
5.452532148931583
 30
0.0
 11
8.199131138353765
 21
6.067472999999999
 31
0.0
  0
LINE
  5
5EA
330
341
100
AcDbEntity
  8
CYAN
100
AcDbLine
 10
8.061708138353765
 20
5.658470999999999
 30
0.0
 11
9.807959138353766
 21
6.649394999999999
 31
0.0
  0
LINE
  5
5EB
330
341
100
AcDbEntity
  8
CYAN
100
AcDbLine
 10
7.966255138353765
 20
5.846535
 30
0.0
 11
8.244198138353766
 21
5.304731
 31
0.0
  0
LINE
  5
5EC
330
341
100
AcDbEntity
  8
CYAN
100
AcDbLine
 10
8.057467138353763
 20
5.191524
 30
0.0
 11
7.800339138353765
 21
5.729311
 31
0.0
  0
LINE
  5
5ED
330
341
100
AcDbEntity
  8
CYAN
100
AcDbLine
 10
7.608458138353762
 20
5.600635999999998
 30
0.0
 11
7.865860138353763
 21
5.074264
 31
0.0
  0
LINE
  5
5EE
330
341
100
AcDbEntity
  8
CYAN
100
AcDbLine
 10
7.647436138353764
 20
4.933278999999998
 30
0.0
 11
7.420369138353763
 21
5.468001
 31
0.0
  0
LINE
  5
5EF
330
341
100
AcDbEntity
  8
CYAN
100
AcDbLine
 10
7.452301138353765
 20
4.801565
 30
0.0
 11
7.227255138353764
 21
5.33781
 31
0.0
  0
LINE
  5
5F0
330
341
100
AcDbEntity
  8
CYAN
100
AcDbLine
 10
8.148781138353765
 20
4.547775999999998
 30
0.0
 11
7.377250138353763
 21
4.746952
 31
0.0
  0
LINE
  5
5F1
330
341
100
AcDbEntity
  8
CYAN
100
AcDbLine
 10
7.010998138353764
 20
5.193493
 30
0.0
 11
7.262149138353764
 21
4.678898999999999
 31
0.0
  0
LINE
  5
5F2
330
341
100
AcDbEntity
  8
CYAN
100
AcDbLine
 10
7.089051138353764
 20
4.547775999999998
 30
0.0
 11
6.818866138353764
 21
5.058567
 31
0.0
  0
LINE
  5
5F3
330
341
100
AcDbEntity
  8
CYAN
100
AcDbLine
 10
7.623419138353765
 20
4.345386999999999
 30
0.0
 11
7.089051138353764
 21
4.547775999999998
 31
0.0
  0
LINE
  5
5F4
330
341
100
AcDbEntity
  8
CYAN
100
AcDbLine
 10
6.104374138353763
 20
3.863508999999999
 30
0.0
 11
6.266332200667408
 21
3.756585620989276
 31
0.0
  0
LINE
  5
5F5
330
341
100
AcDbEntity
  8
CYAN
100
AcDbLine
 10
5.890915368598456
 20
4.425920812928302
 30
0.0
 11
6.104374138353763
 21
3.863508999999999
 31
0.0
  0
LINE
  5
5F6
330
341
100
AcDbEntity
  8
CYAN
100
AcDbLine
 10
5.890423138353765
 20
3.715596
 30
0.0
 11
5.654657138353765
 21
4.266054999999999
 31
0.0
  0
LINE
  5
5F7
330
341
100
AcDbEntity
  8
CYAN
100
AcDbLine
 10
6.006344613839548
 20
3.64358450583902
 30
0.0
 11
5.890423138353765
 21
3.715596
 31
0.0
  0
LINE
  5
5F8
330
341
100
AcDbEntity
  8
CYAN
100
AcDbLine
 10
8.955373138353765
 20
5.642201999999999
 30
0.0
 11
9.362604138353763
 21
5.848624
 31
0.0
  0
LINE
  5
5F9
330
341
100
AcDbEntity
  8
CYAN
100
AcDbLine
 10
8.269510138353766
 20
5.321100999999999
 30
0.0
 11
8.955373138353765
 21
5.642201999999999
 31
0.0
  0
LINE
  5
5FA
330
341
100
AcDbEntity
  8
CYAN
100
AcDbLine
 10
7.669380138353765
 20
4.954127999999998
 30
0.0
 11
8.269510138353766
 21
5.321100999999999
 31
0.0
  0
LINE
  5
5FB
330
341
100
AcDbEntity
  8
CYAN
100
AcDbLine
 10
5.890423138353765
 20
3.715596
 30
0.0
 11
7.669380138353765
 21
4.954127999999998
 31
0.0
  0
LINE
  5
5FC
330
341
100
AcDbEntity
  8
CYAN
100
AcDbLine
 10
7.755113138353762
 20
4.403669999999999
 30
0.0
 11
5.957993138353764
 21
3.622568999999999
 31
0.0
  0
LINE
  5
5FD
330
341
100
AcDbEntity
  8
CYAN
100
AcDbLine
 10
8.633875138353765
 20
4.724770999999999
 30
0.0
 11
7.755113138353762
 21
4.403669999999999
 31
0.0
  0
LINE
  5
5FE
330
341
100
AcDbEntity
  8
CYAN
100
AcDbLine
 10
10.41283213835376
 20
5.022935999999999
 30
0.0
 11
8.633875138353765
 21
4.724770999999999
 31
0.0
  0
LINE
  5
5FF
330
341
100
AcDbEntity
  8
CYAN
100
AcDbLine
 10
10.58429813835376
 20
5.091743
 30
0.0
 11
10.41283213835376
 21
5.022935999999999
 31
0.0
  0
LINE
  5
600
330
341
100
AcDbEntity
  8
CYAN
100
AcDbLine
 10
11.93459113835376
 20
5.275229
 30
0.0
 11
10.58429813835376
 21
5.091743
 31
0.0
  0
LINE
  5
601
330
341
100
AcDbEntity
  8
CYAN
100
AcDbLine
 10
12.13786513835376
 20
5.41188
 30
0.0
 11
11.93459113835376
 21
5.275229
 31
0.0
  0
LINE
  5
602
330
341
100
AcDbEntity
  8
CYAN
100
AcDbLine
 10
12.57758713835376
 20
5.344037
 30
0.0
 11
9.362604138353763
 21
5.848624
 31
0.0
  0
LINE
  5
603
330
341
100
AcDbEntity
  8
YELLOW
100
AcDbLine
 10
12.74146013835376
 20
5.265710999999999
 30
0.0
 11
12.57758713835376
 21
5.344037
 31
0.0
  0
LINE
  5
604
330
341
100
AcDbEntity
  8
YELLOW
100
AcDbLine
 10
6.131393138353764
 20
3.384843
 30
0.0
 11
6.358523421522132
 21
3.197461192109562
 31
0.0
  0
LINE
  5
605
330
341
100
AcDbEntity
  8
YELLOW
100
AcDbLine
 10
6.290853076277356
 20
3.482195611577663
 30
0.0
 11
6.571862610363268
 21
3.293139884801114
 31
0.0
  0
LINE
  5
606
330
341
100
AcDbEntity
  8
YELLOW
100
AcDbLine
 10
6.469120138353765
 20
3.577981999999999
 30
0.0
 11
6.785843138353763
 21
3.391268
 31
0.0
  0
LINE
  5
607
330
341
100
AcDbEntity
  8
YELLOW
100
AcDbLine
 10
6.656754138353765
 20
3.696457
 30
0.0
 11
7.020004138353765
 21
3.500494
 31
0.0
  0
LINE
  5
608
330
341
100
AcDbEntity
  8
YELLOW
100
AcDbLine
 10
6.851888138353764
 20
3.812107999999999
 30
0.0
 11
7.269175138353762
 21
3.606507
 31
0.0
  0
LINE
  5
609
330
341
100
AcDbEntity
  8
YELLOW
100
AcDbLine
 10
7.086049138353764
 20
3.950247
 30
0.0
 11
7.512343138353764
 21
3.722157999999999
 31
0.0
  0
LINE
  5
60A
330
341
100
AcDbEntity
  8
YELLOW
100
AcDbLine
 10
7.455048138353762
 20
4.174311999999999
 30
0.0
 11
7.776524138353765
 21
3.837807999999999
 31
0.0
  0
LINE
  5
60B
330
341
100
AcDbEntity
  8
YELLOW
100
AcDbLine
 10
7.73663882287134
 20
4.280336040645683
 30
0.0
 11
8.01389928027909
 21
3.939866743285448
 31
0.0
  0
LINE
  5
60C
330
341
100
AcDbEntity
  8
YELLOW
100
AcDbLine
 10
7.970899093657224
 20
4.368539315246271
 30
0.0
 11
8.233913856131675
 21
4.038539223972231
 31
0.0
  0
LINE
  5
60D
330
341
100
AcDbEntity
  8
YELLOW
100
AcDbLine
 10
8.274043140540911
 20
4.482678590852478
 30
0.0
 11
8.535309505469969
 21
4.142885714854513
 31
0.0
  0
LINE
  5
60E
330
341
100
AcDbEntity
  8
YELLOW
100
AcDbLine
 10
8.61244213835376
 20
4.610091999999998
 30
0.0
 11
8.891073138353768
 21
4.266055000000001
 31
0.0
  0
LINE
  5
60F
330
341
100
AcDbEntity
  8
YELLOW
100
AcDbLine
 10
8.890291138353765
 20
4.647363999999999
 30
0.0
 11
9.031388138353763
 21
4.290773999999998
 31
0.0
  0
LINE
  5
610
330
341
100
AcDbEntity
  8
YELLOW
100
AcDbLine
 10
9.206348138353762
 20
4.689062999999999
 30
0.0
 11
9.395478138353762
 21
4.353674999999999
 31
0.0
  0
LINE
  5
611
330
341
100
AcDbEntity
  8
YELLOW
100
AcDbLine
 10
9.562994138353763
 20
4.741106
 30
0.0
 11
9.758920784141384
 21
4.417839733953923
 31
0.0
  0
LINE
  5
612
330
341
100
AcDbEntity
  8
YELLOW
100
AcDbLine
 10
9.941301138353763
 20
4.793578
 30
0.0
 11
10.0934419228793
 21
4.476346779852763
 31
0.0
  0
LINE
  5
613
330
341
100
AcDbEntity
  8
YELLOW
100
AcDbLine
 10
10.23575613835376
 20
4.830734999999998
 30
0.0
 11
10.39786813835376
 21
4.530043
 31
0.0
  0
LINE
  5
614
330
341
100
AcDbEntity
  8
YELLOW
100
AcDbLine
 10
10.57641194188832
 20
4.882528264077887
 30
0.0
 11
10.76532113835376
 21
4.590759999999999
 31
0.0
  0
LINE
  5
615
330
341
100
AcDbEntity
  8
YELLOW
100
AcDbLine
 10
10.94866313835376
 20
4.931193
 30
0.0
 11
11.12015743798852
 21
4.655917171111688
 31
0.0
  0
LINE
  5
616
330
341
100
AcDbEntity
  8
YELLOW
100
AcDbLine
 10
11.31109613835376
 20
4.981080999999998
 30
0.0
 11
11.44348713835376
 21
4.712193
 31
0.0
  0
LINE
  5
617
330
341
100
AcDbEntity
  8
YELLOW
100
AcDbLine
 10
11.74556224137485
 20
5.044709443831473
 30
0.0
 11
11.84044490191488
 21
4.781893938592786
 31
0.0
  0
LINE
  5
618
330
341
100
AcDbEntity
  8
YELLOW
100
AcDbLine
 10
12.08462313835376
 20
5.091742999999999
 30
0.0
 11
12.17032913835376
 21
4.83959
 31
0.0
  0
LINE
  5
619
330
341
100
AcDbEntity
  8
YELLOW
100
AcDbLine
 10
12.23465613835376
 20
5.160549999999998
 30
0.0
 11
12.43777113835376
 21
5.024449999999998
 31
0.0
  0
LINE
  5
61A
330
341
100
AcDbEntity
  8
YELLOW
100
AcDbLine
 10
12.74146013835376
 20
5.265710999999999
 30
0.0
 11
12.60192413835376
 21
5.141579
 31
0.0
  0
LINE
  5
61B
330
341
100
AcDbEntity
  8
YELLOW
100
AcDbLine
 10
12.42755513835376
 20
5.252294
 30
0.0
 11
12.60192413835376
 21
5.141579
 31
0.0
  0
LINE
  5
61C
330
341
100
AcDbEntity
  8
YELLOW
100
AcDbLine
 10
12.08462313835376
 20
5.091743
 30
0.0
 11
12.42755513835376
 21
5.252294
 31
0.0
  0
LINE
  5
61D
330
341
100
AcDbEntity
  8
YELLOW
100
AcDbLine
 10
8.612442138353765
 20
4.610091999999998
 30
0.0
 11
12.08462313835376
 21
5.091743
 31
0.0
  0
LINE
  5
61E
330
341
100
AcDbEntity
  8
YELLOW
100
AcDbLine
 10
7.455048138353762
 20
4.174311999999999
 30
0.0
 11
8.612442138353765
 21
4.610091999999998
 31
0.0
  0
LINE
  5
61F
330
341
100
AcDbEntity
  8
YELLOW
100
AcDbLine
 10
6.104755138353763
 20
3.371559999999998
 30
0.0
 11
7.455048138353762
 21
4.174311999999999
 31
0.0
  0
LINE
  5
620
330
341
100
AcDbEntity
  8
YELLOW
100
AcDbLine
 10
8.233913856131675
 20
4.038539223972231
 30
0.0
 11
5.721280819239048
 21
2.911669634332478
 31
0.0
  0
LINE
  5
621
330
341
100
AcDbEntity
  8
YELLOW
100
AcDbLine
 10
8.891073138353762
 20
4.266054999999999
 30
0.0
 11
8.233913856131675
 21
4.038539223972231
 31
0.0
  0
LINE
  5
622
330
341
100
AcDbEntity
  8
YELLOW
100
AcDbLine
 10
12.17032913835376
 20
4.83959
 30
0.0
 11
8.891073138353762
 21
4.266054999999999
 31
0.0
  0
LINE
  5
623
330
341
100
AcDbEntity
  8
YELLOW
100
AcDbLine
 10
12.60192413835376
 20
5.141579
 30
0.0
 11
12.17032913835376
 21
4.83959
 31
0.0
  0
LINE
  5
624
330
341
100
AcDbEntity
  8
GREEN
100
AcDbLine
 10
12.98481813835376
 20
5.481651
 30
0.0
 11
12.74146013835376
 21
5.265710999999999
 31
0.0
  0
LINE
  5
625
330
341
100
AcDbEntity
  8
CYAN
100
AcDbLine
 10
8.098211138353763
 20
6.143299999999999
 30
0.0
 11
8.591008138353762
 21
6.330275
 31
0.0
  0
LINE
  5
626
330
341
100
AcDbEntity
  8
CYAN
100
AcDbLine
 10
7.990849138353762
 20
6.118024
 30
0.0
 11
8.098211138353763
 21
6.143299999999999
 31
0.0
  0
LINE
  5
627
330
341
100
AcDbEntity
  8
CYAN
100
AcDbLine
 10
7.455048138353762
 20
6.697247999999999
 30
0.0
 11
7.455048138353762
 21
6.651375999999999
 31
0.0
  0
LINE
  5
628
330
341
100
AcDbEntity
  8
CYAN
100
AcDbLine
 10
7.905145138353763
 20
7.178899
 30
0.0
 11
7.455048138353762
 21
6.697247999999999
 31
0.0
  0
LINE
  5
629
330
341
100
AcDbEntity
  8
CYAN
100
AcDbLine
 10
8.571243138353763
 20
7.604044
 30
0.0
 11
7.905145138353763
 21
7.178899
 31
0.0
  0
LINE
  5
62A
330
341
100
AcDbEntity
  8
CYAN
100
AcDbLine
 10
9.491204138353763
 20
7.614678999999999
 30
0.0
 11
9.405471138353762
 21
7.660549999999999
 31
0.0
  0
LINE
  5
62B
330
341
100
AcDbEntity
  8
CYAN
100
AcDbLine
 10
9.748402138353762
 20
7.752294
 30
0.0
 11
9.491204138353763
 21
7.614678999999999
 31
0.0
  0
LINE
  5
62C
330
341
100
AcDbEntity
  8
CYAN
100
AcDbLine
 10
9.834135138353763
 20
7.683486
 30
0.0
 11
9.748402138353762
 21
7.752294
 31
0.0
  0
LINE
  5
62D
330
341
100
AcDbEntity
  8
CYAN
100
AcDbLine
 10
9.919868138353763
 20
7.729358
 30
0.0
 11
9.834135138353763
 21
7.683486
 31
0.0
  0
LINE
  5
62E
330
341
100
AcDbEntity
  8
CYAN
100
AcDbLine
 10
9.984168138353762
 20
7.637614999999998
 30
0.0
 11
9.919868138353763
 21
7.729358
 31
0.0
  0
LINE
  5
62F
330
341
100
AcDbEntity
  8
CYAN
100
AcDbLine
 10
9.919868138353763
 20
7.591742999999998
 30
0.0
 11
9.984168138353762
 21
7.637614999999998
 31
0.0
  0
LINE
  5
630
330
341
100
AcDbEntity
  8
CYAN
100
AcDbLine
 10
9.877002138353763
 20
7.293578
 30
0.0
 11
9.919868138353763
 21
7.591742999999998
 31
0.0
  0
LINE
  5
631
330
341
100
AcDbEntity
  8
CYAN
100
AcDbLine
 10
9.641236138353763
 20
6.903669999999999
 30
0.0
 11
9.877002138353763
 21
7.293578
 31
0.0
  0
LINE
  5
632
330
341
100
AcDbEntity
  8
CYAN
100
AcDbLine
 10
10.09243813835376
 20
6.215845999999999
 30
0.0
 11
9.641236138353763
 21
6.903669999999999
 31
0.0
  0
LINE
  5
633
330
341
100
AcDbEntity
  8
GREEN
100
AcDbLine
 10
10.47713213835375
 20
6.559632999999998
 30
0.0
 11
10.09243813835376
 21
6.215845999999999
 31
0.0
  0
LINE
  5
634
330
341
100
AcDbEntity
  8
GREEN
100
AcDbLine
 10
10.16016413835375
 20
6.198369999999998
 30
0.0
 11
10.47713213835375
 21
6.559632999999998
 31
0.0
  0
LINE
  5
635
330
341
100
AcDbEntity
  8
CYAN
100
AcDbLine
 10
11.43892218074098
 20
5.207874496676248
 30
0.0
 11
8.955373138353765
 21
5.642201999999999
 31
0.0
  0
LINE
  5
636
330
341
100
AcDbEntity
  8
CYAN
100
AcDbLine
 10
11.26817246531879
 20
5.184671990046979
 30
0.0
 11
11.24599081731507
 21
5.241614678955505
 31
0.0
  0
LINE
  5
637
330
341
100
AcDbEntity
  8
CYAN
100
AcDbLine
 10
9.019673138353763
 20
5.389907999999998
 30
0.0
 11
8.933940138353763
 21
5.642201999999999
 31
0.0
  0
LINE
  5
638
330
341
100
AcDbEntity
  8
CYAN
100
AcDbLine
 10
5.959662886688931
 20
5.014818905882607
 30
0.0
 11
6.073001138353764
 21
4.967921999999998
 31
0.0
  0
LINE
  5
639
330
341
100
AcDbEntity
  8
CYAN
100
AcDbLine
 10
6.842202637497748
 20
5.749568959659671
 30
0.0
 11
6.702324138353764
 21
6.209103999999999
 31
0.0
  0
LINE
  5
63A
330
341
100
AcDbEntity
  8
CYAN
100
AcDbLine
 10
6.622207250235172
 20
5.763261791771257
 30
0.0
 11
6.481388138353763
 21
6.245476999999999
 31
0.0
  0
LINE
  5
63B
330
341
100
AcDbEntity
  8
CYAN
100
AcDbLine
 10
7.035343425259507
 20
5.872852103023905
 30
0.0
 11
6.812931138353764
 21
6.741947999999998
 31
0.0
  0
LINE
  5
63C
330
341
100
AcDbEntity
  8
CYAN
100
AcDbLine
 10
7.110011289885283
 20
5.581080745941774
 30
0.0
 11
7.060720792301679
 21
5.77368777231517
 31
0.0
  0
LINE
  5
63D
330
341
100
AcDbEntity
  8
CYAN
100
AcDbLine
 10
7.310947115089421
 20
5.69197483004776
 30
0.0
 11
7.249421260473338
 21
5.933557133575973
 31
0.0
  0
LINE
  5
63E
330
341
100
AcDbEntity
  8
CYAN
100
AcDbLine
 10
7.223718528185604
 20
6.034479344438151
 30
0.0
 11
7.063299615650784
 21
6.664366904090576
 31
0.0
  0
LINE
  5
63F
330
341
100
AcDbEntity
  8
CYAN
100
AcDbLine
 10
7.440790550604889
 20
6.424804647528119
 30
0.0
 11
6.540871138353764
 21
6.554649
 31
0.0
  0
ENDSEC
  0
SECTION
  2
OBJECTS
  0
DICTIONARY
  5
32F
330
0
100
AcDbDictionary
281
     1
  3
ACAD_GROUP
350
330
  3
ACAD_LAYOUT
350
33C
  3
ACAD_MLINESTYLE
350
339
  3
ACAD_PLOTSETTINGS
350
33B
  3
ACAD_PLOTSTYLENAME
350
331
  3
AcDbVariableDictionary
350
641
  0
DICTIONARY
  5
330
102
{ACAD_REACTORS
330
32F
102
}
330
32F
100
AcDbDictionary
281
     1
  0
DICTIONARY
  5
33C
102
{ACAD_REACTORS
330
32F
102
}
330
32F
100
AcDbDictionary
281
     1
  3
Model
350
344
  3
布局1
350
340
  0
DICTIONARY
  5
339
102
{ACAD_REACTORS
330
32F
102
}
330
32F
100
AcDbDictionary
281
     1
  3
Standard
350
33A
  0
DICTIONARY
  5
33B
102
{ACAD_REACTORS
330
32F
102
}
330
32F
100
AcDbDictionary
281
     1
  0
ACDBDICTIONARYWDFLT
  5
331
102
{ACAD_REACTORS
330
32F
102
}
330
32F
100
AcDbDictionary
281
     1
  3
Normal
350
332
100
AcDbDictionaryWithDefault
340
332
  0
DICTIONARY
  5
641
102
{ACAD_REACTORS
330
32F
102
}
330
32F
100
AcDbDictionary
281
     1
  3
DIMASSOC
350
642
  0
LAYOUT
  5
344
102
{ACAD_REACTORS
330
33C
102
}
330
33C
100
AcDbPlotSettings
  1

  2

  4

  6

 40
0.0
 41
0.0
 42
0.0
 43
0.0
 44
0.0
 45
0.0
 46
0.0
 47
0.0
 48
0.0
 49
0.0
140
0.0
141
0.0
142
1.0
143
1.0
 70
  1712
 72
     0
 73
     0
 74
     0
  7

 75
     0
147
1.0
148
0.0
149
0.0
100
AcDbLayout
  1
Model
 70
     1
 71
     0
 10
0.0
 20
0.0
 11
12.0
 21
9.0
 12
0.0
 22
0.0
 32
0.0
 14
0.0
 24
0.0
 34
0.0
 15
0.0
 25
0.0
 35
0.0
146
0.0
 13
0.0
 23
0.0
 33
0.0
 16
1.0
 26
0.0
 36
0.0
 17
0.0
 27
1.0
 37
0.0
 76
     0
330
341
  0
LAYOUT
  5
340
102
{ACAD_REACTORS
330
33C
102
}
330
33C
100
AcDbPlotSettings
  1

  2

  4

  6

 40
0.0
 41
0.0
 42
0.0
 43
0.0
 44
0.0
 45
0.0
 46
0.0
 47
0.0
 48
0.0
 49
0.0
140
0.0
141
0.0
142
1.0
143
1.0
 70
   688
 72
     0
 73
     0
 74
     5
  7

 75
    16
147
1.0
148
0.0
149
0.0
100
AcDbLayout
  1
布局1
 70
     0
 71
     1
 10
0.0
 20
0.0
 11
12.0
 21
9.0
 12
0.0
 22
0.0
 32
0.0
 14
1.000000000000000E+20
 24
1.000000000000000E+20
 34
1.000000000000000E+20
 15
-1.000000000000000E+20
 25
-1.000000000000000E+20
 35
-1.000000000000000E+20
146
0.0
 13
0.0
 23
0.0
 33
0.0
 16
1.0
 26
0.0
 36
0.0
 17
0.0
 27
1.0
 37
0.0
 76
     0
330
33D
  0
MLINESTYLE
  5
33A
102
{ACAD_REACTORS
330
339
102
}
330
339
100
AcDbMlineStyle
  2
STANDARD
 70
     0
  3

 62
   256
 51
90.0
 52
90.0
 71
     2
 49
0.5
 62
   256
  6
BYLAYER
 49
-0.5
 62
   256
  6
BYLAYER
  0
ACDBPLACEHOLDER
  5
332
102
{ACAD_REACTORS
330
331
102
}
330
331
  0
DICTIONARYVAR
  5
642
102
{ACAD_REACTORS
330
641
102
}
330
641
100
DictionaryVariables
280
     0
  1
0
  0
ENDSEC
  0
EOF
