  0
SECTION
  2
HEADER
  9
$ACADVER
  1
AC1018
  9
$ACADMAINTVER
 70
     0
  9
$DWGCODEPAGE
  3
ANSI_936
  9
$INSBASE
 10
0.0
 20
0.0
 30
0.0
  9
$EXTMIN
 10
1.000000000000000E+20
 20
1.000000000000000E+20
 30
1.000000000000000E+20
  9
$EXTMAX
 10
-1.000000000000000E+20
 20
-1.000000000000000E+20
 30
-1.000000000000000E+20
  9
$LIMMIN
 10
0.0
 20
0.0
  9
$LIMMAX
 10
12.0
 20
9.0
  9
$ORTHOMODE
 70
     0
  9
$REGENMODE
 70
     1
  9
$FILLMODE
 70
     1
  9
$QTEXTMODE
 70
     0
  9
$MIRRTEXT
 70
     1
  9
$LTSCALE
 40
1.0
  9
$ATTMODE
 70
     1
  9
$TEXTSIZE
 40
0.2
  9
$TRACEWID
 40
0.05
  9
$TEXTSTYLE
  7
Standard
  9
$CLAYER
  8
0
  9
$CELTYPE
  6
ByLayer
  9
$CECOLOR
 62
   256
  9
$CELTSCALE
 40
1.0
  9
$DISPSILH
 70
     0
  9
$DIMSCALE
 40
1.0
  9
$DIMASZ
 40
0.18
  9
$DIMEXO
 40
0.0625
  9
$DIMDLI
 40
0.38
  9
$DIMRND
 40
0.0
  9
$DIMDLE
 40
0.0
  9
$DIMEXE
 40
0.18
  9
$DIMTP
 40
0.0
  9
$DIMTM
 40
0.0
  9
$DIMTXT
 40
0.18
  9
$DIMCEN
 40
0.09
  9
$DIMTSZ
 40
0.0
  9
$DIMTOL
 70
     0
  9
$DIMLIM
 70
     0
  9
$DIMTIH
 70
     1
  9
$DIMTOH
 70
     1
  9
$DIMSE1
 70
     0
  9
$DIMSE2
 70
     0
  9
$DIMTAD
 70
     0
  9
$DIMZIN
 70
     0
  9
$DIMBLK
  1

  9
$DIMASO
 70
     1
  9
$DIMSHO
 70
     1
  9
$DIMPOST
  1

  9
$DIMAPOST
  1

  9
$DIMALT
 70
     0
  9
$DIMALTD
 70
     2
  9
$DIMALTF
 40
25.4
  9
$DIMLFAC
 40
1.0
  9
$DIMTOFL
 70
     0
  9
$DIMTVP
 40
0.0
  9
$DIMTIX
 70
     0
  9
$DIMSOXD
 70
     0
  9
$DIMSAH
 70
     0
  9
$DIMBLK1
  1

  9
$DIMBLK2
  1

  9
$DIMSTYLE
  2
Standard
  9
$DIMCLRD
 70
     0
  9
$DIMCLRE
 70
     0
  9
$DIMCLRT
 70
     0
  9
$DIMTFAC
 40
1.0
  9
$DIMGAP
 40
0.09
  9
$DIMJUST
 70
     0
  9
$DIMSD1
 70
     0
  9
$DIMSD2
 70
     0
  9
$DIMTOLJ
 70
     1
  9
$DIMTZIN
 70
     0
  9
$DIMALTZ
 70
     0
  9
$DIMALTTZ
 70
     0
  9
$DIMUPT
 70
     0
  9
$DIMDEC
 70
     4
  9
$DIMTDEC
 70
     4
  9
$DIMALTU
 70
     2
  9
$DIMALTTD
 70
     2
  9
$DIMTXSTY
  7
Standard
  9
$DIMAUNIT
 70
     0
  9
$DIMADEC
 70
     0
  9
$DIMALTRND
 40
0.0
  9
$DIMAZIN
 70
     0
  9
$DIMDSEP
 70
    46
  9
$DIMATFIT
 70
     3
  9
$DIMFRAC
 70
     0
  9
$DIMLDRBLK
  1

  9
$DIMLUNIT
 70
     2
  9
$DIMLWD
 70
    -2
  9
$DIMLWE
 70
    -2
  9
$DIMTMOVE
 70
     0
  9
$LUNITS
 70
     2
  9
$LUPREC
 70
     4
  9
$SKETCHINC
 40
0.1
  9
$FILLETRAD
 40
0.5
  9
$AUNITS
 70
     0
  9
$AUPREC
 70
     0
  9
$MENU
  1
.
  9
$ELEVATION
 40
0.0
  9
$PELEVATION
 40
0.0
  9
$THICKNESS
 40
0.0
  9
$LIMCHECK
 70
     0
  9
$CHAMFERA
 40
0.5
  9
$CHAMFERB
 40
0.5
  9
$CHAMFERC
 40
1.0
  9
$CHAMFERD
 40
0.0
  9
$SKPOLY
 70
     0
  9
$TDCREATE
 40
2460179.881983819
  9
$TDUCREATE
 40
2460179.798650486
  9
$TDUPDATE
 40
2460179.881983831
  9
$TDUUPDATE
 40
2460179.798650498
  9
$TDINDWG
 40
0.0000000116
  9
$TDUSRTIMER
 40
0.0000000116
  9
$USRTIMER
 70
     1
  9
$ANGBASE
 50
0.0
  9
$ANGDIR
 70
     0
  9
$PDMODE
 70
     0
  9
$PDSIZE
 40
0.0
  9
$PLINEWID
 40
0.0
  9
$SPLFRAME
 70
     0
  9
$SPLINETYPE
 70
     6
  9
$SPLINESEGS
 70
     8
  9
$HANDSEED
  5
54
  9
$SURFTAB1
 70
     6
  9
$SURFTAB2
 70
     6
  9
$SURFTYPE
 70
     6
  9
$SURFU
 70
     6
  9
$SURFV
 70
     6
  9
$UCSBASE
  2

  9
$UCSNAME
  2

  9
$UCSORG
 10
0.0
 20
0.0
 30
0.0
  9
$UCSXDIR
 10
1.0
 20
0.0
 30
0.0
  9
$UCSYDIR
 10
0.0
 20
1.0
 30
0.0
  9
$UCSORTHOREF
  2

  9
$UCSORTHOVIEW
 70
     0
  9
$UCSORGTOP
 10
0.0
 20
0.0
 30
0.0
  9
$UCSORGBOTTOM
 10
0.0
 20
0.0
 30
0.0
  9
$UCSORGLEFT
 10
0.0
 20
0.0
 30
0.0
  9
$UCSORGRIGHT
 10
0.0
 20
0.0
 30
0.0
  9
$UCSORGFRONT
 10
0.0
 20
0.0
 30
0.0
  9
$UCSORGBACK
 10
0.0
 20
0.0
 30
0.0
  9
$PUCSBASE
  2

  9
$PUCSNAME
  2

  9
$PUCSORG
 10
0.0
 20
0.0
 30
0.0
  9
$PUCSXDIR
 10
1.0
 20
0.0
 30
0.0
  9
$PUCSYDIR
 10
0.0
 20
1.0
 30
0.0
  9
$PUCSORTHOREF
  2

  9
$PUCSORTHOVIEW
 70
     0
  9
$PUCSORGTOP
 10
0.0
 20
0.0
 30
0.0
  9
$PUCSORGBOTTOM
 10
0.0
 20
0.0
 30
0.0
  9
$PUCSORGLEFT
 10
0.0
 20
0.0
 30
0.0
  9
$PUCSORGRIGHT
 10
0.0
 20
0.0
 30
0.0
  9
$PUCSORGFRONT
 10
0.0
 20
0.0
 30
0.0
  9
$PUCSORGBACK
 10
0.0
 20
0.0
 30
0.0
  9
$USERI1
 70
     0
  9
$USERI2
 70
     0
  9
$USERI3
 70
     0
  9
$USERI4
 70
     0
  9
$USERI5
 70
     0
  9
$USERR1
 40
0.0
  9
$USERR2
 40
0.0
  9
$USERR3
 40
0.0
  9
$USERR4
 40
0.0
  9
$USERR5
 40
0.0
  9
$WORLDVIEW
 70
     1
  9
$SHADEDGE
 70
     3
  9
$SHADEDIF
 70
    70
  9
$TILEMODE
 70
     1
  9
$MAXACTVP
 70
    64
  9
$PINSBASE
 10
0.0
 20
0.0
 30
0.0
  9
$PLIMCHECK
 70
     0
  9
$PEXTMIN
 10
1.000000000000000E+20
 20
1.000000000000000E+20
 30
1.000000000000000E+20
  9
$PEXTMAX
 10
-1.000000000000000E+20
 20
-1.000000000000000E+20
 30
-1.000000000000000E+20
  9
$PLIMMIN
 10
0.0
 20
0.0
  9
$PLIMMAX
 10
12.0
 20
9.0
  9
$UNITMODE
 70
     0
  9
$VISRETAIN
 70
     1
  9
$PLINEGEN
 70
     0
  9
$PSLTSCALE
 70
     1
  9
$TREEDEPTH
 70
  3020
  9
$CMLSTYLE
  2
Standard
  9
$CMLJUST
 70
     0
  9
$CMLSCALE
 40
1.0
  9
$PROXYGRAPHICS
 70
     1
  9
$MEASUREMENT
 70
     0
  9
$CELWEIGHT
370
    -1
  9
$ENDCAPS
280
     0
  9
$JOINSTYLE
280
     0
  9
$LWDISPLAY
290
     1
  9
$INSUNITS
 70
     1
  9
$HYPERLINKBASE
  1

  9
$STYLESHEET
  1

  9
$XEDIT
290
     1
  9
$CEPSNTYPE
380
     0
  9
$PSTYLEMODE
290
     1
  9
$FINGERPRINTGUID
  2
{BFC7FF0F-DFCD-46DC-A48C-FF23C40138F2}
  9
$VERSIONGUID
  2
{FAEB1C32-E019-11D5-929B-00C0DF256EC4}
  9
$EXTNAMES
290
     1
  9
$PSVPSCALE
 40
0.0
  9
$OLESTARTUP
290
     0
  9
$SORTENTS
280
   127
  9
$INDEXCTL
280
     0
  9
$HIDETEXT
280
     1
  9
$XCLIPFRAME
290
     0
  9
$HALOGAP
280
     0
  9
$OBSCOLOR
 70
   257
  9
$OBSLTYPE
280
     0
  9
$INTERSECTIONDISPLAY
280
     0
  9
$INTERSECTIONCOLOR
 70
   257
  9
$DIMASSOC
280
     2
  9
$PROJECTNAME
  1

  0
ENDSEC
  0
SECTION
  2
CLASSES
  0
CLASS
  1
ACDBDICTIONARYWDFLT
  2
AcDbDictionaryWithDefault
  3
ObjectDBX Classes
 90
        0
 91
        3
280
     0
281
     0
  0
CLASS
  1
VISUALSTYLE
  2
AcDbVisualStyle
  3
ObjectDBX Classes
 90
     4095
 91
        3
280
     0
281
     0
  0
ENDSEC
  0
SECTION
  2
TABLES
  0
TABLE
  2
VPORT
  5
8
330
0
100
AcDbSymbolTable
 70
     1
  0
VPORT
  5
29
330
8
100
AcDbSymbolTableRecord
100
AcDbViewportTableRecord
  2
*Active
 70
     0
 10
0.0
 20
0.0
 11
1.0
 21
1.0
 12
0.0
 22
0.0
 13
0.0
 23
0.0
 14
0.5
 24
0.5
 15
0.5
 25
0.5
 16
0.0
 26
0.0
 36
1.0
 17
899.9995006430559
 27
-600.2195216055875
 37
0.0
 40
71.0788655421261
 41
8.44132629568775
 42
50.0
 43
0.0
 44
0.0
 50
0.0
 51
0.0
 71
     0
 72
   100
 73
     1
 74
     3
 75
     0
 76
     0
 77
     0
 78
     0
281
     0
 65
     1
110
0.0
120
0.0
130
0.0
111
1.0
121
0.0
131
0.0
112
0.0
122
1.0
132
0.0
 79
     0
146
0.0
  0
ENDTAB
  0
TABLE
  2
LTYPE
  5
5
330
0
100
AcDbSymbolTable
 70
     1
  0
LTYPE
  5
14
330
5
100
AcDbSymbolTableRecord
100
AcDbLinetypeTableRecord
  2
ByBlock
 70
     0
  3

 72
    65
 73
     0
 40
0.0
  0
LTYPE
  5
15
330
5
100
AcDbSymbolTableRecord
100
AcDbLinetypeTableRecord
  2
ByLayer
 70
     0
  3

 72
    65
 73
     0
 40
0.0
  0
LTYPE
  5
16
330
5
100
AcDbSymbolTableRecord
100
AcDbLinetypeTableRecord
  2
Continuous
 70
     0
  3
Solid line
 72
    65
 73
     0
 40
0.0
  0
ENDTAB
  0
TABLE
  2
LAYER
  5
2
330
0
100
AcDbSymbolTable
 70
     2
  0
LAYER
  5
10
330
2
100
AcDbSymbolTableRecord
100
AcDbLayerTableRecord
  2
0
 70
     0
 62
     7
  6
Continuous
370
    -3
390
F
  0
LAYER
  5
3B
330
2
100
AcDbSymbolTableRecord
100
AcDbLayerTableRecord
  2
Layer 1
 70
     0
 62
     7
  6
Continuous
370
    -3
390
F
  0
ENDTAB
  0
TABLE
  2
STYLE
  5
3
330
0
100
AcDbSymbolTable
 70
     1
  0
STYLE
  5
11
330
3
100
AcDbSymbolTableRecord
100
AcDbTextStyleTableRecord
  2
Standard
 70
     0
 40
0.0
 41
1.0
 50
0.0
 71
     0
 42
0.2
  3
txt
  4

  0
ENDTAB
  0
TABLE
  2
VIEW
  5
6
330
0
100
AcDbSymbolTable
 70
     0
  0
ENDTAB
  0
TABLE
  2
UCS
  5
7
330
0
100
AcDbSymbolTable
 70
     0
  0
ENDTAB
  0
TABLE
  2
APPID
  5
9
330
0
100
AcDbSymbolTable
 70
     1
  0
APPID
  5
12
330
9
100
AcDbSymbolTableRecord
100
AcDbRegAppTableRecord
  2
ACAD
 70
     0
  0
ENDTAB
  0
TABLE
  2
DIMSTYLE
  5
A
330
0
100
AcDbSymbolTable
 70
     1
100
AcDbDimStyleTable
  0
DIMSTYLE
105
27
330
A
100
AcDbSymbolTableRecord
100
AcDbDimStyleTableRecord
  2
Standard
 70
     0
340
11
  0
ENDTAB
  0
TABLE
  2
BLOCK_RECORD
  5
1
330
0
100
AcDbSymbolTable
 70
     2
  0
BLOCK_RECORD
  5
1F
330
1
100
AcDbSymbolTableRecord
100
AcDbBlockTableRecord
  2
*Model_Space
340
22
  0
BLOCK_RECORD
  5
1B
330
1
100
AcDbSymbolTableRecord
100
AcDbBlockTableRecord
  2
*Paper_Space
340
1E
  0
BLOCK_RECORD
  5
23
330
1
100
AcDbSymbolTableRecord
100
AcDbBlockTableRecord
  2
*Paper_Space0
340
26
  0
BLOCK_RECORD
  5
3C
330
1
100
AcDbSymbolTableRecord
100
AcDbBlockTableRecord
  2
block 2
340
0
102
{BLKREFS
331
3D
102
}
  0
ENDTAB
  0
ENDSEC
  0
SECTION
  2
BLOCKS
  0
BLOCK
  5
20
330
1F
100
AcDbEntity
  8
0
100
AcDbBlockBegin
  2
*Model_Space
 70
     0
 71
     0
 10
0.0
 20
0.0
 30
0.0
  3
*Model_Space
  1

  0
ENDBLK
  5
21
330
1F
100
AcDbEntity
  8
0
100
AcDbBlockEnd
  0
BLOCK
  5
1C
330
1B
100
AcDbEntity
 67
     1
  8
0
100
AcDbBlockBegin
  2
*Paper_Space
 70
     0
 71
     0
 10
0.0
 20
0.0
 30
0.0
  3
*Paper_Space
  1

  0
ENDBLK
  5
1D
330
1B
100
AcDbEntity
 67
     1
  8
0
100
AcDbBlockEnd
  0
BLOCK
  5
24
330
23
100
AcDbEntity
  8
0
100
AcDbBlockBegin
  2
*Paper_Space0
 70
     0
 71
     0
 10
0.0
 20
0.0
 30
0.0
  3
*Paper_Space0
  1

  0
ENDBLK
  5
25
330
23
100
AcDbEntity
  8
0
100
AcDbBlockEnd
  0
BLOCK
  5
3E
330
3C
100
AcDbEntity
  8
0
100
AcDbBlockBegin
  2
block 2
 70
     0
 71
     0
 10
0.0
 20
0.0
 30
0.0
  3
block 2
  1

  0
SPLINE
  5
40
330
3C
100
AcDbEntity
  8
Layer 1
370
     0
100
AcDbSpline
210
0.0
220
0.0
230
1.0
 70
    11
 71
     3
 72
    32
 73
    28
 74
     0
 42
0.0000000001
 43
0.0000000001
 40
0.0
 40
0.0
 40
0.0
 40
0.0
 40
1.0
 40
1.0
 40
1.0
 40
2.0
 40
2.0
 40
2.0
 40
3.0
 40
3.0
 40
3.0
 40
4.0
 40
4.0
 40
4.0
 40
5.0
 40
5.0
 40
5.0
 40
6.0
 40
6.0
 40
6.0
 40
7.0
 40
7.0
 40
7.0
 40
8.0
 40
8.0
 40
8.0
 40
9.0
 40
9.0
 40
9.0
 40
9.0
 10
634.8308456529243
 20
-627.5982121911908
 30
0.0
 10
628.2417560278354
 20
-632.151250384497
 30
0.0
 10
622.7513073529927
 20
-634.6654810696323
 30
0.0
 10
614.9078584617245
 20
-634.6654810696323
 30
0.0
 10
607.0585529081312
 20
-634.6654810696323
 30
0.0
 10
599.9995522588544
 20
-628.5438909018918
 30
0.0
 10
599.9995522588544
 20
-618.9730711343193
 30
0.0
 10
599.9995522588544
 20
-608.7738659502371
 30
0.0
 10
603.9212767044885
 20
-603.5920978308728
 30
0.0
 10
608.3129121743107
 20
-600.1430404858149
 30
0.0
 10
614.9078584617245
 20
-594.9640284428389
 30
0.0
 10
626.5173134826936
 20
-592.4523815793175
 30
0.0
 10
637.8124035406337
 20
-590.7293170723698
 30
0.0
 10
637.8124035406337
 20
-590.7293170723698
 30
0.0
 10
636.7139348451618
 20
-603.2803166894578
 30
0.0
 10
636.7139348451618
 20
-603.2803166894578
 30
0.0
 10
632.4806015128868
 20
-603.9090466155159
 30
0.0
 10
628.0832816355139
 20
-604.6934948575072
 30
0.0
 10
628.0832816355139
 20
-611.599533267239
 30
0.0
 10
628.0832816355139
 20
-614.4227890174013
 30
0.0
 10
629.9691269041397
 20
-616.4640080924119
 30
0.0
 10
631.8491155104406
 20
-616.4640080924119
 30
0.0
 10
633.4207680708115
 20
-616.4640080924119
 30
0.0
 10
634.9865639688576
 20
-615.832866599514
 30
0.0
 10
635.7737682872371
 20
-615.3657116517142
 30
0.0
 10
635.7737682872371
 20
-615.3657116517142
 30
0.0
 10
634.8308456529243
 20
-627.5982121911908
 30
0.0
 10
634.8308456529243
 20
-627.5982121911908
 30
0.0
  0
SPLINE
  5
41
330
3C
100
AcDbEntity
  8
Layer 1
370
     0
100
AcDbSpline
210
0.0
220
0.0
230
1.0
 70
    11
 71
     3
 72
    47
 73
    43
 74
     0
 42
0.0000000001
 43
0.0000000001
 40
0.0
 40
0.0
 40
0.0
 40
0.0
 40
1.0
 40
1.0
 40
1.0
 40
2.0
 40
2.0
 40
2.0
 40
3.0
 40
3.0
 40
3.0
 40
4.0
 40
4.0
 40
4.0
 40
5.0
 40
5.0
 40
5.0
 40
6.0
 40
6.0
 40
6.0
 40
7.0
 40
7.0
 40
7.0
 40
8.0
 40
8.0
 40
8.0
 40
9.0
 40
9.0
 40
9.0
 40
10.0
 40
10.0
 40
10.0
 40
11.0
 40
11.0
 40
11.0
 40
12.0
 40
12.0
 40
12.0
 40
13.0
 40
13.0
 40
13.0
 40
14.0
 40
14.0
 40
14.0
 40
14.0
 10
607.6872828341893
 20
-587.7448308534979
 30
0.0
 10
608.4715588214065
 20
-582.7244654576175
 30
0.0
 10
609.0973604163021
 20
-575.0381129204766
 30
0.0
 10
609.4144814557193
 20
-570.8006454736193
 30
0.0
 10
618.9853012232919
 20
-566.4059094178604
 30
0.0
 10
637.6596135558628
 20
-564.6800888345244
 30
0.0
 10
648.9578041997397
 20
-564.6800888345244
 30
0.0
 10
658.5255233813756
 20
-564.6800888345244
 30
0.0
 10
673.9040851179824
 20
-565.3088187605825
 30
0.0
 10
673.9040851179824
 20
-577.7025497687688
 30
0.0
 10
673.9040851179824
 20
-581.0000229124757
 30
0.0
 10
673.4338295842457
 20
-586.333375233191
 30
0.0
 10
672.8052719129619
 20
-592.925220934668
 30
0.0
 10
672.1794703180663
 20
-599.3572142056295
 30
0.0
 10
671.3924382544609
 20
-605.9475096141382
 30
0.0
 10
671.3924382544609
 20
-608.4593287324338
 30
0.0
 10
671.3924382544609
 20
-613.7940590913432
 30
0.0
 10
672.652481928191
 20
-614.8899439652012
 30
0.0
 10
674.8470077522952
 20
-614.8899439652012
 30
0.0
 10
677.3557262846541
 20
-614.8899439652012
 30
0.0
 10
681.121732414355
 20
-613.9497774072764
 30
0.0
 10
683.3162582384591
 20
-612.3812254328423
 30
0.0
 10
683.3162582384591
 20
-612.3812254328423
 30
0.0
 10
682.3817760880852
 20
-627.5982121911908
 30
0.0
 10
682.3817760880852
 20
-627.5982121911908
 30
0.0
 10
673.7481945472748
 20
-632.151250384497
 30
0.0
 10
660.8814519289637
 20
-634.5070066773108
 30
0.0
 10
651.3049477538405
 20
-634.5070066773108
 30
0.0
 10
642.6770506205808
 20
-634.5070066773108
 30
0.0
 10
641.266973038468
 20
-631.3668021425055
 30
0.0
 10
641.266973038468
 20
-625.7206351517295
 30
0.0
 10
641.266973038468
 20
-620.0717120845654
 30
0.0
 10
644.2487031809518
 20
-592.1395669092568
 30
0.0
 10
644.2487031809518
 20
-585.8619139160345
 30
0.0
 10
644.2487031809518
 20
-581.470106191438
 30
0.0
 10
642.8356972676766
 20
-578.6454724030817
 30
0.0
 10
636.8724092374833
 20
-578.6454724030817
 30
0.0
 10
630.1246729652987
 20
-578.6454724030817
 30
0.0
 10
626.5173134826936
 20
-581.6285805837596
 30
0.0
 10
624.4755776433603
 20
-587.7448308534979
 30
0.0
 10
624.4755776433603
 20
-587.7448308534979
 30
0.0
 10
607.6872828341893
 20
-587.7448308534979
 30
0.0
 10
607.6872828341893
 20
-587.7448308534979
 30
0.0
  0
HATCH
  5
42
330
3C
100
AcDbEntity
  8
Layer 1
 62
   250
100
AcDbHatch
 10
0.0
 20
0.0
 30
0.0
210
0.0
220
0.0
230
1.0
  2
SOLID
 70
     1
 71
     0
 91
        2
 92
        1
 93
        1
 72
     4
 94
        3
 73
     0
 74
     1
 95
       32
 96
       28
 40
0.0
 40
0.0
 40
0.0
 40
0.0
 40
1.0
 40
1.0
 40
1.0
 40
2.0
 40
2.0
 40
2.0
 40
3.0
 40
3.0
 40
3.0
 40
4.0
 40
4.0
 40
4.0
 40
5.0
 40
5.0
 40
5.0
 40
6.0
 40
6.0
 40
6.0
 40
7.0
 40
7.0
 40
7.0
 40
8.0
 40
8.0
 40
8.0
 40
9.0
 40
9.0
 40
9.0
 40
9.0
 10
634.8308456529243
 20
-627.5982121911908
 10
628.2417560278354
 20
-632.151250384497
 10
622.7513073529927
 20
-634.6654810696323
 10
614.9078584617245
 20
-634.6654810696323
 10
607.0585529081312
 20
-634.6654810696323
 10
599.9995522588544
 20
-628.5438909018918
 10
599.9995522588544
 20
-618.9730711343193
 10
599.9995522588544
 20
-608.7738659502371
 10
603.9212767044885
 20
-603.5920978308728
 10
608.3129121743107
 20
-600.1430404858149
 10
614.9078584617245
 20
-594.9640284428389
 10
626.5173134826936
 20
-592.4523815793175
 10
637.8124035406337
 20
-590.7293170723698
 10
637.8124035406337
 20
-590.7293170723698
 10
636.7139348451618
 20
-603.2803166894578
 10
636.7139348451618
 20
-603.2803166894578
 10
632.4806015128868
 20
-603.9090466155159
 10
628.0832816355139
 20
-604.6934948575072
 10
628.0832816355139
 20
-611.599533267239
 10
628.0832816355139
 20
-614.4227890174013
 10
629.9691269041397
 20
-616.4640080924119
 10
631.8491155104406
 20
-616.4640080924119
 10
633.4207680708115
 20
-616.4640080924119
 10
634.9865639688576
 20
-615.832866599514
 10
635.7737682872371
 20
-615.3657116517142
 10
635.7737682872371
 20
-615.3657116517142
 10
634.8308456529243
 20
-627.5982121911908
 10
634.8308456529243
 20
-627.5982121911908
 97
        0
 92
        1
 93
        1
 72
     4
 94
        3
 73
     0
 74
     1
 95
       47
 96
       43
 40
0.0
 40
0.0
 40
0.0
 40
0.0
 40
1.0
 40
1.0
 40
1.0
 40
2.0
 40
2.0
 40
2.0
 40
3.0
 40
3.0
 40
3.0
 40
4.0
 40
4.0
 40
4.0
 40
5.0
 40
5.0
 40
5.0
 40
6.0
 40
6.0
 40
6.0
 40
7.0
 40
7.0
 40
7.0
 40
8.0
 40
8.0
 40
8.0
 40
9.0
 40
9.0
 40
9.0
 40
10.0
 40
10.0
 40
10.0
 40
11.0
 40
11.0
 40
11.0
 40
12.0
 40
12.0
 40
12.0
 40
13.0
 40
13.0
 40
13.0
 40
14.0
 40
14.0
 40
14.0
 40
14.0
 10
607.6872828341893
 20
-587.7448308534979
 10
608.4715588214065
 20
-582.7244654576175
 10
609.0973604163021
 20
-575.0381129204766
 10
609.4144814557193
 20
-570.8006454736193
 10
618.9853012232919
 20
-566.4059094178604
 10
637.6596135558628
 20
-564.6800888345244
 10
648.9578041997397
 20
-564.6800888345244
 10
658.5255233813756
 20
-564.6800888345244
 10
673.9040851179824
 20
-565.3088187605825
 10
673.9040851179824
 20
-577.7025497687688
 10
673.9040851179824
 20
-581.0000229124757
 10
673.4338295842457
 20
-586.333375233191
 10
672.8052719129619
 20
-592.925220934668
 10
672.1794703180663
 20
-599.3572142056295
 10
671.3924382544609
 20
-605.9475096141382
 10
671.3924382544609
 20
-608.4593287324338
 10
671.3924382544609
 20
-613.7940590913432
 10
672.652481928191
 20
-614.8899439652012
 10
674.8470077522952
 20
-614.8899439652012
 10
677.3557262846541
 20
-614.8899439652012
 10
681.121732414355
 20
-613.9497774072764
 10
683.3162582384591
 20
-612.3812254328423
 10
683.3162582384591
 20
-612.3812254328423
 10
682.3817760880852
 20
-627.5982121911908
 10
682.3817760880852
 20
-627.5982121911908
 10
673.7481945472748
 20
-632.151250384497
 10
660.8814519289637
 20
-634.5070066773108
 10
651.3049477538405
 20
-634.5070066773108
 10
642.6770506205808
 20
-634.5070066773108
 10
641.266973038468
 20
-631.3668021425055
 10
641.266973038468
 20
-625.7206351517295
 10
641.266973038468
 20
-620.0717120845654
 10
644.2487031809518
 20
-592.1395669092568
 10
644.2487031809518
 20
-585.8619139160345
 10
644.2487031809518
 20
-581.470106191438
 10
642.8356972676766
 20
-578.6454724030817
 10
636.8724092374833
 20
-578.6454724030817
 10
630.1246729652987
 20
-578.6454724030817
 10
626.5173134826936
 20
-581.6285805837596
 10
624.4755776433603
 20
-587.7448308534979
 10
624.4755776433603
 20
-587.7448308534979
 10
607.6872828341893
 20
-587.7448308534979
 10
607.6872828341893
 20
-587.7448308534979
 97
        0
 75
     2
 76
     1
 98
        0
  0
SPLINE
  5
43
330
3C
100
AcDbEntity
  8
Layer 1
370
     0
100
AcDbSpline
210
0.0
220
0.0
230
1.0
 70
    11
 71
     3
 72
   101
 73
    97
 74
     0
 42
0.0000000001
 43
0.0000000001
 40
0.0
 40
0.0
 40
0.0
 40
0.0
 40
1.0
 40
1.0
 40
1.0
 40
2.0
 40
2.0
 40
2.0
 40
3.0
 40
3.0
 40
3.0
 40
4.0
 40
4.0
 40
4.0
 40
5.0
 40
5.0
 40
5.0
 40
6.0
 40
6.0
 40
6.0
 40
7.0
 40
7.0
 40
7.0
 40
8.0
 40
8.0
 40
8.0
 40
9.0
 40
9.0
 40
9.0
 40
10.0
 40
10.0
 40
10.0
 40
11.0
 40
11.0
 40
11.0
 40
12.0
 40
12.0
 40
12.0
 40
13.0
 40
13.0
 40
13.0
 40
14.0
 40
14.0
 40
14.0
 40
15.0
 40
15.0
 40
15.0
 40
16.0
 40
16.0
 40
16.0
 40
17.0
 40
17.0
 40
17.0
 40
18.0
 40
18.0
 40
18.0
 40
19.0
 40
19.0
 40
19.0
 40
20.0
 40
20.0
 40
20.0
 40
21.0
 40
21.0
 40
21.0
 40
22.0
 40
22.0
 40
22.0
 40
23.0
 40
23.0
 40
23.0
 40
24.0
 40
24.0
 40
24.0
 40
25.0
 40
25.0
 40
25.0
 40
26.0
 40
26.0
 40
26.0
 40
27.0
 40
27.0
 40
27.0
 40
28.0
 40
28.0
 40
28.0
 40
29.0
 40
29.0
 40
29.0
 40
30.0
 40
30.0
 40
30.0
 40
31.0
 40
31.0
 40
31.0
 40
32.0
 40
32.0
 40
32.0
 40
32.0
 10
809.6249997975938
 20
-627.7597871694489
 30
0.0
 10
799.431306766288
 20
-632.9384547028765
 30
0.0
 10
790.3276419465153
 20
-634.5070066773108
 30
0.0
 10
778.7152585943837
 20
-634.5070066773108
 30
0.0
 10
772.1290973004574
 20
-634.5070066773108
 30
0.0
 10
770.8745657795037
 20
-631.5228649679874
 30
0.0
 10
770.8745657795037
 20
-627.7597871694489
 30
0.0
 10
770.8745657795037
 20
-623.0503416411125
 30
0.0
 10
774.3236231245614
 20
-596.2199380019867
 30
0.0
 10
774.3236231245614
 20
-592.925220934668
 30
0.0
 10
774.3236231245614
 20
-590.4135740711466
 30
0.0
 10
773.6921371221152
 20
-587.7448308534979
 30
0.0
 10
771.6535018687186
 20
-587.7448308534979
 30
0.0
 10
769.141682750423
 20
-587.7448308534979
 30
0.0
 10
765.8512720524608
 20
-589.4735797679962
 30
0.0
 10
762.3968748094009
 20
-594.4939451638766
 30
0.0
 10
761.7712454692794
 20
-599.0428492426005
 30
0.0
 10
761.3009899355428
 20
-603.9090466155159
 30
0.0
 10
761.1425155432214
 20
-606.1063285160081
 30
0.0
 10
760.3553112248418
 20
-615.9940970682237
 30
0.0
 10
759.7322657063344
 20
-621.4817896666782
 30
0.0
 10
759.7322657063344
 20
-624.7780570269653
 30
0.0
 10
759.7322657063344
 20
-626.3466090013995
 30
0.0
 10
759.7322657063344
 20
-628.0739798777038
 30
0.0
 10
759.8854002006536
 20
-629.4868135362047
 30
0.0
 10
753.6105032838196
 20
-630.1124428763261
 30
0.0
 10
736.1933062938162
 20
-633.5671846289346
 30
0.0
 10
730.230018263623
 20
-635.7589543766505
 30
0.0
 10
731.1700125667735
 20
-627.2867755593242
 30
0.0
 10
732.1101791246982
 20
-619.129133959801
 30
0.0
 10
733.0560300901735
 20
-609.0849580725552
 30
0.0
 10
733.8373777462282
 20
-600.7702201189047
 30
0.0
 10
734.310389356353
 20
-593.8653874925927
 30
0.0
 10
734.310389356353
 20
-592.925220934668
 30
0.0
 10
734.310389356353
 20
-590.100759401086
 30
0.0
 10
733.5231850379733
 20
-587.7448308534979
 30
0.0
 10
731.6430241768983
 20
-587.7448308534979
 30
0.0
 10
729.445742276406
 20
-587.7448308534979
 30
0.0
 10
726.4638398791479
 20
-589.4735797679962
 30
0.0
 10
722.3838132959665
 20
-594.4939451638766
 30
0.0
 10
721.91355776223
 20
-598.5729382184123
 30
0.0
 10
721.5993650539752
 20
-602.4986245238546
 30
0.0
 10
721.2879284221086
 20
-606.8907767579996
 30
0.0
 10
720.6591984960505
 20
-615.0487628670712
 30
0.0
 10
719.7190319381258
 20
-625.4036863670866
 30
0.0
 10
719.8719941776709
 20
-629.4868135362047
 30
0.0
 10
712.9714679207156
 20
-630.2709172686476
 30
0.0
 10
697.7487967548163
 20
-633.4087102366132
 30
0.0
 10
690.6868677743769
 20
-635.7589543766505
 30
0.0
 10
691.9412270405564
 20
-626.8165200255876
 30
0.0
 10
694.6115205511735
 20
-599.6729572068526
 30
0.0
 10
694.6115205511735
 20
-591.5122150213928
 30
0.0
 10
694.6115205511735
 20
-588.6877534878107
 30
0.0
 10
693.6685979168607
 20
-587.2747475745355
 30
0.0
 10
691.3154254456607
 20
-587.2747475745355
 30
0.0
 10
689.743945140064
 20
-587.2747475745355
 30
0.0
 10
686.920861644676
 20
-587.9034775005936
 30
0.0
 10
684.4119708575429
 20
-588.8448498419381
 30
0.0
 10
684.4119708575429
 20
-588.8448498419381
 30
0.0
 10
685.5078557314008
 20
-574.4095552491927
 30
0.0
 10
685.5078557314008
 20
-574.4095552491927
 30
0.0
 10
694.6115205511735
 20
-570.330562194657
 30
0.0
 10
706.3823782956266
 20
-564.9929035045851
 30
0.0
 10
718.3061982796248
 20
-564.9929035045851
 30
0.0
 10
723.6436847149224
 20
-564.9929035045851
 30
0.0
 10
724.5810951964589
 20
-567.976011685263
 30
0.0
 10
724.5810951964589
 20
-570.9591198659408
 30
0.0
 10
724.5810951964589
 20
-572.6837346658568
 30
0.0
 10
724.2696585645923
 20
-576.1338255395603
 30
0.0
 10
723.955121346789
 20
-578.1740110859253
 30
0.0
 10
733.6816594302949
 20
-570.330562194657
 30
0.0
 10
741.5280366527256
 20
-564.9929035045851
 30
0.0
 10
753.766221599753
 20
-564.9929035045851
 30
0.0
 10
761.4567082514761
 20
-564.9929035045851
 30
0.0
 10
763.8126367990642
 20
-571.2705564978074
 30
0.0
 10
763.8126367990642
 20
-574.7209918810594
 30
0.0
 10
763.8126367990642
 20
-576.1338255395603
 30
0.0
 10
763.6512340755803
 20
-577.3897350987081
 30
0.0
 10
763.6512340755803
 20
-578.1740110859253
 30
0.0
 10
775.5750540595785
 20
-569.8577228393065
 30
0.0
 10
782.9515202578211
 20
-564.9929035045851
 30
0.0
 10
794.5664874315668
 20
-564.9929035045851
 30
0.0
 10
802.4101085776093
 20
-564.9929035045851
 30
0.0
 10
804.4487438310059
 20
-571.4250690303209
 30
0.0
 10
804.2959538462351
 20
-575.6625364771782
 30
0.0
 10
804.2959538462351
 20
-576.7625554656184
 30
0.0
 10
800.6856660324675
 20
-605.3191241976285
 30
0.0
 10
800.6856660324675
 20
-610.6538545565379
 30
0.0
 10
800.6856660324675
 20
-613.6383407754099
 30
0.0
 10
801.6258325903922
 20
-615.2072372593926
 30
0.0
 10
803.197312895989
 20
-615.2072372593926
 30
0.0
 10
806.3376896855684
 20
-615.2072372593926
 30
0.0
 10
809.1606009261822
 20
-614.108251799598
 30
0.0
 10
811.5108450662195
 20
-612.5396998251637
 30
0.0
 10
811.5108450662195
 20
-612.5396998251637
 30
0.0
 10
809.6249997975938
 20
-627.7597871694489
 30
0.0
 10
809.6249997975938
 20
-627.7597871694489
 30
0.0
  0
HATCH
  5
44
330
3C
100
AcDbEntity
  8
Layer 1
 62
   250
100
AcDbHatch
 10
0.0
 20
0.0
 30
0.0
210
0.0
220
0.0
230
1.0
  2
SOLID
 70
     1
 71
     0
 91
        1
 92
        1
 93
        1
 72
     4
 94
        3
 73
     0
 74
     1
 95
      101
 96
       97
 40
0.0
 40
0.0
 40
0.0
 40
0.0
 40
1.0
 40
1.0
 40
1.0
 40
2.0
 40
2.0
 40
2.0
 40
3.0
 40
3.0
 40
3.0
 40
4.0
 40
4.0
 40
4.0
 40
5.0
 40
5.0
 40
5.0
 40
6.0
 40
6.0
 40
6.0
 40
7.0
 40
7.0
 40
7.0
 40
8.0
 40
8.0
 40
8.0
 40
9.0
 40
9.0
 40
9.0
 40
10.0
 40
10.0
 40
10.0
 40
11.0
 40
11.0
 40
11.0
 40
12.0
 40
12.0
 40
12.0
 40
13.0
 40
13.0
 40
13.0
 40
14.0
 40
14.0
 40
14.0
 40
15.0
 40
15.0
 40
15.0
 40
16.0
 40
16.0
 40
16.0
 40
17.0
 40
17.0
 40
17.0
 40
18.0
 40
18.0
 40
18.0
 40
19.0
 40
19.0
 40
19.0
 40
20.0
 40
20.0
 40
20.0
 40
21.0
 40
21.0
 40
21.0
 40
22.0
 40
22.0
 40
22.0
 40
23.0
 40
23.0
 40
23.0
 40
24.0
 40
24.0
 40
24.0
 40
25.0
 40
25.0
 40
25.0
 40
26.0
 40
26.0
 40
26.0
 40
27.0
 40
27.0
 40
27.0
 40
28.0
 40
28.0
 40
28.0
 40
29.0
 40
29.0
 40
29.0
 40
30.0
 40
30.0
 40
30.0
 40
31.0
 40
31.0
 40
31.0
 40
32.0
 40
32.0
 40
32.0
 40
32.0
 10
809.6249997975938
 20
-627.7597871694489
 10
799.431306766288
 20
-632.9384547028765
 10
790.3276419465153
 20
-634.5070066773108
 10
778.7152585943837
 20
-634.5070066773108
 10
772.1290973004574
 20
-634.5070066773108
 10
770.8745657795037
 20
-631.5228649679874
 10
770.8745657795037
 20
-627.7597871694489
 10
770.8745657795037
 20
-623.0503416411125
 10
774.3236231245614
 20
-596.2199380019867
 10
774.3236231245614
 20
-592.925220934668
 10
774.3236231245614
 20
-590.4135740711466
 10
773.6921371221152
 20
-587.7448308534979
 10
771.6535018687186
 20
-587.7448308534979
 10
769.141682750423
 20
-587.7448308534979
 10
765.8512720524608
 20
-589.4735797679962
 10
762.3968748094009
 20
-594.4939451638766
 10
761.7712454692794
 20
-599.0428492426005
 10
761.3009899355428
 20
-603.9090466155159
 10
761.1425155432214
 20
-606.1063285160081
 10
760.3553112248418
 20
-615.9940970682237
 10
759.7322657063344
 20
-621.4817896666782
 10
759.7322657063344
 20
-624.7780570269653
 10
759.7322657063344
 20
-626.3466090013995
 10
759.7322657063344
 20
-628.0739798777038
 10
759.8854002006536
 20
-629.4868135362047
 10
753.6105032838196
 20
-630.1124428763261
 10
736.1933062938162
 20
-633.5671846289346
 10
730.230018263623
 20
-635.7589543766505
 10
731.1700125667735
 20
-627.2867755593242
 10
732.1101791246982
 20
-619.129133959801
 10
733.0560300901735
 20
-609.0849580725552
 10
733.8373777462282
 20
-600.7702201189047
 10
734.310389356353
 20
-593.8653874925927
 10
734.310389356353
 20
-592.925220934668
 10
734.310389356353
 20
-590.100759401086
 10
733.5231850379733
 20
-587.7448308534979
 10
731.6430241768983
 20
-587.7448308534979
 10
729.445742276406
 20
-587.7448308534979
 10
726.4638398791479
 20
-589.4735797679962
 10
722.3838132959665
 20
-594.4939451638766
 10
721.91355776223
 20
-598.5729382184123
 10
721.5993650539752
 20
-602.4986245238546
 10
721.2879284221086
 20
-606.8907767579996
 10
720.6591984960505
 20
-615.0487628670712
 10
719.7190319381258
 20
-625.4036863670866
 10
719.8719941776709
 20
-629.4868135362047
 10
712.9714679207156
 20
-630.2709172686476
 10
697.7487967548163
 20
-633.4087102366132
 10
690.6868677743769
 20
-635.7589543766505
 10
691.9412270405564
 20
-626.8165200255876
 10
694.6115205511735
 20
-599.6729572068526
 10
694.6115205511735
 20
-591.5122150213928
 10
694.6115205511735
 20
-588.6877534878107
 10
693.6685979168607
 20
-587.2747475745355
 10
691.3154254456607
 20
-587.2747475745355
 10
689.743945140064
 20
-587.2747475745355
 10
686.920861644676
 20
-587.9034775005936
 10
684.4119708575429
 20
-588.8448498419381
 10
684.4119708575429
 20
-588.8448498419381
 10
685.5078557314008
 20
-574.4095552491927
 10
685.5078557314008
 20
-574.4095552491927
 10
694.6115205511735
 20
-570.330562194657
 10
706.3823782956266
 20
-564.9929035045851
 10
718.3061982796248
 20
-564.9929035045851
 10
723.6436847149224
 20
-564.9929035045851
 10
724.5810951964589
 20
-567.976011685263
 10
724.5810951964589
 20
-570.9591198659408
 10
724.5810951964589
 20
-572.6837346658568
 10
724.2696585645923
 20
-576.1338255395603
 10
723.955121346789
 20
-578.1740110859253
 10
733.6816594302949
 20
-570.330562194657
 10
741.5280366527256
 20
-564.9929035045851
 10
753.766221599753
 20
-564.9929035045851
 10
761.4567082514761
 20
-564.9929035045851
 10
763.8126367990642
 20
-571.2705564978074
 10
763.8126367990642
 20
-574.7209918810594
 10
763.8126367990642
 20
-576.1338255395603
 10
763.6512340755803
 20
-577.3897350987081
 10
763.6512340755803
 20
-578.1740110859253
 10
775.5750540595785
 20
-569.8577228393065
 10
782.9515202578211
 20
-564.9929035045851
 10
794.5664874315668
 20
-564.9929035045851
 10
802.4101085776093
 20
-564.9929035045851
 10
804.4487438310059
 20
-571.4250690303209
 10
804.2959538462351
 20
-575.6625364771782
 10
804.2959538462351
 20
-576.7625554656184
 10
800.6856660324675
 20
-605.3191241976285
 10
800.6856660324675
 20
-610.6538545565379
 10
800.6856660324675
 20
-613.6383407754099
 10
801.6258325903922
 20
-615.2072372593926
 10
803.197312895989
 20
-615.2072372593926
 10
806.3376896855684
 20
-615.2072372593926
 10
809.1606009261822
 20
-614.108251799598
 10
811.5108450662195
 20
-612.5396998251637
 10
811.5108450662195
 20
-612.5396998251637
 10
809.6249997975938
 20
-627.7597871694489
 10
809.6249997975938
 20
-627.7597871694489
 97
        0
 75
     2
 76
     1
 98
        0
  0
SPLINE
  5
45
330
3C
100
AcDbEntity
  8
Layer 1
370
     0
100
AcDbSpline
210
0.0
220
0.0
230
1.0
 70
    11
 71
     3
 72
    20
 73
    16
 74
     0
 42
0.0000000001
 43
0.0000000001
 40
0.0
 40
0.0
 40
0.0
 40
0.0
 40
1.0
 40
1.0
 40
1.0
 40
2.0
 40
2.0
 40
2.0
 40
3.0
 40
3.0
 40
3.0
 40
4.0
 40
4.0
 40
4.0
 40
5.0
 40
5.0
 40
5.0
 40
5.0
 10
832.2125960918601
 20
-608.1478921005672
 30
0.0
 10
842.1032929752381
 20
-608.1478921005672
 30
0.0
 10
844.9293048017886
 20
-614.5812634097227
 30
0.0
 10
844.9293048017886
 20
-621.0118786424902
 30
0.0
 10
844.9293048017886
 20
-628.5438909018918
 30
0.0
 10
840.6877032403489
 20
-634.6654810696323
 30
0.0
 10
830.6497285249765
 20
-634.6654810696323
 30
0.0
 10
821.0758081714672
 20
-634.6654810696323
 30
0.0
 10
817.1514999042191
 20
-629.4868135362047
 30
0.0
 10
817.1514999042191
 20
-621.9520452004148
 30
0.0
 10
817.1514999042191
 20
-613.1684297512218
 30
0.0
 10
822.4834741867403
 20
-608.1478921005672
 30
0.0
 10
832.057050030701
 20
-608.1478921005672
 30
0.0
 10
832.057050030701
 20
-608.1478921005672
 30
0.0
 10
832.2125960918601
 20
-608.1478921005672
 30
0.0
 10
832.2125960918601
 20
-608.1478921005672
 30
0.0
  0
HATCH
  5
46
330
3C
100
AcDbEntity
  8
Layer 1
 62
   250
100
AcDbHatch
 10
0.0
 20
0.0
 30
0.0
210
0.0
220
0.0
230
1.0
  2
SOLID
 70
     1
 71
     0
 91
        1
 92
        1
 93
        1
 72
     4
 94
        3
 73
     0
 74
     1
 95
       20
 96
       16
 40
0.0
 40
0.0
 40
0.0
 40
0.0
 40
1.0
 40
1.0
 40
1.0
 40
2.0
 40
2.0
 40
2.0
 40
3.0
 40
3.0
 40
3.0
 40
4.0
 40
4.0
 40
4.0
 40
5.0
 40
5.0
 40
5.0
 40
5.0
 10
832.2125960918601
 20
-608.1478921005672
 10
842.1032929752381
 20
-608.1478921005672
 10
844.9293048017886
 20
-614.5812634097227
 10
844.9293048017886
 20
-621.0118786424902
 10
844.9293048017886
 20
-628.5438909018918
 10
840.6877032403489
 20
-634.6654810696323
 10
830.6497285249765
 20
-634.6654810696323
 10
821.0758081714672
 20
-634.6654810696323
 10
817.1514999042191
 20
-629.4868135362047
 10
817.1514999042191
 20
-621.9520452004148
 10
817.1514999042191
 20
-613.1684297512218
 10
822.4834741867403
 20
-608.1478921005672
 10
832.057050030701
 20
-608.1478921005672
 10
832.057050030701
 20
-608.1478921005672
 10
832.2125960918601
 20
-608.1478921005672
 10
832.2125960918601
 20
-608.1478921005672
 97
        0
 75
     2
 76
     1
 98
        0
  0
SPLINE
  5
47
330
3C
100
AcDbEntity
  8
Layer 1
370
     0
100
AcDbSpline
210
0.0
220
0.0
230
1.0
 70
    11
 71
     3
 72
    41
 73
    37
 74
     0
 42
0.0000000001
 43
0.0000000001
 40
0.0
 40
0.0
 40
0.0
 40
0.0
 40
1.0
 40
1.0
 40
1.0
 40
2.0
 40
2.0
 40
2.0
 40
3.0
 40
3.0
 40
3.0
 40
4.0
 40
4.0
 40
4.0
 40
5.0
 40
5.0
 40
5.0
 40
6.0
 40
6.0
 40
6.0
 40
7.0
 40
7.0
 40
7.0
 40
8.0
 40
8.0
 40
8.0
 40
9.0
 40
9.0
 40
9.0
 40
10.0
 40
10.0
 40
10.0
 40
11.0
 40
11.0
 40
11.0
 40
12.0
 40
12.0
 40
12.0
 40
12.0
 10
913.3430444765254
 20
-628.2324542700253
 30
0.0
 10
906.2812877508603
 20
-632.621161408685
 30
0.0
 10
894.6633922459522
 20
-634.6654810696323
 30
0.0
 10
883.0482528174324
 20
-634.6654810696323
 30
0.0
 10
867.2025361330258
 20
-634.6654810696323
 30
0.0
 10
853.5515175274976
 20
-628.3850720000219
 30
0.0
 10
853.5515175274976
 20
-609.4022513667467
 30
0.0
 10
853.5515175274976
 20
-594.9640284428389
 30
0.0
 10
856.3773570992738
 20
-584.4502860409534
 30
0.0
 10
866.5796628692926
 20
-574.7209918810594
 30
0.0
 10
873.4831174574105
 20
-568.1346583323588
 30
0.0
 10
882.8952905778873
 20
-565.3088187605825
 30
0.0
 10
897.6478784648242
 20
-565.3088187605825
 30
0.0
 10
905.332852963771
 20
-565.3088187605825
 30
0.0
 10
915.5351587337899
 20
-566.248813063733
 30
0.0
 10
919.6124292405831
 20
-567.976011685263
 30
0.0
 10
918.1964949961454
 20
-573.7809975779089
 30
0.0
 10
916.7867619235811
 20
-585.5489269911996
 30
0.0
 10
916.1607880739112
 20
-592.2980413015783
 30
0.0
 10
911.2987248155781
 20
-592.4523815793175
 30
0.0
 10
905.4913273560925
 20
-592.6122340098331
 30
0.0
 10
901.8812117970991
 20
-592.925220934668
 30
0.0
 10
901.8812117970991
 20
-587.1176512204081
 30
0.0
 10
900.9438013155627
 20
-580.5271835571252
 30
0.0
 10
895.2862655096854
 20
-580.5271835571252
 30
0.0
 10
889.1701874947214
 20
-580.5271835571252
 30
0.0
 10
883.9939315281335
 20
-586.4920218802868
 30
0.0
 10
883.9939315281335
 20
-604.6934948575072
 30
0.0
 10
883.9939315281335
 20
-610.3424179246714
 30
0.0
 10
885.8742646439829
 20
-618.1886228923279
 30
0.0
 10
895.92050758852
 20
-618.1886228923279
 30
0.0
 10
900.4711342149865
 20
-618.1886228923279
 30
0.0
 10
908.787250206831
 20
-616.3055337000903
 30
0.0
 10
915.2151093632101
 20
-610.812673458408
 30
0.0
 10
915.2151093632101
 20
-610.812673458408
 30
0.0
 10
913.3430444765254
 20
-628.2324542700253
 30
0.0
 10
913.3430444765254
 20
-628.2324542700253
 30
0.0
  0
HATCH
  5
48
330
3C
100
AcDbEntity
  8
Layer 1
 62
   250
100
AcDbHatch
 10
0.0
 20
0.0
 30
0.0
210
0.0
220
0.0
230
1.0
  2
SOLID
 70
     1
 71
     0
 91
        1
 92
        1
 93
        1
 72
     4
 94
        3
 73
     0
 74
     1
 95
       41
 96
       37
 40
0.0
 40
0.0
 40
0.0
 40
0.0
 40
1.0
 40
1.0
 40
1.0
 40
2.0
 40
2.0
 40
2.0
 40
3.0
 40
3.0
 40
3.0
 40
4.0
 40
4.0
 40
4.0
 40
5.0
 40
5.0
 40
5.0
 40
6.0
 40
6.0
 40
6.0
 40
7.0
 40
7.0
 40
7.0
 40
8.0
 40
8.0
 40
8.0
 40
9.0
 40
9.0
 40
9.0
 40
10.0
 40
10.0
 40
10.0
 40
11.0
 40
11.0
 40
11.0
 40
12.0
 40
12.0
 40
12.0
 40
12.0
 10
913.3430444765254
 20
-628.2324542700253
 10
906.2812877508603
 20
-632.621161408685
 10
894.6633922459522
 20
-634.6654810696323
 10
883.0482528174324
 20
-634.6654810696323
 10
867.2025361330258
 20
-634.6654810696323
 10
853.5515175274976
 20
-628.3850720000219
 10
853.5515175274976
 20
-609.4022513667467
 10
853.5515175274976
 20
-594.9640284428389
 10
856.3773570992738
 20
-584.4502860409534
 10
866.5796628692926
 20
-574.7209918810594
 10
873.4831174574105
 20
-568.1346583323588
 10
882.8952905778873
 20
-565.3088187605825
 10
897.6478784648242
 20
-565.3088187605825
 10
905.332852963771
 20
-565.3088187605825
 10
915.5351587337899
 20
-566.248813063733
 10
919.6124292405831
 20
-567.976011685263
 10
918.1964949961454
 20
-573.7809975779089
 10
916.7867619235811
 20
-585.5489269911996
 10
916.1607880739112
 20
-592.2980413015783
 10
911.2987248155781
 20
-592.4523815793175
 10
905.4913273560925
 20
-592.6122340098331
 10
901.8812117970991
 20
-592.925220934668
 10
901.8812117970991
 20
-587.1176512204081
 10
900.9438013155627
 20
-580.5271835571252
 10
895.2862655096854
 20
-580.5271835571252
 10
889.1701874947214
 20
-580.5271835571252
 10
883.9939315281335
 20
-586.4920218802868
 10
883.9939315281335
 20
-604.6934948575072
 10
883.9939315281335
 20
-610.3424179246714
 10
885.8742646439829
 20
-618.1886228923279
 10
895.92050758852
 20
-618.1886228923279
 10
900.4711342149865
 20
-618.1886228923279
 10
908.787250206831
 20
-616.3055337000903
 10
915.2151093632101
 20
-610.812673458408
 10
915.2151093632101
 20
-610.812673458408
 10
913.3430444765254
 20
-628.2324542700253
 10
913.3430444765254
 20
-628.2324542700253
 97
        0
 75
     2
 76
     1
 98
        0
  0
SPLINE
  5
49
330
3C
100
AcDbEntity
  8
Layer 1
370
     0
100
AcDbSpline
210
0.0
220
0.0
230
1.0
 70
    11
 71
     3
 72
    23
 73
    19
 74
     0
 42
0.0000000001
 43
0.0000000001
 40
0.0
 40
0.0
 40
0.0
 40
0.0
 40
1.0
 40
1.0
 40
1.0
 40
2.0
 40
2.0
 40
2.0
 40
3.0
 40
3.0
 40
3.0
 40
4.0
 40
4.0
 40
4.0
 40
5.0
 40
5.0
 40
5.0
 40
6.0
 40
6.0
 40
6.0
 40
6.0
 10
961.1830184228987
 20
-581.1571192666031
 30
0.0
 10
957.8957083108734
 20
-581.470106191438
 30
0.0
 10
953.6596189022101
 20
-589.6279200457354
 30
0.0
 10
953.6596189022101
 20
-607.3606877821876
 30
0.0
 10
953.6596189022101
 20
-611.4410588749175
 30
0.0
 10
953.9765676868532
 20
-617.8716741076848
 30
0.0
 10
957.4226967007486
 20
-618.9730711343193
 30
0.0
 10
957.4226967007486
 20
-618.9730711343193
 30
0.0
 10
955.8596568790907
 20
-634.5070066773108
 30
0.0
 10
955.8596568790907
 20
-634.5070066773108
 30
0.0
 10
939.0627493312065
 20
-634.192813969056
 30
0.0
 10
923.6841875945998
 20
-630.4242240177412
 30
0.0
 10
923.6841875945998
 20
-607.5191621745091
 30
0.0
 10
923.6841875945998
 20
-578.8041190501775
 30
0.0
 10
940.3171085973861
 20
-566.4059094178604
 30
0.0
 10
962.6017087437247
 20
-565.4645370765159
 30
0.0
 10
962.6017087437247
 20
-565.4645370765159
 30
0.0
 10
961.1830184228987
 20
-581.1571192666031
 30
0.0
 10
961.1830184228987
 20
-581.1571192666031
 30
0.0
  0
SPLINE
  5
4A
330
3C
100
AcDbEntity
  8
Layer 1
370
     0
100
AcDbSpline
210
0.0
220
0.0
230
1.0
 70
    11
 71
     3
 72
    23
 73
    19
 74
     0
 42
0.0000000001
 43
0.0000000001
 40
0.0
 40
0.0
 40
0.0
 40
0.0
 40
1.0
 40
1.0
 40
1.0
 40
2.0
 40
2.0
 40
2.0
 40
3.0
 40
3.0
 40
3.0
 40
4.0
 40
4.0
 40
4.0
 40
5.0
 40
5.0
 40
5.0
 40
6.0
 40
6.0
 40
6.0
 40
6.0
 10
968.8766056605587
 20
-565.3088187605825
 30
0.0
 10
983.311900253304
 20
-565.6230114688374
 30
0.0
 10
1000.579063334925
 20
-569.0748248902834
 30
0.0
 10
1000.579063334925
 20
-593.3953042136303
 30
0.0
 10
1000.579063334925
 20
-624.1520831772954
 30
0.0
 10
981.2761933310699
 20
-633.8786212608012
 30
0.0
 10
962.1290416431483
 20
-634.5070066773108
 30
0.0
 10
962.1290416431483
 20
-634.5070066773108
 30
0.0
 10
963.5360186393244
 20
-618.9730711343193
 30
0.0
 10
963.5360186393244
 20
-618.9730711343193
 30
0.0
 10
965.8976315944632
 20
-618.6557778401277
 30
0.0
 10
970.9295380602191
 20
-614.7342256492678
 30
0.0
 10
970.9295380602191
 20
-591.9824705551295
 30
0.0
 10
970.9295380602191
 20
-588.2176702088484
 30
0.0
 10
970.6039765368629
 20
-582.0943574933654
 30
0.0
 10
967.3049531001877
 20
-581.1571192666031
 30
0.0
 10
967.3049531001877
 20
-581.1571192666031
 30
0.0
 10
968.8766056605587
 20
-565.3088187605825
 30
0.0
 10
968.8766056605587
 20
-565.3088187605825
 30
0.0
  0
HATCH
  5
4B
330
3C
100
AcDbEntity
  8
Layer 1
 62
   250
100
AcDbHatch
 10
0.0
 20
0.0
 30
0.0
210
0.0
220
0.0
230
1.0
  2
SOLID
 70
     1
 71
     0
 91
        2
 92
        1
 93
        1
 72
     4
 94
        3
 73
     0
 74
     1
 95
       23
 96
       19
 40
0.0
 40
0.0
 40
0.0
 40
0.0
 40
1.0
 40
1.0
 40
1.0
 40
2.0
 40
2.0
 40
2.0
 40
3.0
 40
3.0
 40
3.0
 40
4.0
 40
4.0
 40
4.0
 40
5.0
 40
5.0
 40
5.0
 40
6.0
 40
6.0
 40
6.0
 40
6.0
 10
961.1830184228987
 20
-581.1571192666031
 10
957.8957083108734
 20
-581.470106191438
 10
953.6596189022101
 20
-589.6279200457354
 10
953.6596189022101
 20
-607.3606877821876
 10
953.6596189022101
 20
-611.4410588749175
 10
953.9765676868532
 20
-617.8716741076848
 10
957.4226967007486
 20
-618.9730711343193
 10
957.4226967007486
 20
-618.9730711343193
 10
955.8596568790907
 20
-634.5070066773108
 10
955.8596568790907
 20
-634.5070066773108
 10
939.0627493312065
 20
-634.192813969056
 10
923.6841875945998
 20
-630.4242240177412
 10
923.6841875945998
 20
-607.5191621745091
 10
923.6841875945998
 20
-578.8041190501775
 10
940.3171085973861
 20
-566.4059094178604
 10
962.6017087437247
 20
-565.4645370765159
 10
962.6017087437247
 20
-565.4645370765159
 10
961.1830184228987
 20
-581.1571192666031
 10
961.1830184228987
 20
-581.1571192666031
 97
        0
 92
        1
 93
        1
 72
     4
 94
        3
 73
     0
 74
     1
 95
       23
 96
       19
 40
0.0
 40
0.0
 40
0.0
 40
0.0
 40
1.0
 40
1.0
 40
1.0
 40
2.0
 40
2.0
 40
2.0
 40
3.0
 40
3.0
 40
3.0
 40
4.0
 40
4.0
 40
4.0
 40
5.0
 40
5.0
 40
5.0
 40
6.0
 40
6.0
 40
6.0
 40
6.0
 10
968.8766056605587
 20
-565.3088187605825
 10
983.311900253304
 20
-565.6230114688374
 10
1000.579063334925
 20
-569.0748248902834
 10
1000.579063334925
 20
-593.3953042136303
 10
1000.579063334925
 20
-624.1520831772954
 10
981.2761933310699
 20
-633.8786212608012
 10
962.1290416431483
 20
-634.5070066773108
 10
962.1290416431483
 20
-634.5070066773108
 10
963.5360186393244
 20
-618.9730711343193
 10
963.5360186393244
 20
-618.9730711343193
 10
965.8976315944632
 20
-618.6557778401277
 10
970.9295380602191
 20
-614.7342256492678
 10
970.9295380602191
 20
-591.9824705551295
 10
970.9295380602191
 20
-588.2176702088484
 10
970.6039765368629
 20
-582.0943574933654
 10
967.3049531001877
 20
-581.1571192666031
 10
967.3049531001877
 20
-581.1571192666031
 10
968.8766056605587
 20
-565.3088187605825
 10
968.8766056605587
 20
-565.3088187605825
 97
        0
 75
     2
 76
     1
 98
        0
  0
SPLINE
  5
4C
330
3C
100
AcDbEntity
  8
Layer 1
370
     0
100
AcDbSpline
210
0.0
220
0.0
230
1.0
 70
    11
 71
     3
 72
    20
 73
    16
 74
     0
 42
0.0000000001
 43
0.0000000001
 40
0.0
 40
0.0
 40
0.0
 40
0.0
 40
1.0
 40
1.0
 40
1.0
 40
2.0
 40
2.0
 40
2.0
 40
3.0
 40
3.0
 40
3.0
 40
4.0
 40
4.0
 40
4.0
 40
5.0
 40
5.0
 40
5.0
 40
5.0
 10
1021.600691476371
 20
-608.1478921005672
 30
0.0
 10
1031.485703952198
 20
-608.1478921005672
 30
0.0
 10
1034.311715778749
 20
-614.5812634097227
 30
0.0
 10
1034.311715778749
 20
-621.0118786424902
 30
0.0
 10
1034.311715778749
 20
-628.5438909018918
 30
0.0
 10
1030.061501478596
 20
-634.6654810696323
 30
0.0
 10
1020.032139501937
 20
-634.6654810696323
 30
0.0
 10
1010.449950919263
 20
-634.6654810696323
 30
0.0
 10
1006.539423033955
 20
-629.4868135362047
 30
0.0
 10
1006.539423033955
 20
-621.9520452004148
 30
0.0
 10
1006.539423033955
 20
-613.1684297512218
 30
0.0
 10
1011.8658851637
 20
-608.1478921005672
 30
0.0
 10
1021.439461007661
 20
-608.1478921005672
 30
0.0
 10
1021.439461007661
 20
-608.1478921005672
 30
0.0
 10
1021.600691476371
 20
-608.1478921005672
 30
0.0
 10
1021.600691476371
 20
-608.1478921005672
 30
0.0
  0
HATCH
  5
4D
330
3C
100
AcDbEntity
  8
Layer 1
 62
   250
100
AcDbHatch
 10
0.0
 20
0.0
 30
0.0
210
0.0
220
0.0
230
1.0
  2
SOLID
 70
     1
 71
     0
 91
        1
 92
        1
 93
        1
 72
     4
 94
        3
 73
     0
 74
     1
 95
       20
 96
       16
 40
0.0
 40
0.0
 40
0.0
 40
0.0
 40
1.0
 40
1.0
 40
1.0
 40
2.0
 40
2.0
 40
2.0
 40
3.0
 40
3.0
 40
3.0
 40
4.0
 40
4.0
 40
4.0
 40
5.0
 40
5.0
 40
5.0
 40
5.0
 10
1021.600691476371
 20
-608.1478921005672
 10
1031.485703952198
 20
-608.1478921005672
 10
1034.311715778749
 20
-614.5812634097227
 10
1034.311715778749
 20
-621.0118786424902
 10
1034.311715778749
 20
-628.5438909018918
 10
1030.061501478596
 20
-634.6654810696323
 10
1020.032139501937
 20
-634.6654810696323
 10
1010.449950919263
 20
-634.6654810696323
 10
1006.539423033955
 20
-629.4868135362047
 10
1006.539423033955
 20
-621.9520452004148
 10
1006.539423033955
 20
-613.1684297512218
 10
1011.8658851637
 20
-608.1478921005672
 10
1021.439461007661
 20
-608.1478921005672
 10
1021.439461007661
 20
-608.1478921005672
 10
1021.600691476371
 20
-608.1478921005672
 10
1021.600691476371
 20
-608.1478921005672
 97
        0
 75
     2
 76
     1
 98
        0
  0
SPLINE
  5
4E
330
3C
100
AcDbEntity
  8
Layer 1
370
     0
100
AcDbSpline
210
0.0
220
0.0
230
1.0
 70
    11
 71
     3
 72
    59
 73
    55
 74
     0
 42
0.0000000001
 43
0.0000000001
 40
0.0
 40
0.0
 40
0.0
 40
0.0
 40
1.0
 40
1.0
 40
1.0
 40
2.0
 40
2.0
 40
2.0
 40
3.0
 40
3.0
 40
3.0
 40
4.0
 40
4.0
 40
4.0
 40
5.0
 40
5.0
 40
5.0
 40
6.0
 40
6.0
 40
6.0
 40
7.0
 40
7.0
 40
7.0
 40
8.0
 40
8.0
 40
8.0
 40
9.0
 40
9.0
 40
9.0
 40
10.0
 40
10.0
 40
10.0
 40
11.0
 40
11.0
 40
11.0
 40
12.0
 40
12.0
 40
12.0
 40
13.0
 40
13.0
 40
13.0
 40
14.0
 40
14.0
 40
14.0
 40
15.0
 40
15.0
 40
15.0
 40
16.0
 40
16.0
 40
16.0
 40
17.0
 40
17.0
 40
17.0
 40
18.0
 40
18.0
 40
18.0
 40
18.0
 10
1045.448675953916
 20
-588.5320351718774
 30
0.0
 10
1047.328320050668
 20
-581.1571192666031
 30
0.0
 10
1049.681664776642
 20
-570.9591198659408
 30
0.0
 10
1050.627343487343
 20
-567.6631970152023
 30
0.0
 10
1050.780305726888
 20
-566.8759926968227
 30
0.0
 10
1051.2447045983
 20
-566.248813063733
 30
0.0
 10
1052.190383309001
 20
-566.248813063733
 30
0.0
 10
1056.115380595346
 20
-566.248813063733
 30
0.0
 10
1073.529649254187
 20
-566.5645560649562
 30
0.0
 10
1081.704171821588
 20
-566.5645560649562
 30
0.0
 10
1090.326556802071
 20
-566.5645560649562
 30
0.0
 10
1103.660454368182
 20
-566.5645560649562
 30
0.0
 10
1109.938107361404
 20
-566.0901664166372
 30
0.0
 10
1109.938107361404
 20
-566.8759926968227
 30
0.0
 10
1112.135389261897
 20
-570.1719155475612
 30
0.0
 10
1112.135389261897
 20
-570.9591198659408
 30
0.0
 10
1112.135389261897
 20
-572.2134791321203
 30
0.0
 10
1106.330403369251
 20
-583.0372801276782
 30
0.0
 10
1098.166905107403
 20
-596.6912270643688
 30
0.0
 10
1093.460904674552
 20
-604.5346759556372
 30
0.0
 10
1087.183251681329
 20
-612.6985187270337
 30
0.0
 10
1081.84852132242
 20
-619.9132376922439
 30
0.0
 10
1095.813904890977
 20
-619.754418790374
 30
0.0
 10
1102.561813417936
 20
-618.6557778401277
 30
0.0
 10
1109.782389045471
 20
-615.0487628670712
 30
0.0
 10
1109.782389045471
 20
-615.0487628670712
 30
0.0
 10
1110.410774461981
 20
-615.0487628670712
 30
0.0
 10
1110.410774461981
 20
-615.0487628670712
 30
0.0
 10
1108.683403585676
 20
-621.4817896666782
 30
0.0
 10
1106.642184510666
 20
-630.4242240177412
 30
0.0
 10
1106.022067323321
 20
-631.5228649679874
 30
0.0
 10
1105.076044103071
 20
-633.2498913347431
 30
0.0
 10
1103.660454368182
 20
-633.8786212608012
 30
0.0
 10
1101.6244029364
 20
-633.8786212608012
 30
0.0
 10
1097.547132429606
 20
-633.8786212608012
 30
0.0
 10
1081.378610298232
 20
-633.5671846289346
 30
0.0
 10
1071.966264922981
 20
-633.5671846289346
 30
0.0
 10
1059.883970546661
 20
-633.5671846289346
 30
0.0
 10
1045.595781531136
 20
-633.5671846289346
 30
0.0
 10
1042.622664127365
 20
-634.0370956531227
 30
0.0
 10
1042.461089149107
 20
-633.096929095198
 30
0.0
 10
1041.215342621641
 20
-629.9543129935531
 30
0.0
 10
1040.742331011516
 20
-628.3850720000219
 30
0.0
 10
1054.860676819618
 20
-611.9109698991056
 30
0.0
 10
1066.634635150008
 20
-595.748304430056
 30
0.0
 10
1076.038367786546
 20
-578.9584593279167
 30
0.0
 10
1072.121983238914
 20
-578.9584593279167
 30
0.0
 10
1068.350292701663
 20
-579.115555682044
 30
0.0
 10
1066.161279030335
 20
-579.5870169992005
 30
0.0
 10
1061.291292052386
 20
-580.6856579494466
 30
0.0
 10
1058.629611280482
 20
-583.9802027619911
 30
0.0
 10
1057.530625820687
 20
-588.5320351718774
 30
0.0
 10
1057.530625820687
 20
-588.5320351718774
 30
0.0
 10
1045.448675953916
 20
-588.5320351718774
 30
0.0
 10
1045.448675953916
 20
-588.5320351718774
 30
0.0
  0
HATCH
  5
4F
330
3C
100
AcDbEntity
  8
Layer 1
 62
   250
100
AcDbHatch
 10
0.0
 20
0.0
 30
0.0
210
0.0
220
0.0
230
1.0
  2
SOLID
 70
     1
 71
     0
 91
        1
 92
        1
 93
        1
 72
     4
 94
        3
 73
     0
 74
     1
 95
       59
 96
       55
 40
0.0
 40
0.0
 40
0.0
 40
0.0
 40
1.0
 40
1.0
 40
1.0
 40
2.0
 40
2.0
 40
2.0
 40
3.0
 40
3.0
 40
3.0
 40
4.0
 40
4.0
 40
4.0
 40
5.0
 40
5.0
 40
5.0
 40
6.0
 40
6.0
 40
6.0
 40
7.0
 40
7.0
 40
7.0
 40
8.0
 40
8.0
 40
8.0
 40
9.0
 40
9.0
 40
9.0
 40
10.0
 40
10.0
 40
10.0
 40
11.0
 40
11.0
 40
11.0
 40
12.0
 40
12.0
 40
12.0
 40
13.0
 40
13.0
 40
13.0
 40
14.0
 40
14.0
 40
14.0
 40
15.0
 40
15.0
 40
15.0
 40
16.0
 40
16.0
 40
16.0
 40
17.0
 40
17.0
 40
17.0
 40
18.0
 40
18.0
 40
18.0
 40
18.0
 10
1045.448675953916
 20
-588.5320351718774
 10
1047.328320050668
 20
-581.1571192666031
 10
1049.681664776642
 20
-570.9591198659408
 10
1050.627343487343
 20
-567.6631970152023
 10
1050.780305726888
 20
-566.8759926968227
 10
1051.2447045983
 20
-566.248813063733
 10
1052.190383309001
 20
-566.248813063733
 10
1056.115380595346
 20
-566.248813063733
 10
1073.529649254187
 20
-566.5645560649562
 10
1081.704171821588
 20
-566.5645560649562
 10
1090.326556802071
 20
-566.5645560649562
 10
1103.660454368182
 20
-566.5645560649562
 10
1109.938107361404
 20
-566.0901664166372
 10
1109.938107361404
 20
-566.8759926968227
 10
1112.135389261897
 20
-570.1719155475612
 10
1112.135389261897
 20
-570.9591198659408
 10
1112.135389261897
 20
-572.2134791321203
 10
1106.330403369251
 20
-583.0372801276782
 10
1098.166905107403
 20
-596.6912270643688
 10
1093.460904674552
 20
-604.5346759556372
 10
1087.183251681329
 20
-612.6985187270337
 10
1081.84852132242
 20
-619.9132376922439
 10
1095.813904890977
 20
-619.754418790374
 10
1102.561813417936
 20
-618.6557778401277
 10
1109.782389045471
 20
-615.0487628670712
 10
1109.782389045471
 20
-615.0487628670712
 10
1110.410774461981
 20
-615.0487628670712
 10
1110.410774461981
 20
-615.0487628670712
 10
1108.683403585676
 20
-621.4817896666782
 10
1106.642184510666
 20
-630.4242240177412
 10
1106.022067323321
 20
-631.5228649679874
 10
1105.076044103071
 20
-633.2498913347431
 10
1103.660454368182
 20
-633.8786212608012
 10
1101.6244029364
 20
-633.8786212608012
 10
1097.547132429606
 20
-633.8786212608012
 10
1081.378610298232
 20
-633.5671846289346
 10
1071.966264922981
 20
-633.5671846289346
 10
1059.883970546661
 20
-633.5671846289346
 10
1045.595781531136
 20
-633.5671846289346
 10
1042.622664127365
 20
-634.0370956531227
 10
1042.461089149107
 20
-633.096929095198
 10
1041.215342621641
 20
-629.9543129935531
 10
1040.742331011516
 20
-628.3850720000219
 10
1054.860676819618
 20
-611.9109698991056
 10
1066.634635150008
 20
-595.748304430056
 10
1076.038367786546
 20
-578.9584593279167
 10
1072.121983238914
 20
-578.9584593279167
 10
1068.350292701663
 20
-579.115555682044
 10
1066.161279030335
 20
-579.5870169992005
 10
1061.291292052386
 20
-580.6856579494466
 10
1058.629611280482
 20
-583.9802027619911
 10
1057.530625820687
 20
-588.5320351718774
 10
1057.530625820687
 20
-588.5320351718774
 10
1045.448675953916
 20
-588.5320351718774
 10
1045.448675953916
 20
-588.5320351718774
 97
        0
 75
     2
 76
     1
 98
        0
  0
SPLINE
  5
50
330
3C
100
AcDbEntity
  8
Layer 1
370
     0
100
AcDbSpline
210
0.0
220
0.0
230
1.0
 70
    11
 71
     3
 72
    32
 73
    28
 74
     0
 42
0.0000000001
 43
0.0000000001
 40
0.0
 40
0.0
 40
0.0
 40
0.0
 40
1.0
 40
1.0
 40
1.0
 40
2.0
 40
2.0
 40
2.0
 40
3.0
 40
3.0
 40
3.0
 40
4.0
 40
4.0
 40
4.0
 40
5.0
 40
5.0
 40
5.0
 40
6.0
 40
6.0
 40
6.0
 40
7.0
 40
7.0
 40
7.0
 40
8.0
 40
8.0
 40
8.0
 40
9.0
 40
9.0
 40
9.0
 40
9.0
 10
1151.516964772885
 20
-627.5982121911908
 30
0.0
 10
1144.930631224184
 20
-632.151250384497
 30
0.0
 10
1139.426057657852
 20
-634.6654810696323
 30
0.0
 10
1131.585364842972
 20
-634.6654810696323
 30
0.0
 10
1123.747772614028
 20
-634.6654810696323
 30
0.0
 10
1116.67981471649
 20
-628.5438909018918
 30
0.0
 10
1116.67981471649
 20
-618.9730711343193
 30
0.0
 10
1116.67981471649
 20
-608.7738659502371
 30
0.0
 10
1120.596199264122
 20
-603.5920978308728
 30
0.0
 10
1124.99937580382
 20
-600.1430404858149
 30
0.0
 10
1131.585364842972
 20
-594.9640284428389
 30
0.0
 10
1143.198092704652
 20
-592.4523815793175
 30
0.0
 10
1154.490082176655
 20
-590.7293170723698
 30
0.0
 10
1154.490082176655
 20
-590.7293170723698
 30
0.0
 10
1153.405910627447
 20
-603.2803166894578
 30
0.0
 10
1153.405910627447
 20
-603.2803166894578
 30
0.0
 10
1149.163964556459
 20
-603.9090466155159
 30
0.0
 10
1144.769400755474
 20
-604.6934948575072
 30
0.0
 10
1144.769400755474
 20
-611.599533267239
 30
0.0
 10
1144.769400755474
 20
-614.4227890174013
 30
0.0
 10
1146.649733871324
 20
-616.4640080924119
 30
0.0
 10
1148.538335216338
 20
-616.4640080924119
 30
0.0
 10
1150.109987776709
 20
-616.4640080924119
 30
0.0
 10
1151.672683088818
 20
-615.832866599514
 30
0.0
 10
1152.445762515708
 20
-615.3657116517142
 30
0.0
 10
1152.445762515708
 20
-615.3657116517142
 30
0.0
 10
1151.516964772885
 20
-627.5982121911908
 30
0.0
 10
1151.516964772885
 20
-627.5982121911908
 30
0.0
  0
SPLINE
  5
51
330
3C
100
AcDbEntity
  8
Layer 1
370
     0
100
AcDbSpline
210
0.0
220
0.0
230
1.0
 70
    11
 71
     3
 72
    47
 73
    43
 74
     0
 42
0.0000000001
 43
0.0000000001
 40
0.0
 40
0.0
 40
0.0
 40
0.0
 40
1.0
 40
1.0
 40
1.0
 40
2.0
 40
2.0
 40
2.0
 40
3.0
 40
3.0
 40
3.0
 40
4.0
 40
4.0
 40
4.0
 40
5.0
 40
5.0
 40
5.0
 40
6.0
 40
6.0
 40
6.0
 40
7.0
 40
7.0
 40
7.0
 40
8.0
 40
8.0
 40
8.0
 40
9.0
 40
9.0
 40
9.0
 40
10.0
 40
10.0
 40
10.0
 40
11.0
 40
11.0
 40
11.0
 40
12.0
 40
12.0
 40
12.0
 40
13.0
 40
13.0
 40
13.0
 40
14.0
 40
14.0
 40
14.0
 40
14.0
 10
1124.364789215437
 20
-587.7448308534979
 30
0.0
 10
1125.154749610204
 20
-582.7244654576175
 30
0.0
 10
1125.775211307098
 20
-575.0381129204766
 30
0.0
 10
1126.092160091741
 20
-570.8006454736193
 30
0.0
 10
1135.665735935702
 20
-566.4059094178604
 30
0.0
 10
1154.342976599435
 20
-564.6800888345244
 30
0.0
 10
1165.6439233197
 20
-564.6800888345244
 30
0.0
 10
1175.208886424948
 20
-564.6800888345244
 30
0.0
 10
1190.58159149923
 20
-565.3088187605825
 30
0.0
 10
1190.58159149923
 20
-577.7025497687688
 30
0.0
 10
1190.58159149923
 20
-581.0000229124757
 30
0.0
 10
1190.117192627818
 20
-586.333375233191
 30
0.0
 10
1189.488807211308
 20
-592.925220934668
 30
0.0
 10
1188.863177871187
 20
-599.3572142056295
 30
0.0
 10
1188.081485705584
 20
-605.9475096141382
 30
0.0
 10
1188.081485705584
 20
-608.4593287324338
 30
0.0
 10
1188.081485705584
 20
-613.7940590913432
 30
0.0
 10
1189.335844971763
 20
-614.8899439652012
 30
0.0
 10
1191.524514133542
 20
-614.8899439652012
 30
0.0
 10
1194.039089328226
 20
-614.8899439652012
 30
0.0
 10
1197.802511636313
 20
-613.9497774072764
 30
0.0
 10
1199.999449027257
 20
-612.3812254328423
 30
0.0
 10
1199.999449027257
 20
-612.3812254328423
 30
0.0
 10
1199.056870902493
 20
-627.5982121911908
 30
0.0
 10
1199.056870902493
 20
-627.5982121911908
 30
0.0
 10
1190.43448592201
 20
-632.151250384497
 30
0.0
 10
1177.561886641374
 20
-634.5070066773108
 30
0.0
 10
1167.996923536126
 20
-634.5070066773108
 30
0.0
 10
1159.366270326478
 20
-634.5070066773108
 30
0.0
 10
1157.95033608204
 20
-631.3668021425055
 30
0.0
 10
1157.95033608204
 20
-625.7206351517295
 30
0.0
 10
1157.95033608204
 20
-620.0717120845654
 30
0.0
 10
1160.9375783773
 20
-592.1395669092568
 30
0.0
 10
1160.9375783773
 20
-585.8619139160345
 30
0.0
 10
1160.9375783773
 20
-581.470106191438
 30
0.0
 10
1159.519232566023
 20
-578.6454724030817
 30
0.0
 10
1153.553016204667
 20
-578.6454724030817
 30
0.0
 10
1146.810964340033
 20
-578.6454724030817
 30
0.0
 10
1143.198092704652
 20
-581.6285805837596
 30
0.0
 10
1141.162041272869
 20
-587.7448308534979
 30
0.0
 10
1141.162041272869
 20
-587.7448308534979
 30
0.0
 10
1124.364789215437
 20
-587.7448308534979
 30
0.0
 10
1124.364789215437
 20
-587.7448308534979
 30
0.0
  0
HATCH
  5
52
330
3C
100
AcDbEntity
  8
Layer 1
 62
   250
100
AcDbHatch
 10
0.0
 20
0.0
 30
0.0
210
0.0
220
0.0
230
1.0
  2
SOLID
 70
     1
 71
     0
 91
        2
 92
        1
 93
        1
 72
     4
 94
        3
 73
     0
 74
     1
 95
       32
 96
       28
 40
0.0
 40
0.0
 40
0.0
 40
0.0
 40
1.0
 40
1.0
 40
1.0
 40
2.0
 40
2.0
 40
2.0
 40
3.0
 40
3.0
 40
3.0
 40
4.0
 40
4.0
 40
4.0
 40
5.0
 40
5.0
 40
5.0
 40
6.0
 40
6.0
 40
6.0
 40
7.0
 40
7.0
 40
7.0
 40
8.0
 40
8.0
 40
8.0
 40
9.0
 40
9.0
 40
9.0
 40
9.0
 10
1151.516964772885
 20
-627.5982121911908
 10
1144.930631224184
 20
-632.151250384497
 10
1139.426057657852
 20
-634.6654810696323
 10
1131.585364842972
 20
-634.6654810696323
 10
1123.747772614028
 20
-634.6654810696323
 10
1116.67981471649
 20
-628.5438909018918
 10
1116.67981471649
 20
-618.9730711343193
 10
1116.67981471649
 20
-608.7738659502371
 10
1120.596199264122
 20
-603.5920978308728
 10
1124.99937580382
 20
-600.1430404858149
 10
1131.585364842972
 20
-594.9640284428389
 10
1143.198092704652
 20
-592.4523815793175
 10
1154.490082176655
 20
-590.7293170723698
 10
1154.490082176655
 20
-590.7293170723698
 10
1153.405910627447
 20
-603.2803166894578
 10
1153.405910627447
 20
-603.2803166894578
 10
1149.163964556459
 20
-603.9090466155159
 10
1144.769400755474
 20
-604.6934948575072
 10
1144.769400755474
 20
-611.599533267239
 10
1144.769400755474
 20
-614.4227890174013
 10
1146.649733871324
 20
-616.4640080924119
 10
1148.538335216338
 20
-616.4640080924119
 10
1150.109987776709
 20
-616.4640080924119
 10
1151.672683088818
 20
-615.832866599514
 10
1152.445762515708
 20
-615.3657116517142
 10
1152.445762515708
 20
-615.3657116517142
 10
1151.516964772885
 20
-627.5982121911908
 10
1151.516964772885
 20
-627.5982121911908
 97
        0
 92
        1
 93
        1
 72
     4
 94
        3
 73
     0
 74
     1
 95
       47
 96
       43
 40
0.0
 40
0.0
 40
0.0
 40
0.0
 40
1.0
 40
1.0
 40
1.0
 40
2.0
 40
2.0
 40
2.0
 40
3.0
 40
3.0
 40
3.0
 40
4.0
 40
4.0
 40
4.0
 40
5.0
 40
5.0
 40
5.0
 40
6.0
 40
6.0
 40
6.0
 40
7.0
 40
7.0
 40
7.0
 40
8.0
 40
8.0
 40
8.0
 40
9.0
 40
9.0
 40
9.0
 40
10.0
 40
10.0
 40
10.0
 40
11.0
 40
11.0
 40
11.0
 40
12.0
 40
12.0
 40
12.0
 40
13.0
 40
13.0
 40
13.0
 40
14.0
 40
14.0
 40
14.0
 40
14.0
 10
1124.364789215437
 20
-587.7448308534979
 10
1125.154749610204
 20
-582.7244654576175
 10
1125.775211307098
 20
-575.0381129204766
 10
1126.092160091741
 20
-570.8006454736193
 10
1135.665735935702
 20
-566.4059094178604
 10
1154.342976599435
 20
-564.6800888345244
 10
1165.6439233197
 20
-564.6800888345244
 10
1175.208886424948
 20
-564.6800888345244
 10
1190.58159149923
 20
-565.3088187605825
 10
1190.58159149923
 20
-577.7025497687688
 10
1190.58159149923
 20
-581.0000229124757
 10
1190.117192627818
 20
-586.333375233191
 10
1189.488807211308
 20
-592.925220934668
 10
1188.863177871187
 20
-599.3572142056295
 10
1188.081485705584
 20
-605.9475096141382
 10
1188.081485705584
 20
-608.4593287324338
 10
1188.081485705584
 20
-613.7940590913432
 10
1189.335844971763
 20
-614.8899439652012
 10
1191.524514133542
 20
-614.8899439652012
 10
1194.039089328226
 20
-614.8899439652012
 10
1197.802511636313
 20
-613.9497774072764
 10
1199.999449027257
 20
-612.3812254328423
 10
1199.999449027257
 20
-612.3812254328423
 10
1199.056870902493
 20
-627.5982121911908
 10
1199.056870902493
 20
-627.5982121911908
 10
1190.43448592201
 20
-632.151250384497
 10
1177.561886641374
 20
-634.5070066773108
 10
1167.996923536126
 20
-634.5070066773108
 10
1159.366270326478
 20
-634.5070066773108
 10
1157.95033608204
 20
-631.3668021425055
 10
1157.95033608204
 20
-625.7206351517295
 10
1157.95033608204
 20
-620.0717120845654
 10
1160.9375783773
 20
-592.1395669092568
 10
1160.9375783773
 20
-585.8619139160345
 10
1160.9375783773
 20
-581.470106191438
 10
1159.519232566023
 20
-578.6454724030817
 10
1153.553016204667
 20
-578.6454724030817
 10
1146.810964340033
 20
-578.6454724030817
 10
1143.198092704652
 20
-581.6285805837596
 10
1141.162041272869
 20
-587.7448308534979
 10
1141.162041272869
 20
-587.7448308534979
 10
1124.364789215437
 20
-587.7448308534979
 10
1124.364789215437
 20
-587.7448308534979
 97
        0
 75
     2
 76
     1
 98
        0
  0
ENDBLK
  5
3F
330
3C
100
AcDbEntity
  8
0
100
AcDbBlockEnd
  0
ENDSEC
  0
SECTION
  2
ENTITIES
  0
INSERT
  5
3D
330
1F
100
AcDbEntity
  8
Layer 1
100
AcDbBlockReference
  2
block 2
 10
0.0
 20
0.0
 30
0.0
  0
ENDSEC
  0
SECTION
  2
OBJECTS
  0
DICTIONARY
  5
C
330
0
100
AcDbDictionary
281
     1
  3
ACAD_GROUP
350
D
  3
ACAD_LAYOUT
350
1A
  3
ACAD_MLINESTYLE
350
17
  3
ACAD_PLOTSETTINGS
350
19
  3
ACAD_PLOTSTYLENAME
350
E
  3
ACAD_TABLESTYLE
350
53
  3
ACAD_VISUALSTYLE
350
2A
  0
DICTIONARY
  5
D
102
{ACAD_REACTORS
330
C
102
}
330
C
100
AcDbDictionary
281
     1
  0
DICTIONARY
  5
1A
102
{ACAD_REACTORS
330
C
102
}
330
C
100
AcDbDictionary
281
     1
  3
Layout1
350
1E
  3
Layout2
350
26
  3
Model
350
22
  0
DICTIONARY
  5
17
102
{ACAD_REACTORS
330
C
102
}
330
C
100
AcDbDictionary
281
     1
  3
Standard
350
18
  0
DICTIONARY
  5
19
102
{ACAD_REACTORS
330
C
102
}
330
C
100
AcDbDictionary
281
     1
  0
ACDBDICTIONARYWDFLT
  5
E
102
{ACAD_REACTORS
330
C
102
}
330
C
100
AcDbDictionary
281
     1
  3
Normal
350
F
100
AcDbDictionaryWithDefault
340
F
  0
DICTIONARY
  5
53
102
{ACAD_REACTORS
330
C
102
}
330
C
100
AcDbDictionary
281
     1
  0
DICTIONARY
  5
2A
102
{ACAD_REACTORS
330
C
102
}
330
C
100
AcDbDictionary
281
     1
  3
2dWireframe
350
2F
  3
3D Hidden
350
31
  3
3dWireframe
350
30
  3
Basic
350
32
  3
Brighten
350
36
  3
ColorChange
350
3A
  3
Conceptual
350
34
  3
Dim
350
35
  3
Facepattern
350
39
  3
Flat
350
2B
  3
FlatWithEdges
350
2C
  3
Gouraud
350
2D
  3
GouraudWithEdges
350
2E
  3
Linepattern
350
38
  3
Realistic
350
33
  3
Thicken
350
37
  0
LAYOUT
  5
1E
102
{ACAD_REACTORS
330
1A
102
}
330
1A
100
AcDbPlotSettings
  1

  2
none_device
  4

  6

 40
0.0
 41
0.0
 42
0.0
 43
0.0
 44
0.0
 45
0.0
 46
0.0
 47
0.0
 48
0.0
 49
0.0
140
0.0
141
0.0
142
1.0
143
1.0
 70
   688
 72
     0
 73
     0
 74
     5
  7

 75
    16
 76
     0
 77
     2
 78
   300
147
1.0
148
0.0
149
0.0
100
AcDbLayout
  1
Layout1
 70
     1
 71
     1
 10
0.0
 20
0.0
 11
12.0
 21
9.0
 12
0.0
 22
0.0
 32
0.0
 14
1.000000000000000E+20
 24
1.000000000000000E+20
 34
1.000000000000000E+20
 15
-1.000000000000000E+20
 25
-1.000000000000000E+20
 35
-1.000000000000000E+20
146
0.0
 13
0.0
 23
0.0
 33
0.0
 16
1.0
 26
0.0
 36
0.0
 17
0.0
 27
1.0
 37
0.0
 76
     0
330
1B
  0
LAYOUT
  5
26
102
{ACAD_REACTORS
330
1A
102
}
330
1A
100
AcDbPlotSettings
  1

  2
none_device
  4

  6

 40
0.0
 41
0.0
 42
0.0
 43
0.0
 44
0.0
 45
0.0
 46
0.0
 47
0.0
 48
0.0
 49
0.0
140
0.0
141
0.0
142
1.0
143
1.0
 70
   688
 72
     0
 73
     0
 74
     5
  7

 75
    16
 76
     0
 77
     2
 78
   300
147
1.0
148
0.0
149
0.0
100
AcDbLayout
  1
Layout2
 70
     1
 71
     2
 10
0.0
 20
0.0
 11
0.0
 21
0.0
 12
0.0
 22
0.0
 32
0.0
 14
0.0
 24
0.0
 34
0.0
 15
0.0
 25
0.0
 35
0.0
146
0.0
 13
0.0
 23
0.0
 33
0.0
 16
1.0
 26
0.0
 36
0.0
 17
0.0
 27
1.0
 37
0.0
 76
     0
330
23
  0
LAYOUT
  5
22
102
{ACAD_REACTORS
330
1A
102
}
330
1A
100
AcDbPlotSettings
  1

  2
none_device
  4

  6

 40
0.0
 41
0.0
 42
0.0
 43
0.0
 44
0.0
 45
0.0
 46
0.0
 47
0.0
 48
0.0
 49
0.0
140
0.0
141
0.0
142
1.0
143
1.0
 70
  1712
 72
     0
 73
     0
 74
     0
  7

 75
     0
 76
     0
 77
     2
 78
   300
147
1.0
148
0.0
149
0.0
100
AcDbLayout
  1
Model
 70
     1
 71
     0
 10
0.0
 20
0.0
 11
12.0
 21
9.0
 12
0.0
 22
0.0
 32
0.0
 14
1.000000000000000E+20
 24
1.000000000000000E+20
 34
1.000000000000000E+20
 15
-1.000000000000000E+20
 25
-1.000000000000000E+20
 35
-1.000000000000000E+20
146
0.0
 13
0.0
 23
0.0
 33
0.0
 16
1.0
 26
0.0
 36
0.0
 17
0.0
 27
1.0
 37
0.0
 76
     0
330
1F
331
29
  0
MLINESTYLE
  5
18
102
{ACAD_REACTORS
330
17
102
}
330
17
100
AcDbMlineStyle
  2
Standard
 70
     0
  3

 62
   256
 51
90.0
 52
90.0
 71
     2
 49
0.5
 62
   256
  6
BYLAYER
 49
-0.5
 62
   256
  6
BYLAYER
  0
ACDBPLACEHOLDER
  5
F
102
{ACAD_REACTORS
330
E
102
}
330
E
  0
VISUALSTYLE
  5
2F
102
{ACAD_REACTORS
330
2A
102
}
330
2A
100
AcDbVisualStyle
  2
2dWireframe
 70
     4
 71
     0
 72
     2
 73
     0
 90
        0
 40
-0.6
 41
-30.0
 62
     5
 63
     7
421
 16777215
 74
     1
 91
        4
 64
     7
 65
   257
 75
     1
175
     1
 42
1.0
 92
        0
 66
   257
 43
1.0
 76
     1
 77
     6
 78
     2
 67
     7
 79
     5
170
     0
171
     0
290
     0
174
     0
 93
        1
 44
0.0
173
     0
291
     0
 45
0.0
1001
ACAD
1000
AcDbSavedByObjectVersion
1070
     0
  0
VISUALSTYLE
  5
31
102
{ACAD_REACTORS
330
2A
102
}
330
2A
100
AcDbVisualStyle
  2
3D Hidden
 70
     6
 71
     1
 72
     2
 73
     2
 90
        0
 40
-0.6
 41
-30.0
 62
     5
 63
     7
421
 16777215
 74
     2
 91
        2
 64
     7
 65
   257
 75
     2
175
     1
 42
40.0
 92
        0
 66
   257
 43
1.0
 76
     1
 77
     6
 78
     2
 67
     7
 79
     3
170
     0
171
     0
290
     0
174
     0
 93
        1
 44
0.0
173
     0
291
     0
 45
0.0
1001
ACAD
1000
AcDbSavedByObjectVersion
1070
     0
  0
VISUALSTYLE
  5
30
102
{ACAD_REACTORS
330
2A
102
}
330
2A
100
AcDbVisualStyle
  2
3dWireframe
 70
     5
 71
     0
 72
     2
 73
     0
 90
        0
 40
-0.6
 41
-30.0
 62
     5
 63
     7
421
 16777215
 74
     1
 91
        4
 64
     7
 65
   257
 75
     1
175
     1
 42
1.0
 92
        0
 66
   257
 43
1.0
 76
     1
 77
     6
 78
     2
 67
     7
 79
     5
170
     0
171
     0
290
     0
174
     0
 93
        1
 44
0.0
173
     0
291
     0
 45
0.0
1001
ACAD
1000
AcDbSavedByObjectVersion
1070
     0
  0
VISUALSTYLE
  5
32
102
{ACAD_REACTORS
330
2A
102
}
330
2A
100
AcDbVisualStyle
  2
Basic
 70
     7
 71
     1
 72
     0
 73
     1
 90
        0
 40
-0.6
 41
-30.0
 62
     5
 63
     7
421
 16777215
 74
     0
 91
        4
 64
     7
 65
   257
 75
     1
175
     1
 42
1.0
 92
        8
 66
     7
 43
1.0
 76
     1
 77
     6
 78
     2
 67
     7
 79
     5
170
     0
171
     0
290
     0
174
     0
 93
        1
 44
0.0
173
     0
291
     1
 45
0.0
1001
ACAD
1000
AcDbSavedByObjectVersion
1070
     0
  0
VISUALSTYLE
  5
36
102
{ACAD_REACTORS
330
2A
102
}
330
2A
100
AcDbVisualStyle
  2
Brighten
 70
    12
 71
     2
 72
     2
 73
     0
 90
        0
 40
-0.6
 41
-30.0
 62
     5
 63
     7
421
 16777215
 74
     1
 91
        4
 64
     7
 65
   257
 75
     1
175
     1
 42
1.0
 92
        8
 66
     7
 43
1.0
 76
     1
 77
     6
 78
     2
 67
     7
 79
     5
170
     0
171
     0
290
     0
174
     0
 93
        1
 44
50.0
173
     0
291
     1
 45
0.0
1001
ACAD
1000
AcDbSavedByObjectVersion
1070
     0
  0
VISUALSTYLE
  5
3A
102
{ACAD_REACTORS
330
2A
102
}
330
2A
100
AcDbVisualStyle
  2
ColorChange
 70
    16
 71
     2
 72
     2
 73
     3
 90
        0
 40
-0.6
 41
-30.0
 62
     5
 63
     8
421
  8421504
 74
     1
 91
        4
 64
     7
 65
   257
 75
     1
175
     1
 42
1.0
 92
        8
 66
     8
424
  8421504
 43
1.0
 76
     1
 77
     6
 78
     2
 67
     7
 79
     5
170
     0
171
     0
290
     0
174
     0
 93
        1
 44
0.0
173
     0
291
     1
 45
0.0
1001
ACAD
1000
AcDbSavedByObjectVersion
1070
     0
  0
VISUALSTYLE
  5
34
102
{ACAD_REACTORS
330
2A
102
}
330
2A
100
AcDbVisualStyle
  2
Conceptual
 70
     9
 71
     3
 72
     2
 73
     0
 90
        0
 40
-0.6
 41
-30.0
 62
     5
 63
     7
421
 16777215
 74
     2
 91
        2
 64
     7
 65
   257
 75
     1
175
     1
 42
40.0
 92
        8
 66
     7
 43
1.0
 76
     1
 77
     6
 78
     2
 67
     7
 79
     3
170
     0
171
     0
290
     0
174
     0
 93
        1
 44
0.0
173
     0
291
     0
 45
0.0
1001
ACAD
1000
AcDbSavedByObjectVersion
1070
     0
  0
VISUALSTYLE
  5
35
102
{ACAD_REACTORS
330
2A
102
}
330
2A
100
AcDbVisualStyle
  2
Dim
 70
    11
 71
     2
 72
     2
 73
     0
 90
        0
 40
-0.6
 41
-30.0
 62
     5
 63
     7
421
 16777215
 74
     1
 91
        4
 64
     7
 65
   257
 75
     1
175
     1
 42
1.0
 92
        8
 66
     7
 43
1.0
 76
     1
 77
     6
 78
     2
 67
     7
 79
     5
170
     0
171
     0
290
     0
174
     0
 93
        1
 44
-50.0
173
     0
291
     1
 45
0.0
1001
ACAD
1000
AcDbSavedByObjectVersion
1070
     0
  0
VISUALSTYLE
  5
39
102
{ACAD_REACTORS
330
2A
102
}
330
2A
100
AcDbVisualStyle
  2
Facepattern
 70
    15
 71
     2
 72
     2
 73
     0
 90
        0
 40
-0.6
 41
-30.0
 62
     5
 63
     7
421
 16777215
 74
     1
 91
        4
 64
     7
 65
   257
 75
     1
175
     1
 42
1.0
 92
        8
 66
     7
 43
1.0
 76
     1
 77
     6
 78
     2
 67
     7
 79
     5
170
     0
171
     0
290
     0
174
     0
 93
        1
 44
0.0
173
     0
291
     1
 45
0.0
1001
ACAD
1000
AcDbSavedByObjectVersion
1070
     0
  0
VISUALSTYLE
  5
2B
102
{ACAD_REACTORS
330
2A
102
}
330
2A
100
AcDbVisualStyle
  2
Flat
 70
     0
 71
     2
 72
     1
 73
     1
 90
        2
 40
-0.6
 41
30.0
 62
     5
 63
     7
421
 16777215
 74
     0
 91
        4
 64
     7
 65
   257
 75
     1
175
     1
 42
1.0
 92
        8
 66
     7
 43
1.0
 76
     1
 77
     6
 78
     2
 67
     7
 79
     5
170
     0
171
     0
290
     0
174
     0
 93
       13
 44
0.0
173
     0
291
     1
 45
0.0
1001
ACAD
1000
AcDbSavedByObjectVersion
1070
     0
  0
VISUALSTYLE
  5
2C
102
{ACAD_REACTORS
330
2A
102
}
330
2A
100
AcDbVisualStyle
  2
FlatWithEdges
 70
     1
 71
     2
 72
     1
 73
     1
 90
        2
 40
-0.6
 41
30.0
 62
     5
 63
     7
421
 16777215
 74
     1
 91
        4
 64
     7
 65
   257
 75
     1
175
     1
 42
1.0
 92
        0
 66
   257
 43
1.0
 76
     1
 77
     6
 78
     2
 67
     7
 79
     5
170
     0
171
     0
290
     0
174
     0
 93
       13
 44
0.0
173
     0
291
     1
 45
0.0
1001
ACAD
1000
AcDbSavedByObjectVersion
1070
     0
  0
VISUALSTYLE
  5
2D
102
{ACAD_REACTORS
330
2A
102
}
330
2A
100
AcDbVisualStyle
  2
Gouraud
 70
     2
 71
     2
 72
     2
 73
     1
 90
        2
 40
-0.6
 41
30.0
 62
     5
 63
     7
421
 16777215
 74
     0
 91
        4
 64
     7
 65
   257
 75
     1
175
     1
 42
1.0
 92
        0
 66
     7
 43
1.0
 76
     1
 77
     6
 78
     2
 67
     7
 79
     5
170
     0
171
     0
290
     0
174
     0
 93
       13
 44
0.0
173
     0
291
     1
 45
0.0
1001
ACAD
1000
AcDbSavedByObjectVersion
1070
     0
  0
VISUALSTYLE
  5
2E
102
{ACAD_REACTORS
330
2A
102
}
330
2A
100
AcDbVisualStyle
  2
GouraudWithEdges
 70
     3
 71
     2
 72
     2
 73
     1
 90
        2
 40
-0.6
 41
30.0
 62
     5
 63
     7
421
 16777215
 74
     1
 91
        4
 64
     7
 65
   257
 75
     1
175
     1
 42
1.0
 92
        0
 66
   257
 43
1.0
 76
     1
 77
     6
 78
     2
 67
     7
 79
     5
170
     0
171
     0
290
     0
174
     0
 93
       13
 44
0.0
173
     0
291
     1
 45
0.0
1001
ACAD
1000
AcDbSavedByObjectVersion
1070
     0
  0
VISUALSTYLE
  5
38
102
{ACAD_REACTORS
330
2A
102
}
330
2A
100
AcDbVisualStyle
  2
Linepattern
 70
    14
 71
     2
 72
     2
 73
     0
 90
        0
 40
-0.6
 41
-30.0
 62
     5
 63
     7
421
 16777215
 74
     1
 91
        4
 64
     7
 65
   257
 75
     7
175
     7
 42
1.0
 92
        8
 66
     7
 43
1.0
 76
     1
 77
     6
 78
     2
 67
     7
 79
     5
170
     0
171
     0
290
     0
174
     0
 93
        1
 44
0.0
173
     0
291
     1
 45
0.0
1001
ACAD
1000
AcDbSavedByObjectVersion
1070
     0
  0
VISUALSTYLE
  5
33
102
{ACAD_REACTORS
330
2A
102
}
330
2A
100
AcDbVisualStyle
  2
Realistic
 70
     8
 71
     2
 72
     2
 73
     0
 90
        0
 40
-0.6
 41
-30.0
 62
     5
 63
     7
421
 16777215
 74
     1
 91
        0
 64
     7
 65
   257
 75
     1
175
     1
 42
1.0
 92
        8
 66
     8
424
  7895160
 43
1.0
 76
     1
 77
     6
 78
     2
 67
     7
 79
     5
170
     0
171
     0
290
     0
174
     0
 93
       13
 44
0.0
173
     0
291
     0
 45
0.0
1001
ACAD
1000
AcDbSavedByObjectVersion
1070
     0
  0
VISUALSTYLE
  5
37
102
{ACAD_REACTORS
330
2A
102
}
330
2A
100
AcDbVisualStyle
  2
Thicken
 70
    13
 71
     2
 72
     2
 73
     0
 90
        0
 40
-0.6
 41
-30.0
 62
     5
 63
     7
421
 16777215
 74
     1
 91
        4
 64
     7
 65
   257
 75
     1
175
     1
 42
1.0
 92
       12
 66
     7
 43
1.0
 76
     1
 77
     6
 78
     2
 67
     7
 79
     5
170
     0
171
     0
290
     0
174
     0
 93
        1
 44
0.0
173
     0
291
     1
 45
0.0
1001
ACAD
1000
AcDbSavedByObjectVersion
1070
     0
  0
ENDSEC
  0
EOF
